Oops, an error
Loading. Please wait.

Jars Tab

ver1
ver1

Whole song

Interactive

More versions @911Tabs.com
91,164 views 93 this week
18 commentsread comments
1 2 3 4 5
excellent!
x 18
Autoscroll
+/-
esc
set tempo
stop
Contributor
Difficulty
Tuning
novice
B F# B E G# C#
Hey! There's an official Ultimate Guitar app which is ideal
for learning songs when you're away from computer. Get the app
WARNING: You are trying to view
                                    content from Ultimate-Guitar.com
                                    in an unauthorized application,
                                    which is prohibited.

                                    Please use an official Ultimate
                                    Guitar Tabs application for iPhone,
                                    iPad or Android to access legitimate
                                    chords, guitar, bass, and drum tabs
                                    from Ultimate-Guitar.com database.

                                    Type "ultimate guitar tabs" in Apple
                                    App Store's or Android Market's
                                    search to find the application.
artist-Chevelle
song-Jars
album-Sci-Fi Crimes
label-Epic
tabbed by-MetalSlayer09


Ok guys as you can tell I've mad a few corrections from last time, changed the tuning 
fixed that messed up pre-chorus and threw in the
lyrics for the heck of it. Anyhow I am 99.9 percent sure this is correct unless I made a 
that I didn't see to correct, with that said go

have some fun!

tuning- Drop B (b f# b e g# c#)

Intro/verse
   Hold            onto  chance        Lest we bleed ourselves                  then
c#------------------------------------------------------------------------------------]
g#------------------------------------------------------------------------------------]
e-------------------------------------------------------------------------------------]
b-------------------------------------------------------------------------------------]
f#------------------------------------------------------------------------------------]
b-12-12-0-12-15-15-0-15-10-10-0-10-8-8-0-8--12-12-0-12-15-15-0-15-10-10-0-10-8-8-0----]


   save            for the pets        They're the lonliest              put  into
c#-----------------------------------------------------------------------------------]
g#-----------------------------------------------------------------------------------]
e------------------------------------------------------------------------------------]
b------------------------------------------------------------------------------------]
f#-----------------------------------------------------------------------------------]
b-12-12-0-12-15-15-0-15-10-10-0-10-8-8-0-8--12-12-0-12-15-15-0-15-10-10-0-10-8-8-0-8-]


pre chorus

   jars               we'll save this earth put into jars      we'll save this earth     
we can't
c#---------------------------------------------------------------------------------------------]
g#---------------------------------------------------------------------------------------------]
e------0-----------0-----------0-----------0-----------0-----------0-----------0-----------0---]
b--7-------7---7-------7---7-------7---7-------7----7-------7---7-------7---7-------7---7------]
f#---5---5-------5---5-------5---5-------5---5--------5---5-------5---5-------5---5-------5----]
b-0----------0-----------0-----------0------------0-----------0-----------0-----------0--------]

chorus

   both          become         the    same  pawn   thats  made  to fall
c#-----------------------------------------------------------------------]
g#-----------------------------------------------------------------------]
e------------------------------------------------------------------------]
b--12-12-12-12-12-12-12-12-12-12-12-12-12-12-3-3-3-3-3-3-3-3-3-3-3-3-3-3-]
f#-12-12-12-12-12-12-12-12-12-12-12-12-12-12-3-3-3-3-3-3-3-3-3-3-3-3-3-3-]
b--12-12-12-12-12-12-12-12-12-12-12-12-12-12-3-3-3-3-3-3-3-3-3-3-3-3-3-3-]

   oil that tastes like blood  stole the summer scent from
c#---------------------------------------------------------]
g#---------------------------------------------------------]
e----------------------------------------------------------]
b--8-8-8-8-8-8-8-8-8-8-8-8-8-8-5-5-5-5-5-5-5-5-5-5-5-5-5-5-]
f#-8-8-8-8-8-8-8-8-8-8-8-8-8-8-5-5-5-5-5-5-5-5-5-5-5-5-5-5-]
b--8-8-8-8-8-8-8-8-8-8-8-8-8-8-5-5-5-5-5-5-5-5-5-5-5-5-5-5-]

   me       to you        your    stabbing   me through you  your stabbing
c#------------------------------------------------------------------------]
g#------------------------------------------------------------------------]
e-------------------------------------------------------------------------]
b--12-12-12-12-12-12-12-12-12-12-12-12-12-12-3-3-3-3-3-3-3-3-3-3-3-3-3-3--]
f#-12-12-12-12-12-12-12-12-12-12-12-12-12-12-3-3-3-3-3-3-3-3-3-3-3-3-3-3--]
b--12-12-12-12-12-12-12-12-12-12-12-12-12-12-3-3-3-3-3-3-3-3-3-3-3-3-3-3--]

   you  through him and betting most of            this
c#---------------------------------------------------------]
g#---------------------------------------------------------]
e----------------------------------------------------------]
b--8-8-8-8-8-8-8-8-8-8-8-8-8-8-5-5-5-5-5-5-5-5-5-5-5-5-5-5-]
f#-8-8-8-8-8-8-8-8-8-8-8-8-8-8-5-5-5-5-5-5-5-5-5-5-5-5-5-5-]
b--8-8-8-8-8-8-8-8-8-8-8-8-8-8-5-5-5-5-5-5-5-5-5-5-5-5-5-5-]

  world              we'll add enough of the  world
c#---------------------------------------------------------------------------]
g#---------------------------------------------------------------------------]
e----------------------------------------------------------------------------]
b----------------------------------------------------------------------------]
f#-------------------------------------------3-3-0-3-7-7-0-7-5-5-0-5-5-7-3-0-]
b-12-12-0-12-15-15-0-15-10-10-0-10-8-8-0-8---3-3-0-3-7-7-0-7-5-5-0-5-5-7-3-0-]

Verse 2

   Steal            from  yourselves   it never felt so good                     and
c#--------------------------------------------------------------------------------------]
g#--------------------------------------------------------------------------------------]
e---------------------------------------------------------------------------------------]
b---------------------------------------------------------------------------------------]
f#--------------------------------------------------------------------------------------]
b-12-12-0-12-15-15-0-15-10-10-0-10-8-8-0-8--12-12-0-12-15-15-0-15-10-10-0-10-8-8-0-8----]


   feed              from their hand's confused by opposites              put  into
c#-----------------------------------------------------------------------------------]
g#-----------------------------------------------------------------------------------]
e------------------------------------------------------------------------------------]
b------------------------------------------------------------------------------------]
f#-----------------------------------------------------------------------------------]
b-12-12-0-12-15-15-0-15-10-10-0-10-8-8-0-8--12-12-0-12-15-15-0-15-10-10-0-10-8-8-0-8-]


pre chorus

   jars               we'll save this earth put into jars      we'll save this earth     
we can't
c#--------------------------------------------------------------------------------------------]
g#--------------------------------------------------------------------------------------------]
e------0-----------0-----------0-----------0-----------0-----------0-----------0-----------0--]
b--7-------7---7-------7---7-------7---7-------7----7-------7---7-------7---7-------7---7-----]
f#---5---5-------5---5-------5---5-------5---5--------5---5-------5---5-------5---5-------5---]
b-0----------0-----------0-----------0------------0-----------0-----------0-----------0-------]

chorus

   both          become         the    same  pawn   thats  made  to fall
c#-----------------------------------------------------------------------]
g#-----------------------------------------------------------------------]
e------------------------------------------------------------------------]
b--12-12-12-12-12-12-12-12-12-12-12-12-12-12-3-3-3-3-3-3-3-3-3-3-3-3-3-3-]
f#-12-12-12-12-12-12-12-12-12-12-12-12-12-12-3-3-3-3-3-3-3-3-3-3-3-3-3-3-]
b--12-12-12-12-12-12-12-12-12-12-12-12-12-12-3-3-3-3-3-3-3-3-3-3-3-3-3-3-]

   oil that tastes like blood  stole the summer scent from
c#---------------------------------------------------------]
g#---------------------------------------------------------]
e----------------------------------------------------------]
b--8-8-8-8-8-8-8-8-8-8-8-8-8-8-5-5-5-5-5-5-5-5-5-5-5-5-5-5-]
f#-8-8-8-8-8-8-8-8-8-8-8-8-8-8-5-5-5-5-5-5-5-5-5-5-5-5-5-5-]
b--8-8-8-8-8-8-8-8-8-8-8-8-8-8-5-5-5-5-5-5-5-5-5-5-5-5-5-5-]

   me       to you        your    stabbing   me through you  your stabbing
c#------------------------------------------------------------------------]
g#------------------------------------------------------------------------]
e-------------------------------------------------------------------------]
b--12-12-12-12-12-12-12-12-12-12-12-12-12-12-3-3-3-3-3-3-3-3-3-3-3-3-3-3--]
f#-12-12-12-12-12-12-12-12-12-12-12-12-12-12-3-3-3-3-3-3-3-3-3-3-3-3-3-3--]
b--12-12-12-12-12-12-12-12-12-12-12-12-12-12-3-3-3-3-3-3-3-3-3-3-3-3-3-3--]

   you  through him and betting most of            this
c#---------------------------------------------------------]
g#---------------------------------------------------------]
e----------------------------------------------------------]
b--8-8-8-8-8-8-8-8-8-8-8-8-8-8-5-5-5-5-5-5-5-5-5-5-5-5-5-5-]
f#-8-8-8-8-8-8-8-8-8-8-8-8-8-8-5-5-5-5-5-5-5-5-5-5-5-5-5-5-]
b--8-8-8-8-8-8-8-8-8-8-8-8-8-8-5-5-5-5-5-5-5-5-5-5-5-5-5-5-]

  world              we'll add enough of the  world
c#---------------------------------------------------------------------------]
g#---------------------------------------------------------------------------]
e----------------------------------------------------------------------------]
b----------------------------------------------------------------------------]
f#-------------------------------------------3-3-0-3-7-7-0-7-5-5-0-5-5-7-3-0-]
b-12-12-0-12-15-15-0-15-10-10-0-10-8-8-0-8---3-3-0-3-7-7-0-7-5-5-0-5-5-7-3-0-]

Interlude
    This world                                      we'll add    enough
c#-1717171717171717171717171717171715151513131312121212---------------]
g#-----------------------------------------------------13131313131313-]
e---------------------------------------------------------------------]
b---------------------------------------------------------------------]
f#--------------------------------------------------------------------]
b---------------------------------------------------------------------]

   enough            of the       world
c#--------------------------------12121212121212121313131310-]
g#-----------------------------------------------------------]
e-14141414141414141414141414141414---------------------------]
b------------------------------------------------------------]
f#-----------------------------------------------------------]
b------------------------------------------------------------]

c#-10101010101010101010101010101010-]
g#----------------------------------]
e-----------------------------------]
b-----------------------------------]
f#----------------------------------]
b-----------------------------------]

                  felling manic for a day                             depends
c#------------------------------------------------------------------------------------]
g#------------------------------------------------------------------------------------]
e-------------------------------------------------------------------------------------]
b-------------------------------------------------------------------------------------]
f#-12-0-10^12-12~-0-10^12-12~-0-10^12-8~-10^12-12~-0-10^12-12~-0-10^12-12~-0-10^12-8~-]
b--12-0-10^12-12~-0-10^12-12~-0-10^12-8~-10^12-12~-0-10^12-12~-0-10^12-12~-0-10^12-8~-]

 on the trends                         depends  on the surface        and if
c#----------------------------------------------------------------------------]
g#----------------------------------------------------------------------------]
e-----------------------------------------------------------------------------]
b-----------------------------------------------------------------------------]
f#-10^12-12~-0-10^12-12~-0-10^12-12~-0-10^12-8~-10^12-12~-0-10^12-12~-0-10^12-]
b--10^12-12~-0-10^12-12~-0-10^12-12~-0-10^12-8~-10^12-12~-0-10^12-12~-0-10^12-]

   the sun never sets, we can't
c#--------------------]
g#--------------------]
e---------------------]
b---------------------]
f#-12~-0-10^12-8-0-10-]
b--12~-0-10^12-8-0-10-]


chorus

   both          become         the    same  pawn   that's  made  to fall
c#-----------------------------------------------------------------------]
g#-----------------------------------------------------------------------]
e------------------------------------------------------------------------]
b--12-12-12-12-12-12-12-12-12-12-12-12-12-12-3-3-3-3-3-3-3-3-3-3-3-3-3-3-]
f#-12-12-12-12-12-12-12-12-12-12-12-12-12-12-3-3-3-3-3-3-3-3-3-3-3-3-3-3-]
b--12-12-12-12-12-12-12-12-12-12-12-12-12-12-3-3-3-3-3-3-3-3-3-3-3-3-3-3-]

   oil that tastes like blood  stole the summer scent from
c#---------------------------------------------------------]
g#---------------------------------------------------------]
e----------------------------------------------------------]
b--8-8-8-8-8-8-8-8-8-8-8-8-8-8-5-5-5-5-5-5-5-5-5-5-5-5-5-5-]
f#-8-8-8-8-8-8-8-8-8-8-8-8-8-8-5-5-5-5-5-5-5-5-5-5-5-5-5-5-]
b--8-8-8-8-8-8-8-8-8-8-8-8-8-8-5-5-5-5-5-5-5-5-5-5-5-5-5-5-]

   me       to you        your    stabbing   me through you  your stabbing
c#------------------------------------------------------------------------]
g#------------------------------------------------------------------------]
e-------------------------------------------------------------------------]
b--12-12-12-12-12-12-12-12-12-12-12-12-12-12-3-3-3-3-3-3-3-3-3-3-3-3-3-3--]
f#-12-12-12-12-12-12-12-12-12-12-12-12-12-12-3-3-3-3-3-3-3-3-3-3-3-3-3-3--]
b--12-12-12-12-12-12-12-12-12-12-12-12-12-12-3-3-3-3-3-3-3-3-3-3-3-3-3-3--]

   you  through him and betting most of            this
c#---------------------------------------------------------]
g#---------------------------------------------------------]
e----------------------------------------------------------]
b--8-8-8-8-8-8-8-8-8-8-8-8-8-8-5-5-5-5-5-5-5-5-5-5-5-5-5-5-]
f#-8-8-8-8-8-8-8-8-8-8-8-8-8-8-5-5-5-5-5-5-5-5-5-5-5-5-5-5-]
b--8-8-8-8-8-8-8-8-8-8-8-8-8-8-5-5-5-5-5-5-5-5-5-5-5-5-5-5-]

   world                                     we'll  add  enough  of  the
c#-----------------------------------------------------------------------]
g#-----------------------------------------------------------------------]
e------------------------------------------------------------------------]
b--12-12-12-12-12-12-12-12-12-12-12-12-12-12-3-3-3-3-3-3-3-3-3-3-3-3-3-3-]
f#-12-12-12-12-12-12-12-12-12-12-12-12-12-12-3-3-3-3-3-3-3-3-3-3-3-3-3-3-]
b--12-12-12-12-12-12-12-12-12-12-12-12-12-12-3-3-3-3-3-3-3-3-3-3-3-3-3-3-]

   world
c#---------------------------------------------------------]
g#---------------------------------------------------------]
e----------------------------------------------------------]
b--8-8-8-8-8-8-8-8-8-8-8-8-8-8-5-5-5-5-5-5-5-5-5-5-5-5-5-5-]
f#-8-8-8-8-8-8-8-8-8-8-8-8-8-8-5-5-5-5-5-5-5-5-5-5-5-5-5-5-]
b--8-8-8-8-8-8-8-8-8-8-8-8-8-8-5-5-5-5-5-5-5-5-5-5-5-5-5-5-]

   its  the  main  thing  you  shout               till the bitter
c#------------------------------------------------------------------------]
g#------------------------------------------------------------------------]
e-------------------------------------------------------------------------]
b--12-12-12-12-12-12-12-12-12-12-12-12-12-12-3-3-3-3-3-3-3-3-3-3-3-3-3-3--]
f#-12-12-12-12-12-12-12-12-12-12-12-12-12-12-3-3-3-3-3-3-3-3-3-3-3-3-3-3--]
b--12-12-12-12-12-12-12-12-12-12-12-12-12-12-3-3-3-3-3-3-3-3-3-3-3-3-3-3--]

   end                                          into jars
c#---------------------------------------------------------]
g#---------------------------------------------------------]
e----------------------------------------------------------]
b--8-8-8-8-8-8-8-8-8-8-8-8-8-8-5-5-5-5-5-5-5-5-5-5-5-5-5-5-]
f#-8-8-8-8-8-8-8-8-8-8-8-8-8-8-5-5-5-5-5-5-5-5-5-5-5-5-5-5-]
b--8-8-8-8-8-8-8-8-8-8-8-8-8-8-5-5-5-5-5-5-5-5-5-5-5-5-5-5-]

outro

c#-----------------------------------------------------------------------------------------]
g#-----------------------------------------------------------------------------------------]
e------------------------------------------------------------------------------------------]
b------------------------------------------------------------------------------------------]
f#-12-0-10^12-12~-0-10^12-12~-0-10^12-12~-0-10^12-12~-0-10^12-12~-0-10^12-12~-0-10^12-12~\-]
b--12-0-10^12-12~-0-10^12-12~-0-10^12-12~-0-10^12-12~-0-10^12-12~-0-10^12-12~-0-10^12-12~\-]

 end with a pick scrape

legend
/ slide
] bar
^ hammer on or pull off
~ vibrato

I got the words from Chevelle's site (www.chevelleinc.com) and some of the corrections 
based
upon what some of the commenters wrote in my first tab if you wanna see who they are 
look at
the comments in my first Jars tab.
comments
print report bad tab
18 comments total. Showing first comments.
+1 reply
phasesevenfold wrote on July 1 2009, 03:44 pm

It looks pretty good, thanks for tabbing this before the album comes out!

0 reply
metalslayer09 wrote on July 1 2009, 05:04 pm

thanks man, and thanks for givin me a good score too, can't wait for sci-fi crimes!

0 reply
nickdawg wrote on July 4 2009, 08:56 pm

The opening riff, where you go up to the 15th fret, it doesn't come back down to 12 after the open. It stays at 15.

I want to post or [tab]
guest
You may want to rate the tab now too:
select rating
Please do not post tabs as comments. Select "correction" instead!