Oops, an error
Loading. Please wait.

Point 1 Tab

ver1
ver1

Album

More versions @911Tabs.com
7,119 views 1 this week
2 commentsread comments
1 2 3 4 5
accurate
x 6
Autoscroll
+/-
esc
set tempo
stop
Contributor
Hey! There's an official Ultimate Guitar app which is ideal
for learning songs when you're away from computer. Get the app
WARNING: You are trying to view
                                    content from Ultimate-Guitar.com
                                    in an unauthorized application,
                                    which is prohibited.

                                    Please use an official Ultimate
                                    Guitar Tabs application for iPhone,
                                    iPad or Android to access legitimate
                                    chords, guitar, bass, and drum tabs
                                    from Ultimate-Guitar.com database.

                                    Type "ultimate guitar tabs" in Apple
                                    App Store's or Android Market's
                                    search to find the application.
I realized there are no tabs for the Point #1 album in full

1.===============Open===============
Tuning: Drop D

|-------------------------------------------------|-
|-------------------------------------------------|-
|-------------------------------------------------|-
|-------------------------------------------------|- X4
|-------------------------------------------------|-
|-0-0-0-0-0-x-0-0-0-0-0-x-0-0-0-0-0-x-0-0-0-0-0-x-|-

|------------------|-
|------------------|-
|-9999999999999999-|-
|-xxxxxxxxxxxxxxxx-|-
|-7777777777777777-|-
|------------------|-

|-------------------------------------------------------------------------------|-
|-------------------------------------------------------------------------------|-
|-------------------------------------------------------------------------------|-
|-0--0-0--0-0--0-0--0-0--0-0--0-0--0-0--0-0--0-0--0-0--0-0--0-0--0-0--0-0--0-0-|-
|-0--0-0--0-0--0-0--0-0--0-0--0-0--0-0--0-0--0-0--0-0--0-0--0-0--0-0--0-0--0-0-|-
|-0--0-0--0-0--0-0--0-0--0-0--0-0--0-0--0-0--0-0--0-0--0-0--0-0--0-0--0-0--0-0-|-

|--------------------------------------------------------------------------------|-
|--------------------------------------------------------------------------------|-
|--------------------------------------------------------------------------------|-
|-0-0--0-0--0-0--0-0--0-0--0-0--0-0--0-0--0-0--0-0--0-0--0-0--0-0--0-0--0-0--0-0-|-
|-0-0--0-0--0-0--0-0--0-0--0-0--0-0--0-0--0-0--0-0--0-0--0-0--0-0--0-0--0-0--0-0-|-
|-0-0--0-0--0-0--0-0--0-0--0-0--0-0--0-0--0-0--0-0--0-0--0-0--0-0--0-0--0-0--0-0-|-

It's mostly timed right listen to the song for complete timing

2.===============Point #1===============
Tuning: Drop D

Intro/Verse
|-------------------------------|-
|-------------------------------|-
|-------------------------------|-
|-222222-222222-222222-00003333-|-
|-222222-222222-222222-00003333-|-
|-000000-000000-000000-00001111-|-

Chorus
|-----------------------------------------------------------------|-
|-----------------------------------------------------------------|-
|---------------------------------7-7-7-7-7-7-7-7-7-7-7-7-7-7-7-7-|-
|-3-3-3-3-3-3-3-3-3-3-3-3-3-3-3-3-x-x-x-x-x-x-x-x-x-x-x-x-x-x-x-x-|-
|-3-3-3-3-3-3-3-3-3-3-3-3-3-3-3-3-5-5-5-5-5-5-5-5-5-5-5-5-5-5-5-5-|-
|-1-1-1-1-1-1-1-1-1-1-1-1-1-1-1-1---------------------------------|-

Interlude (repeat)
|---|-
|---|-
|---|-
|-2-|-
|-2-|-
|-0-|-

|-------------------------------------------------------|-
|-------------------------------------------------------|-
|-------------------------------------------------------|-
|-2-5-10-10-10-10-10-10-10-10-10-10-10-10-10-10-10-10-7-|-
|-2-5-10-10-10-10-10-10-10-10-10-10-10-10-10-10-10-10-7-|-
|-0-3--8--8--8--8--8--8--8--8--8--8--8--8--8--8--8--8-5-|-

Solo Play Fast With Octave
|---------------------------------------------------------------------------------|-
|---------------------------------------------------------------------------------|-
|---------------------------------------------------------------------------------|-
|---------------------------------------------------------------------14-14-14-14-|-
|-10-10-10-10-8-8-8-8-8-8-8-8-8-8-8-10-10-10-10-8-8-8-8-8-8-8-8-8-8-8-------------|-
|---------------------------------------------------------------------------------|-

Outro
|-------------------|-
|-------19-19-19-19-|-
|-------18-18-18-18-|-
|-2-2---17-17-17-17-|-
|-2-2---------------|-
|-0-0---------------|-

3.===============Prove To You===============
Tuning Drop D

Intro
|--------------------------------------------------------|-
|--------------------------------------------------------|-
|-10-10-10-10-10-10-10-10-10-10-10/9/7-7-7-7-7-7-7-7-7-7-|-
|--------------------------------------------------------|-
|--8--8--8--8--8--8--8--8--8--8--8/7/5-5-5-5-5-5-5-5-5-5-|-
|--------------------------------------------------------|-

|-----------------------------------------------|-
|-----------------------------------------------|-
|-10-10-10-10-10-10-10-10-10-10/5-5-5-5-5-------|-
|-----------------------------------------5-5-5-|-
|--8--8--8--8--8--8--8--8--8--8/3-3-3-3-3-------|-
|-----------------------------------------5-5-5-|-

|-----------------------------------------------|-
|-----------------------------------------------|-
|-----------------------------------------------|-
|-0--3-3-3-3-3-3-3-3-4--------3-3-3-3-3-3-3-3-4-|-
|-0--3-3-3-3-3-3-3-3-4--------3-3-3-3-3-3-3-3-4-|-
|-0--3-3-3-3-3-3-3-3-4--0-0-0-3-3-3-3-3-3-3-3-4-|-
                    P.M...
Fill
|--------|-
|--------|-
|--------|-
|--------|-
|---5v---|-
|-5v--5v-|-

Verse
|-----------------------------------------|-
|-----------------------------------------|-
|-----------------------------------------|-
|-3-3-3-3-3-3-3-3-4-------0-0-0-0-0-0-0-0-|-
|-3-3-3-3-3-3-3-3-4-------0-0-0-0-0-0-0-0-|-
|-3-3-3-3-3-3-3-3-4-0-0-0-0-0-0-0-0-0-0-0-|-
                 P.M..

Chorus
|-----------------------------x-x-x-x-x-x-x-x-x-|-
|-----------------------------x-x-x-x-x-x-x-x-x-|-
|-----------------------------x-x-x-x-x-x-x-x-x-|-
|-0--3-3-3-3-3--0--3-3-3-3-3--x-x-x-x-x-x-x-x-x-|-
|-0--3-3-3-3-3--0--3-3-3-3-3--x-x-x-x-x-x-x-x-x-|-
|-0--3-3-3-3-3--0--3-3-3-3-3--x-x-x-x-x-x-x-x-x-|-

4.===============Mia===============
Tuning: Drop D

Intro/Verse
|---------------------------------------|-
|---------------------------------------|-
|-6666-4444-----------------------------|-
|-4444-2222-44444444-5555-7777-9999-555-|-
|-----------22222222-5555-7777-9999-555-|-
|--------------------3333-5555-7777-333-|-

Chorus
|----------------------------------------|-
|----------------------------------------|-
|------3--4-------3--4-------------------|-
|-22-2-22-2--22-2-22-2-55555555-77777777-|-
|-22-2-22-2--22-2-22-2-55555555-77777777-|-
|-00-0-00-0--00-0-00-0-33333333-55555555-|-

Solo
|-------------------------------|-
|--------------------3-3-3-3----|-
|--------------------2-2-2-2-2~-|-
|-22222222-22222222--0-0-0-0----|-
|-22222222-22222222-------------|-
|-00000000-00000000-------------|-

5.===============Skeptic===============
Tuning: Drop D

i don't know the volume swells to this song but try some until you find what sounds right

Intro
|----------------------------|-
|----------------------------|-
|----------------------------|-
|-0---------0---------3-0--0-|-
|-0---------0---------3-0--0-|-
|-0---------0---------3-0--0-|-

|-------------------------------------------------|-
|-------------------------------------------------|-
|----0-2-0-2--0-2-0-2-2b3----0-2-0-2--0-2-0-2-2b3-|-
|-0--0-0-0-0--0-0-0-0-----0--0-0-0-0--0-0-0-0-----|-
|-0-----------------------0-----------------------|-
|-0-----------------------0-----------------------|-

|-------------------------------------------------|-
|-------------------------------------------------|-
|------0-2-0-2--0-2-0-2-2b3---------------0-2-0-2-|-
|-3-0--0-0-0-0--0-0-0-0-----------------0-0-0-0-0-|-
|-3-0---------------------------3-3-3-3-0---------|-
|-3-0-------------------------3-3-3-3-3-0---------|-
                             P.M.....

Verse
|----------|--------------------------------|-
|----------|--------------------------------|-
|----0h2-2-|----0-2-0-2--0-2-0-2-2b3--------|-
|--0-0---0-|----0-0-0-0--0-0-0-0------------|-
|----------|--------------------------------|-
|-0--------|-0------------------------3---0-|-
            P.M...........................

Chorus
|-------------------|-------------------
|-------------------|-------------------
|-------------------|-3-3-2-2-----------
|-3-3-2-2-3-3-3-3-3-|-3-3-2-2-3---------
|-3-3-2-2-3-3-3-3-3-|-1-1-0-0-3-----0h1-
|-3-3-2-2-3-3-3-3-3-|---------3-3h5-----

Fill (Let Notes Ring)
|----------------|-
|----------------|-
|-9------10------|-
|----------------|-
|----------------|-
|----------------|-

6.===============Anticipation===============
Tuning Drop D

Intro
|-------|------|-
|-------|------|-
|-------|------|-
|-7h9-9-|-4----|-
|-7h9-9-|-4----|-
|-7h9-9-|-4----|-

1st Verse
|----------------------------------|-
|----------------------------------|-
|----------------------------------|-
|-8-8-8-8-8-8-8-8-8-8-8-8--4--4--4-|-
|-8-8-8-8-8-8-8-8-8-8-8-8--4--4--4-|-
|-8-8-8-8-8-8-8-8-8-8-8-8--4--4--4-|-
P.M................................

2nd Verse/Chorus
|-------|---------|-
|-------|---------|-
|-------|---------|-
|-7h9-9-|-4--4--4-|-
|-7h9-9-|-4--4--4-|-
|-7h9-9-|-4--4--4-|-

Solo
|----------------------------|-
|----------------------------|-
|--------8-6-5-----8-6-5-----|-
|--6-4-6-------4-6-------6-4-|-
|----------------------------|-
|----------------------------|-

Outro
|-------------------------|-------------------|-
|-------------------------|-------------------|-
|-------------------------|-------------------|-
|-4--<4>-<4>-<4>--<4>-<4>-|-4--4-4-4-4--8--/0-|-
|-4--<4>-<4>-<4>--<4>-<4>-|-4--4-4-4-4--8--/0-|-
|-4--<4>-<4>-<4>--<4>-<4>-|-4--4-4-4-4--8--/0-|-

7.===============Dos===============
Tuning: Drop D

Intro/Verse
|-----------------------------------------------------------------|-
|-----------------------------------------------------------------|-
|-----------------------------------------------------------------|-
|-0-0-0-0-0-0-0-0-0-0-0-0-0-0-0-0-0-0-0-0-0-0-0-0-0-0-0-0-0-0-0-0-|-
|-1-1-1-1-1-1-1-1-1-1-1-1-1-1-1-1-0-0-0-0-0-0-0-0-0-0-0-0-0-0-0-0-|-
|-0-0-0-0-0-0-0-0-0-0-0-0-0-0-0-0-0-0-0-0-0-0-0-0-0-0-0-0-0-0-0-0-|-

Chorus
|--------------------------------------------------------|-
|--------------------------------------------------------|-
|--------------------------------------------------------|-
|-5-5555x--xxx--3-3333x--xxx--8-8888x--xxx--7-7777x--xxx-|-
|-5-5555x--xxx--3-3333x--xxx--8-8888x--xxx--7-7777x--xxx-|-
|-5-5555x--xxx--3-3333x--xxx--8-8888x--xxx--7-7777x--xxx-|-

|--------------------------------------------------------|-
|--------------------------------------------------------|-
|--------------------------------------------------------|-
|-5-5555x--xxx--0-0000x--xxx--3-3333x--xxx--7-7777x--xxx-|-
|-5-5555x--xxx--0-0000x--xxx--3-3333x--xxx--7-7777x--xxx-|-
|-5-5555x--xxx--0-0000x--xxx--3-3333x--xxx--7-7777x--xxx-|-

Verse 2 (Listen To CD For Exact Timing)
|-----------------------------------------------------------------|-
|-----------------------------------------------------------------|-
|-----------------------------------------------------------------|-
|-5-5-5-5-3-3-3-3-8-8-8-8-7-7-7-7-5-5-5-5-0-0-0-0-3-3-3-3-7-7-7-7-|-
|-5-5-5-5-3-3-3-3-8-8-8-8-7-7-7-7-5-5-5-5-0-0-0-0-3-3-3-3-7-7-7-7-|-
|-5-5-5-5-3-3-3-3-8-8-8-8-7-7-7-7-5-5-5-5-0-0-0-0-3-3-3-3-7-7-7-7-|-

Outro
|------------|-
|------------|-
|------------|-
|-0-----0--0-|-
|-1-----0--0-|-
|-0-----0--0-|-

8.===============Long===============
Tuning: Drop D

Intro
|---------------------------|-
|---------------------------|-
|---------------------------|-
|-33-33-33-33-33-33-33-3543-|-
|-33-33-33-33-33-33-33-3543-|-
|-33-33-33-33-33-33-33-3543-|-
                       P.M.

Bridge
|----|-
|----|-
|----|-
|-0~-|-
|-0~-|-
|-0~-|-
P.M.

Verse
|--------------------------|-
|----3------3------3-----3-|-
|-3-3-3-3-3-3--3-3-3-3-3-3-|- 
|-3-3-3-3-3-3--3-3-3-3-3-3-|-
|-1-1----------------------|-
|--------------5-5---------|-

Chorus
|-----------------------------|-
|-----------------------------|-
|-----------------------------|-
|-3p2p0-3p2p0-3p2p0-3p2p0-xxx-|-
|-3p2p0-3p2p0-3p2p0-3p2p0-xxx-|-
|-3p2p0-3p2p0-3p2p0-3p2p0-xxx-|-

Interlude
|-------------------------|-
|-------------------------|-
|-------------------------|-
|-------------------------|-
|-4h5---------------------|-
|-----0h5p0-0-5h7-0h3p0-0-|-

|-----------------------------------|-
|-3333333333-------3333333333-------|-
|-2222222222-2-5-5-2222222222-------|-
|-0000000000-------0000000000-3-3-3-|-
|-0000000000-------0000000000-3-3-3-|-
|-0000000000-------0000000000-3-3-3-|-

Fill
|-----------------------------------------|-
|-----------------------------------------|-
|-----------------------------------------|-
|-555-------------555---------------------|-
|----555----------333---------------------|-
|-------555-0h3h5-----5p3p0-3p0-3p5p3p0-0-|-
P.M...............................................

|-------------------------------------|-
|-------------------------------------|-
|-----777-----777-5-------------------|-
|-555-777-555-777-5-5p3p0-3p0-3p5p3p0-|-
|-555-----555-----3-5p3p0-3p0-3p5p3p0-|-
|-555-----555-------5p3p0-3p0-3p5p3p0-|-

|-------------------------------------------|-
|-------------------------------------------|-
|-------------------------------------------|-
|-3h5p3p0-3p0-3h5p3p0-3p0-3h5p3p0-3p0-3-3-3-|-
|-3h5p3p0-3p0-3h5p3p0-3p0-3h5p3p0-3p0-3-3-3-|-
|-3h5p3p0-3p0-3h5p3p0-3p0-3h5p3p0-3p0-3-3-3-|-

9.===============Blank Earth===============

|--------------------------------------------------------------------|-
|--------------------------------------------------------------------|-
|--------------------------------------------------------------------|-
|-9-9-9-9-9-9-9-9-9-9-9-9-9-9--5-5-5-5-5-5-5-5-5-5--4/5-5-5--4/5-5-5-|-
|-9-9-9-9-9-9-9-9-9-9-9-9-9-9--5-5-5-5-5-5-5-5-5-5--4/5-5-5--4/5-5-5-|-
|-7-7-7-7-7-7-7-7-7-7-7-7-7-7--3-3-3-3-3-3-3-3-3-3--2/3-3-3--2/3-3-3-|-

|----------------------------------------------|-
|-------0-----------0--------------------------|-
|-------0-----------0--------------------------|-
|-2-2-2-2-2-2-2-2-2-2--5-5-5-5-5-5-5-5-5-5-5-5-|-
|-2-2-2-2-2-2-2-2-2-2--5-5-5-5-5-5-5-5-5-5-5-5-|-
|-0-0-0-0-0-0-0-0-0-0--3-3-3-3-3-3-3-3-3-3-3-3-|-

|-------------------------------------------------------|-
|-------------------------------------------------------|-
|-12h13-13-12h13-13-12h13-13-12h13p12-12-12-12/10-10-10-|-
|-------------------------------------------------------|-
|-------------------------------------------------------|-
|-------------------------------------------------------|-

|---------------------------------------|---|-
|---------------------------------------|---|-
|---------------------------------------|---|-
|-7-x-x-x-x-2-x-x-x-x-3-x-x-x-x-0-0-0-0-|-2-|-
|-7-x-x-x-x-2-x-x-x-x-3-x-x-x-x-0-0-0-0-|-2-|-
|-7-x-x-x-x-2-x-x-x-x-3-x-x-x-x-0-0-0-0-|-0-|-

10.===============Sma===============
Tuning: Drop D

|---------------------------------|-3------------|-
|---------------------------------|-3------------|-
|---------------------------------|-5----------5-|-
|---------------------------------|-5------------|-
|---------------------------------|-3------------|-
|-0-0-0-0-3-3-3-3-3-3-3-3-3-3-3-5-|--------------|-

|-------------------------------|-
|-------------------------------|-
|-------------------------------|-
|-3p0-3p0-3p0-3-x-3p0-3p0-3p0-5-|-
|-3p0-3p0-3p0-3-x-3p0-3p0-3p0-5-|-
|-3p0-3p0-3p0-3-x-3p0-3p0-3p0-5-|-

|------------------|------------------------------|-
|------------------|------------------------------|-
|------------------|------------------------------|-
|-0-0--8--8-8-8-10-|-6-6-6-6-6-6-6-6-3-3-3-3-/-15-|-
|-0-0--8--8-8-8-10-|-6-6-6-6-6-6-6-6-3-3-3-3-/-15-|-
|-0-0--8--8-8-8-10-|-6-6-6-6-6-6-6-6-3-3-3-3-/-15-|-

Verse
|---------------------------------------------------|-
|---------------------------------------------------|-
|---------------------------------------------------|-
|-0-0-0-0-7-7-7-7-7-7-8-8-8-8-8-8-10-10-10-10-10-10-|-
|-0-0-0-0-7-7-7-7-7-7-8-8-8-8-8-8-10-10-10-10-10-10-|-
|-0-0-0-0-7-7-7-7-7-7-8-8-8-8-8-8-10-10-10-10-10-10-|-

|-------------------------
|-------------------------
|-------------------------
|-6-6-6-6-6-6-6-6-3-3-3-3-
|-6-6-6-6-6-6-6-6-3-3-3-3-
|-6-6-6-6-6-6-6-6-3-3-3-3-
P.M.......................

Interlude
|----------------------|-
|----------------------|-
|----------------------|-
|-4-4-5-4-5-4--0-0-x-0-|-
|-4-4-5-4-5-4--0-0-x-0-|-
|-4-4-5-4-5-4--0-0-x-0-|-

11.===============Peer===============
Tuning: Drop D

Intro/Verse
|---------------------------------------|-
|---------------------------------------|-
|-3-3-3-3-3-3-3-------------2-2-2-2-2-2-|-
|-5-5-5-5-5-5-5-xx5/8-8-x-3-3-3-3-3-3-3-|-
|-3-----3-----3-xx5/8-8-x-3-----3---3---|-
|---------------xx5/8-8-x-3-------------|-

Between Verses
|-------------------------------------------|-
|-------------------------------------------|-
|-3-3-3-3-3-3-2h3p2-------------2-2-2-2-2-2-|-
|-5-5-5-5-5-5-0----h3---------3-3-3-3-3-3-3-|-
|-3-----3-----------------8-8-3-----3---3---|-
|---------------------5h8-8-8-3-------------|-

|------------------------------|-----------------------------------|-
|-----3------------------------|-------3---------------------------|-
|---3--------------2-2-2-2-2-2-|-3-3-3-3-3-3---------2-2-2-2-2-2-2-|-
|-5-5------------3-3-3-3-3-3-3-|-5-5-5-5-5-5---------3-3-3-3-3-3-3-|-
|-3----------8-8-3-----3---3---|-3-----3---3-----8-8-3-----3---3---|-
|--------5h8-8-8-3-------------|-------------5h8-8-8-3-------------|-

|---------|-
|---------|-
|---------|-
|-7--7--0-|-
|-7--7--0-|-
|-7--7--0-|-

|-----------------------------------------------|-
|-----------------------------------------------|-
|-----------------------------------------------|-
|-2h3-3-3-3-3-3-3-3h5-5-5-5-5-5-5-5h7-7-7-7-7-0-|-
|-2h3-3-3-3-3-3-3-3h5-5-5-5-5-5-5-5h7-7-7-7-7-0-|-
|-2h3-3-3-3-3-3-3-3h5-5-5-5-5-5-5-5h7-7-7-7-7-0-|-

|---------------------------------------------|-
|---------------------------------------------|-
|---------------------------------------------|-
|-3-3-3-3-3-3-3h5-5-5-5-5-5-5-5-0-5-5-5-5-5-5-|-
|-3-3-3-3-3-3-3h5-5-5-5-5-5-5-5-0-5-5-5-5-5-5-|-
|-3-3-3-3-3-3-3h5-5-5-5-5-5-5-5-0-5-5-5-5-5-5-|-

|-----------------------|-
|-----------------------|-
|-----------------------|-
|-5p0-5p0-5p0-5p0-3-/-5-|-
|-5p0-5p0-5p0-5p0-3-/-5-|-
|-5p0-5p0-5p0-5p0-3-/-5-|-

There it is the entire Point #1 album tab. Have Fun Bitches!
comments
print report bad tab
2 comments total.
+1 reply
guitar_gringo_ wrote on October 5 2007, 10:50 am

check out guitar_gringo 's profile....he's made the craziest tab,,,ever,,,,it'll drive u crazy, its so good,,plus he rocks his face off..

+1 reply
Minzufbotdmelon wrote on February 22 2008, 01:59 pm

nice tabs, they're pretty good except for some things.

point #1 is a little off, but that song has always been hard to peg down.

for anticipation, instead of 7h9, try 6h8. imo, it works better with the song.

for the beginning of sma, try repacing the 5 at the end with 4.

i still gave it 4 stars, though, because these tabs are still pretty good and no one's tabbed out the album yet. props, dude.

I want to post or [tab]
guest
You may want to rate the tab now too:
select rating
Please do not post tabs as comments. Select "correction" instead!