Oops, an error
Loading. Please wait.

Sci-Fi Crimes Tab

7,433 views 3 this week
4 commentsread comments
1 2 3 4 5
accurate
x 6
Autoscroll
+/-
esc
set tempo
stop
Contributor
Difficulty
intermediate
NEW! There's an official Ultimate Guitar app which is ideal
for learning songs when you're away from computer. Get the app
WARNING: You are trying to view
                                    content from Ultimate-Guitar.com
                                    in an unauthorized application,
                                    which is prohibited.

                                    Please use an official Ultimate
                                    Guitar Tabs application for iPhone,
                                    iPad or Android to access legitimate
                                    chords, guitar, bass, and drum tabs
                                    from Ultimate-Guitar.com database.

                                    Type "ultimate guitar tabs" in Apple
                                    App Store's or Android Market's
                                    search to find the application.
ALbum: Sci-Fi Crimes
Artist: Chevlle
Label: Epic
Year: 2009
Tabbed by: MetalSlayer09


this is my first tab of an album and I belive the first one on the net,
All the songs on here I also have written into there on individual tabs
too if you wawnt to just print one of the songs there shouldn't be many
mistakes but if there is all ya have to do is leave a comment and I'll
see about fixing it. Have fun here and also I'd really apreciate the ratings
if you like the tab. one more thing, I didn't tab out interlewd cause I really
don't like that song. sorry...

The band's members as of the present are:

Pete Loeffler- Guitars and vocals
Sam Loeffler- percussion
Pete Berdanini- bass

Track listing:

1.Sleep Apnea
2.Mexican Sun
3.Shameful Metaphors
4.Jars
5.Fell Into Your Shoes
6.Letter From a Thief
7.Highland's Appartion
8.Roswell's spell
9.Interlewd
10.A New Momentum
11.This Circus


__________________________________________1. Sleep Apnea_________________________________________


tuning:
Db ab db gb bb eb

        intro
Eb-------------------------------------------------------------[
Bb-------------------------------------------------------------[
Gb-------------------------------------------------------------[
db-------------------------------------------------------------[
Ab-------------------------------------------------------------[
Db-10-0-0-12-0-0-10-0-0-15-0-0-10-0-0-12-0-0-10-0-0-15-0-0-10--[

        pre verse
Eb------------------------------------------------------------------|
Bb------------------------------------------------------------------|
Gb------------------------------------------------------------------|
db------------------------------------------------------------------|
Ab------------------------------------------------------------------|
Db-0--0-0-12-15-12-0--0-0-12-13-12-0--0-0-12-15-12-0--0-0-12-13-12--|

Eb------------------------------------------------------------------|
Bb------------------------------------------------------------------|
Gb------------------------------------------------------------------|
db------------------------------------------------------------------|
Ab------------------------------------------------------------------|
Db-0--0-0-12-15-12-0--0-0-12-13-12-0--0-0-12-15-12-0--0-0-12-13-12--|

Eb------------------------------------------------------------------|
Bb------------------------------------------------------------------|
Gb------------------------------------------------------------------|
db------------------------------------------------------------------|
Ab------------------------------------------------------------------|
Db-0--0-0-12-15-12-0--0-0-12-13-12-0--0-0-12-15-12-0--0-0-12-13-12--|

Eb------------------------------------------------------------------[
Bb------------------------------------------------------------------[
Gb------------------------------------------------------------------[
db------------------------------------------------------------------[
Ab------------------------------------------------------------------[
Db-0--0-0-12-15-12-0--0-0-12-13-12-0--0-0-12-15-12-0--0-0-12-13-12--[

verse
       there    sat a new test
Eb------------------------------------------------------------------|
Bb------------------------------------------------------------------|
Gb------------------------------------------------------------------|
db------------------------------------------------------------------|
Ab------------------------------------------------------------------|
Db-0--0-0-12-15-12-0--0-0-12-13-12-0--0-0-12-15-12-0--0-0-12-13-12--|

      much harder than you brought in
Eb------------------------------------------------------------------|
Bb------------------------------------------------------------------|
Gb------------------------------------------------------------------|
db------------------------------------------------------------------|
Ab------------------------------------------------------------------|
Db-0--0-0-12-15-12-0--0-0-12-13-12-0--0-0-12-15-12-0--0-0-12-13-12--|

      as for the unseen
Eb------------------------------------------------------------------|
Bb------------------------------------------------------------------|
Gb------------------------------------------------------------------|
db------------------------------------------------------------------|
Ab------------------------------------------------------------------|
Db-0--0-0-12-15-12-0--0-0-12-13-12-0--0-0-12-15-12-0--0-0-12-13-12--|

     just take care of what you will
Eb------------------------------------------------------------------|
Bb------------------------------------------------------------------|
Gb------------------------------------------------------------------|
db------------------------------------------------------------------|
Ab------------------------------------------------------------------|
Db-0--0-0-12-15-12-0--0-0-12-13-12-0--0-0-12-15-12-0--0-0-12-13-12--|

     light the silent alarm
Eb------------------------------------------------------------------|
Bb------------------------------------------------------------------|
Gb------------------------------------------------------------------|
db------------------------------------------------------------------|
Ab------------------------------------------------------------------|
Db-0--0-0-12-15-12-0--0-0-12-13-12-0--0-0-12-15-12-0--0-0-12-13-12--|

     we never think that   we're   missing    much    till
Eb------------------------------------------------------------|
Bb------------------------------------------------------------|
Gb------------------------------------------------------------|
db------------------------------------------------------10----|
Ab------------------------------------------------------10----|
Db-0--0-0-12-15-12-0--0-0-12-13-12-0--0-0-12-15-12-0--0-10----|


        chorus


   I gasp and     hold    my     breath these needs have changed so    deep
Eb-------------------------------------------------------------------------|
Bb-------------------------------------------------------------------------|
Gb-7-7-7-7-7-7-7-7---------------------------------------------------------|
db-7-7-7-7-7-7-7-7-8-8-8-8-8-8-8-8-3-3-3-3-3-3-3-3-10-10-10-10-10-10-10-10-|
Ab-5-5-5-5-5-5-5-5-8-8-8-8-8-8-8-8-3-3-3-3-3-3-3-3-10-10-10-10-10-10-10-10-|
Db-----------------8-8-8-8-8-8-8-8-3-3-3-3-3-3-3-3-10-10-10-10-10-10-10-10-|

    to face you   all     and   say I've been    awake      for
Eb-------------------------------------------------------------------------[
Bb-------------------------------------------------------------------------[
Gb-7-7-7-7-7-7-7-7---------------------------------------------------------[
db-7-7-7-7-7-7-7-7-8-8-8-8-8-8-8-8-3-3-3-3-3-3-3-3-10-10-10-10-10-10-10-10-[
Ab-5-5-5-5-5-5-5-5-8-8-8-8-8-8-8-8-3-3-3-3-3-3-3-3-10-10-10-10-10-10-10-10-[
Db-----------------8-8-8-8-8-8-8-8-3-3-3-3-3-3-3-3-10-10-10-10-10-10-10-10-[


verse

       I need a new test
Eb------------------------------------------------------------------|
Bb------------------------------------------------------------------|
Gb------------------------------------------------------------------|
db------------------------------------------------------------------|
Ab------------------------------------------------------------------|
Db-0--0-0-12-15-12-0--0-0-12-13-12-0--0-0-12-15-12-0--0-0-12-13-12--|

      then I set out to choose         someone to
Eb------------------------------------------------------------------|
Bb------------------------------------------------------------------|
Gb------------------------------------------------------------------|
db------------------------------------------------------------------|
Ab------------------------------------------------------------------|
Db-0--0-0-12-15-12-0--0-0-12-13-12-0--0-0-12-15-12-0--0-0-12-13-12--|

     light the soul like a kiln
Eb------------------------------------------------------------------|
Bb------------------------------------------------------------------|
Gb------------------------------------------------------------------|
db------------------------------------------------------------------|
Ab------------------------------------------------------------------|
Db-0--0-0-12-15-12-0--0-0-12-13-12-0--0-0-12-15-12-0--0-0-12-13-12--|

     just imagine us chasing this with
Eb------------------------------------------------------------------|
Bb------------------------------------------------------------------|
Gb------------------------------------------------------------------|
db------------------------------------------------------------------|
Ab------------------------------------------------------------------|
Db-0--0-0-12-15-12-0--0-0-12-13-12-0--0-0-12-15-12-0--0-0-12-13-12--|


     eyes       scorned       from         sleep       apnea
Eb------------------------------------------------------------------|
Bb------------------------------------------------------------------|
Gb------------------------------------------------------------------|
db------------------------------------------------------------------|
Ab------------------------------------------------------------------|
Db-0--0-0-12-15-12-0--0-0-12-13-12-0--0-0-12-15-12-0--0-0-12-13-12--|

    a  sleight   of   toungue   as   the   seas  are   emptying
Eb------------------------------------------------------------|
Bb------------------------------------------------------------|
Gb------------------------------------------------------------|
db------------------------------------------------------10----|
Ab------------------------------------------------------10----|
Db-0--0-0-12-15-12-0--0-0-12-13-12-0--0-0-12-15-12-0--0-10----|

        chorus


   I gasp and     hold    my     breath these needs have changed so    deep
Eb-------------------------------------------------------------------------|
Bb-------------------------------------------------------------------------|
Gb-7-7-7-7-7-7-7-7---------------------------------------------------------|
db-7-7-7-7-7-7-7-7-8-8-8-8-8-8-8-8-3-3-3-3-3-3-3-3-10-10-10-10-10-10-10-10-|
Ab-5-5-5-5-5-5-5-5-8-8-8-8-8-8-8-8-3-3-3-3-3-3-3-3-10-10-10-10-10-10-10-10-|
Db-----------------8-8-8-8-8-8-8-8-3-3-3-3-3-3-3-3-10-10-10-10-10-10-10-10-|

    to face you   all     and   say I've been    awake      for
Eb-------------------------------------------------------------------------[
Bb-------------------------------------------------------------------------[
Gb-7-7-7-7-7-7-7-7---------------------------------------------------------[
db-7-7-7-7-7-7-7-7-8-8-8-8-8-8-8-8-3-3-3-3-3-3-3-3-10-10-10-10-10-10-10-10-[
Ab-5-5-5-5-5-5-5-5-8-8-8-8-8-8-8-8-3-3-3-3-3-3-3-3-10-10-10-10-10-10-10-10-[
Db-----------------8-8-8-8-8-8-8-8-3-3-3-3-3-3-3-3-10-10-10-10-10-10-10-10-[

        interlude

          forever
Eb-------------------------------------------------------|
Bb-------------------------------------------------------|
Gb-------------------------------------------------------|
db---------------------------------------------------3-8-|
Ab---------------------------------------------------3-8-|
Db-0--0-0-12-15-12-0--0-0-12-13-12-0--0-0-12-15-12-0-3-8-|

          forever
Eb-------------------------------------------------------|
Bb-------------------------------------------------------|
Gb-------------------------------------------------------|
db---------------------------------------------------3-8-|
Ab---------------------------------------------------3-8-|
Db-0--0-0-12-15-12-0--0-0-12-13-12-0--0-0-12-15-12-0-3-8-|

          forever
Eb-------------------------------------------------------|
Bb-------------------------------------------------------|
Gb-------------------------------------------------------|
db---------------------------------------------------3-8-|
Ab---------------------------------------------------3-8-|
Db-0--0-0-12-15-12-0--0-0-12-13-12-0--0-0-12-15-12-0-3-8-|

         forever                                    try to
Eb-------------------------------------------------------[
Bb-------------------------------------------------------[
Gb-------------------------------------------------------[
db---------------------------------------------------3-8-[
Ab---------------------------------------------------3-8-[
Db-0--0-0-12-15-12-0--0-0-12-13-12-0--0-0-12-15-12-0-3-8-[

   read off a letter that's falling apart
Eb------------------------------------|
Bb------------------------------------|
Gb------------------------------------|
db-8----7---5--7-3---10-----10-----10-|
Ab-8----7---5--7-3---10-----10-----10-|
Db-8----7---5--7-3---10-0-0-10-0-0-10-|

   the sun  and the moon I count sheep
Eb------------------------------------|
Bb------------------------------------|
Gb------------------------------------|
db-8----7---5--7-3---10-----10-----10-|
Ab-8----7---5--7-3---10-----10-----10-|
Db-8----7---5--7-3---10-0-0-10-0-0-10-|

   escape like an animal I'm ready for my
Eb------------------------------------|
Bb------------------------------------|
Gb------------------------------------|
db-8----7---5--7-3---10-----10-----10-|
Ab-8----7---5--7-3---10-----10-----10-|
Db-8----7---5--7-3---10-0-0-10-0-0-10-|

   sleepless stroll
Eb--------------------------------------------------------------------------[
Bb--------------------------------------------------------------------------[
Gb--------------------------------------------------------------------------[
db-8-7-5-7-5-3-10-----12-----10-----15-----10-----12-----10------15-----10-0[
Ab-8-7-5-7-5-3-10-----12-----10-----15-----10-----12-----10------15-----10-0[
Db-8-7-5-7-5-3-10-0-0-12-0-0-10-0-0-15-0-0-10-0-0-12-0-0-10-0-0--15-0-0-10-0[

  play it clean this time

   I've felt these shifting hours mistakenly used up
Eb-------------------------------------------------------------------------|
Bb-------------------------------------------------------------------------|
Gb-7-7-7-7-7-7-7-7---------------------------------------------------------|
db-7-7-7-7-7-7-7-7-8-8-8-8-8-8-8-8-3-3-3-3-3-3-3-3-10-10-10-10-10-10-10-10-|
Ab-5-5-5-5-5-5-5-5-8-8-8-8-8-8-8-8-3-3-3-3-3-3-3-3-10-10-10-10-10-10-10-10-|
Db-----------------8-8-8-8-8-8-8-8-3-3-3-3-3-3-3-3-10-10-10-10-10-10-10-10-|


   I gasp and     hold    my     breath these needs have changed so    deep
Eb-------------------------------------------------------------------------[
Bb-------------------------------------------------------------------------[
Gb-7-7-7-7-7-7-7-7---------------------------------------------------------[
db-7-7-7-7-7-7-7-7-8-8-8-8-8-8-8-8-3-3-3-3-3-3-3-3-10----------------------[
Ab-5-5-5-5-5-5-5-5-8-8-8-8-8-8-8-8-3-3-3-3-3-3-3-3-10----------------------[
Db-----------------8-8-8-8-8-8-8-8-3-3-3-3-3-3-3-3-10----------------------[

chorus

    to face you   all     and   say I've been    awake      for years
[Eb-------------------------------------------------------------------------[
[Bb-------------------------------------------------------------------------[
[Gb-7-7-7-7-7-7-7-7---------------------------------------------------------[
[db-7-7-7-7-7-7-7-7-8-8-8-8-8-8-8-8-3-3-3-3-3-3-3-3-10-10-10-10-10-10-10-10-[
[Ab-5-5-5-5-5-5-5-5-8-8-8-8-8-8-8-8-3-3-3-3-3-3-3-3-10-10-10-10-10-10-10-10-[
[Db-----------------8-8-8-8-8-8-8-8-3-3-3-3-3-3-3-3-10-10-10-10-10-10-10-10-[
[                                                                           [
[Eb----10---10---------10-------------------10---10---------10-----12-------[
[Bb--10--10---10-----10--10-----------10--10--10---10-----10----------------[
[Gb-7--------------7---------------7----7-------------7---------7------7----[
[db-------------------------------------------------------------------------[
[Ab-------------------------------------------------------------------------[
[Db-------------------------------------------------------------------------[

   I gasp and     hold    my     breath these needs have changed so    deep
[Eb-------------------------------------------------------------------------[
[Bb-------------------------------------------------------------------------[
[Gb-7-7-7-7-7-7-7-7---------------------------------------------------------[
[db-7-7-7-7-7-7-7-7-8-8-8-8-8-8-8-8-3-3-3-3-3-3-3-3-10-10-10-10-10-10-10-10-[
[Ab-5-5-5-5-5-5-5-5-8-8-8-8-8-8-8-8-3-3-3-3-3-3-3-3-10-10-10-10-10-10-10-10-[
[Db-----------------8-8-8-8-8-8-8-8-3-3-3-3-3-3-3-3-10-10-10-10-10-10-10-10-[
[                                                                           [
[Eb----10---10---------10-------------------10---10---------10-----12-------[
[Bb--10--10---10-----10--10-----------10--10--10---10-----10----------------[
[Gb-7--------------7---------------7----7-------------7---------7------7----[
[db-------------------------------------------------------------------------[
[Ab-------------------------------------------------------------------------[
[Db-------------------------------------------------------------------------[

   to face you   all     and   say I've been    awake      for
[Eb-------------------------------------------------------------------------[
[Bb-------------------------------------------------------------------------[
[Gb-7-7-7-7-7-7-7-7---------------------------------------------------------[
[db-7-7-7-7-7-7-7-7-8-8-8-8-8-8-8-8-3-3-3-3-3-3-3-3-10-10-10-10-10-10-10-10-[
[Ab-5-5-5-5-5-5-5-5-8-8-8-8-8-8-8-8-3-3-3-3-3-3-3-3-10-10-10-10-10-10-10-10-[
[Db-----------------8-8-8-8-8-8-8-8-3-3-3-3-3-3-3-3-10-10-10-10-10-10-10-10-[
[                                                                           [
[Eb----10---10---------10-------------------10---10----------10-----12------[
[Bb--10--10---10-----10--10-----------10--10--10---10-----10----------------[
[Gb-7--------------7---------------7----7-------------7---------7------7----[
[db-------------------------------------------------------------------------[
[Ab-------------------------------------------------------------------------[
[Db-------------------------------------------------------------------------[


outro

          forever
Eb-------------------------------------------------------|
Bb-------------------------------------------------------|
Gb-------------------------------------------------------|
db---------------------------------------------------3-8-|
Ab---------------------------------------------------3-8-|
Db-0--0-0-12-15-12-0--0-0-12-13-12-0--0-0-12-15-12-0-3-8-|

          forever
Eb-------------------------------------------------------|
Bb-------------------------------------------------------|
Gb-------------------------------------------------------|
db---------------------------------------------------3-8-|
Ab---------------------------------------------------3-8-|
Db-0--0-0-12-15-12-0--0-0-12-13-12-0--0-0-12-15-12-0-3-8-|

          forever
Eb-------------------------------------------------------|
Bb-------------------------------------------------------|
Gb-------------------------------------------------------|
db---------------------------------------------------3-8-|
Ab---------------------------------------------------3-8-|
Db-0--0-0-12-15-12-0--0-0-12-13-12-0--0-0-12-15-12-0-3-8-|

         forever
Eb----------------------------------------------------------[
Bb----------------------------------------------------------[
Gb----------------------------------------------------------[
db---------------------------------------------------3-8-0~-[
Ab---------------------------------------------------3-8-0~-[
Db-0--0-0-12-15-12-0--0-0-12-13-12-0--0-0-12-15-12-0-3-8-0~-[


_______________________________________2. Mexican Sun____________________________________________


drop b

intro

    soon the stares
C#[-------------------------------------------------------------------|
G#[-------------------------------------------------------------------|
E-[-------------------------------------------------------------------|
b-[-------------------------------------------------------------------|
F#[-------------------------------------------------------------------|
B-[-5-5-5--7--7--7--8--8--8-10-10-10-5-5-5--7--7--7--8--8--8-10-10-10-|

   catch  we begin to feel the calm as we
C#[-------------------------------------------------------------------|
G#[-------------------------------------------------------------------|
E-[-------------------------------------------------------------------|
b-[-------------------------------------------------------------------|
F#[-------------------------------------------------------------------|
B-[-5-5-5--7--7--7--8--8--8-10-10-10-5-5-5--7--7--7--8--8--8-10-10-10-|

    feed on the facts      lets give in
C#[--------------------------------------------------------------------[
G#[--------------------------------------------------------------------[
E-[--------------------------------------------------------------------[
b-[--------------------------------------------------------------------[
F#[--------------------------------------------------------------------[
B-[-5-5-5--7--7--7--8--8--8-10-10-10-5-5-5--7--7--7--8--8--8-10-10-10--[
  [                                                                    [
C#[--------------------------------------------------------------------[
G#[-8-8-8--10-10-10-11-11-11-13-13-138-8-8--10-10-10-11-11-11-13-13-13-[
E-[--------------------------------------------------------------------[
b-[-5-5-5--7--7--7--8--8--8--10-10-105-5-5--7--7--7--8--8--8--10-10-10-[
F#[--------------------------------------------------------------------[
B-[--------------------------------------------------------------------[

    lets give in to giving more
C#[--------------------------------------------------------------------[
G#[--------------------------------------------------------------------[
E-[--------------------------------------------------------------------[
b-[--------------------------------------------------------------------[
F#[--------------------------------------------------------------------[
B-[-5-5-5--7--7--7--8--8--8-10-10-10-5-5-5--7--7--7--8--8--8-10-10-10--[
  [                                                                    [
C#[--------------------------------------------------------------------[
G#[-8-8-8--10-10-10-11-11-11-13-13-138-8-8--10-10-10-11-11-11-13-13-13-[
E-[--------------------------------------------------------------------[
b-[-5-5-5--7--7--7--8--8--8--10-10-105-5-5--7--7--7--8--8--8--10-10-10-[
F#[--------------------------------------------------------------------[
B-[--------------------------------------------------------------------[

     ooooohhhhhh
C#[------------------------------------|
G#[------------------------------------|
E-[------------------------------------|
b-[-5-5-5-7--7--7--8--8--8-10-10-10----|
F#[-5-5-5-7--7--7--8--8--8-10-10-10----|
B-[-5-5-5-7--7--7--8--8--8-10-10-10----|

C#[------------------------------------|
G#[------------------------------------|
E-[------------------------------------|
b-[-5-5-5-7--7--7--8--8--8-10-10-10----|
F#[-5-5-5-7--7--7--8--8--8-10-10-10----|
B-[-5-5-5-7--7--7--8--8--8-10-10-10----|

C#[------------------------------------|
G#[------------------------------------|
E-[------------------------------------|
b-[-5-5-5-7--7--7--8--8--8-10-10-10----|
F#[-5-5-5-7--7--7--8--8--8-10-10-10----|
B-[-5-5-5-7--7--7--8--8--8-10-10-10----|


C#[------------------------------------|
G#[------------------------------------|
E-[------------------------------------|
b-[-5-5-5-7--7--7--8--8--8-10-10-10----|
F#[-5-5-5-7--7--7--8--8--8-10-10-10----|
B-[-5-5-5-7--7--7--8--8--8-10-10-10----|

verse

    still on the knees
            such a shame
                 the cats up and run away  scratched at me first then the boy gonna

C#[-------------------------------------------------------------------------------------|
G#[-------------------------------------------------------------------------------------|
E-[------------------------------------------------12--------------------------10-------|
b-[-----------------------------------------12------------12---------10----------10-----|
F#[-10----------8---------7----------6---10----10------10---10------8---8-----8------8--|
B-[-------------------------------------------------------------------------------------|

    panic for a little more
C#[-------------------------------------------[
G#[-------------------------------------------[
E-[---------------9----------------------8----[
b-[---------9-----------9-----------8---------[
F#[-7---7-------7-----7-------6--6-----6----6-[
B-[-------------------------------------------[

prechorus

    watch the tail boy
C#[--------------------------------------------------|
G#[-10-----10-----10--10-10--10----10----10--11-11---|
E-[--------------------------------------------------|
b-[-7p0-0--7p0-0--7p0-7--7---7p0-0-7p0-0-7p0-9--9----|
F#[--------------------------------------------------|
B-[--------------------------------------------------|

     watch the tail
C#[-------------------------------------------------[
G#[-10-----10-----10--10-10--10----10-----10--------[
E-[-------------------------------------------7-7-7-[
b-[-7p0-0--7p0-0--7p0-7--7---7p0-0-7p0--0-7p0-0-0-0-[
F#[-------------------------------------------------[
B-[-------------------------------------------------[

chorus

like to be feeling the sand bring color back to both my arms the sun let it do damage like they
C#[---------------------------------------------------------------------------------------|
G#[---------------------------------------------------------------------------------------|
E-[---------------------------------------------------------------------------------------|
b-[-12--12--12--12--10--10--10--10--8--8--8--8/7--7--7--7--12--12--12--12--10--10--10--10-|
F#[-12--12--12--12--10--10--10--10--8--8--8--8/7--7--7--7--12--12--12--12--10--10--10--10-|
B-[-12--12--12--12--10--10--10--10--8--8--8--8/7--7--7--7--12--12--12--12--10--10--10--10-|

    said it would if given chance had to be shouting your voices, scheming devils never make it
C#[---------------------------------------------------------------------------------------|
G#[---------------------------------------------------------------------------------------|
E-[---------------------------------------------------------------------------------------|
b-[-3--3--3--3--5--5--5--5--5-12-12-12-12-12-12-10-10-10-10-10-10-3-3-3-3-3-3-5-5-5-5-5-5-|
F#[-3--3--3--3--5--5--5--5--5-12-12-12-12-12-12-10-10-10-10-10-10-3-3-3-3-3-3-5-5-5-5-5-5-|
B-[-3--3--3--3--5--5--5--5--5-12-12-12-12-12-12-10-10-10-10-10-10-3-3-3-3-3-3-5-5-5-5-5-5-|

   through    hey way to go lad,                 can't wait to go
C#[------------------------------------------------------------[
G#[------------------------------------------------------------[
E-[------------------------------------------------------------[
b-[-12-12-12-12-12-12-10-10-10-10-10-10-8-8-8-8-8-8/7-7-7-7-7--[
F#[-12-12-12-12-12-12-10-10-10-10-10-10-8-8-8-8-8-8/7-7-7-7-7--[
B-[-12-12-12-12-12-12-10-10-10-10-10-10-8-8-8-8-8-8/7-7-7-7-7--[

post-chorus/pre-verse

C#[------------------------------------|
G#[------------------------------------|
E-[------------------------------------|
b-[-5-5-5-7--7--7--8--8--8-10-10-10----|
F#[-5-5-5-7--7--7--8--8--8-10-10-10----|
B-[-5-5-5-7--7--7--8--8--8-10-10-10----|

C#[------------------------------------|
G#[------------------------------------|
E-[------------------------------------|
b-[-5-5-5-7--7--7--8--8--8-10-10-10----|
F#[-5-5-5-7--7--7--8--8--8-10-10-10----|
B-[-5-5-5-7--7--7--8--8--8-10-10-10----|

C#[------------------------------------|
G#[------------------------------------|
E-[------------------------------------|
b-[-5-5-5-7--7--7--8--8--8-10-10-10----|
F#[-5-5-5-7--7--7--8--8--8-10-10-10----|
B-[-5-5-5-7--7--7--8--8--8-10-10-10----|


C#[------------------------------------|
G#[------------------------------------|
E-[------------------------------------|
b-[-5-5-5-7--7--7--8--8--8-10-10-10----|
F#[-5-5-5-7--7--7--8--8--8-10-10-10----|
B-[-5-5-5-7--7--7--8--8--8-10-10-10----|


verse


    closing    out        all my tabs
                                 tighten down
                                  the pitiful   leave you a pen or write it down
C#[-------------------------------------------------------------------------------------|
G#[-------------------------------------------------------------------------------------|
E-[------------------------------------------------12--------------------------10-------|
b-[-----------------------------------------12------------12---------10----------10-----|
F#[-10----------8---------7----------6---10----10------10---10------8---8-----8------8--|
B-[-------------------------------------------------------------------------------------|

    or you know what you could do with that
C#[-------------------------------------------[
G#[-------------------------------------------[
E-[---------------9----------------------8----[
b-[---------9-----------9-----------8---------[
F#[-7---7-------7-----7-------6--6-----6----6-[
B-[-------------------------------------------[


prechorus

    watch the tail boy
C#[--------------------------------------------------|
G#[-10-----10-----10--10-10--10----10----10--11-11---|
E-[--------------------------------------------------|
b-[-7p0-0--7p0-0--7p0-7--7---7p0-0-7p0-0-7p0-9--9----|
F#[--------------------------------------------------|
B-[--------------------------------------------------|

     watch the tail
C#[-------------------------------------------------[
G#[-10-----10-----10--10-10--10----10-----10--------[
E-[-------------------------------------------7-7-7-[
b-[-7p0-0--7p0-0--7p0-7--7---7p0-0-7p0--0-7p0-0-0-0-[
F#[-------------------------------------------------[
B-[-------------------------------------------------[


chorus

like to be feeling the sand bring color back to both my arms the sun let it do damage like they
C#[---------------------------------------------------------------------------------------|
G#[---------------------------------------------------------------------------------------|
E-[---------------------------------------------------------------------------------------|
b-[-12--12--12--12--10--10--10--10--8--8--8--8/7--7--7--7--12--12--12--12--10--10--10--10-|
F#[-12--12--12--12--10--10--10--10--8--8--8--8/7--7--7--7--12--12--12--12--10--10--10--10-|
B-[-12--12--12--12--10--10--10--10--8--8--8--8/7--7--7--7--12--12--12--12--10--10--10--10-|

    said it would if given chance had to be shouting your voices, scheming devils never make it
C#[---------------------------------------------------------------------------------------|
G#[---------------------------------------------------------------------------------------|
E-[---------------------------------------------------------------------------------------|
b-[-3--3--3--3--5--5--5--5--5-12-12-12-12-12-12-10-10-10-10-10-10-3-3-3-3-3-3-5-5-5-5-5-5-|
F#[-3--3--3--3--5--5--5--5--5-12-12-12-12-12-12-10-10-10-10-10-10-3-3-3-3-3-3-5-5-5-5-5-5-|
B-[-3--3--3--3--5--5--5--5--5-12-12-12-12-12-12-10-10-10-10-10-10-3-3-3-3-3-3-5-5-5-5-5-5-|

   through    hey way to go lad,                 can't wait to go
C#[---------------------------------------------------------------[
G#[---------------------------------------------------------------[
E-[---------------------------------------------------------------[
b-[-12-12-12-12-12-12-10-10-10-10-10-10-8-8-8-8-8-8/7-7-7-7-7-8-7-[
F#[-12-12-12-12-12-12-10-10-10-10-10-10-8-8-8-8-8-8/7-7-7-7-7-8-7-[
B-[-12-12-12-12-12-12-10-10-10-10-10-10-8-8-8-8-8-8/7-7-7-7-7-8-7-[


interlude

C#[-12-----------------------------------[
G#[-14b16--------------------------------[
E-[--------------------------------------[
b-[--------------------------------------[
F#[--------------------------------------[
B-[--------------------------------------[
  [                                      [
C#[--------------------------------------[
G#[--------------------------------------[
E-[--------------------------------------[
b-[--------------------------------------[
F#[-0--0-7-0-7-0-8-7--0--0-7-0-7-0-8-7---[
B-[-0--0-7-0-7-0-8-7--0--0-7-0-7-0-8-7---[

 lets let the panic bloom could help us all end up in the clear
C#[-----------------------------------------------------------------------------------|
G#[-----------------------------------------------------------------------------------|
E-[-----------------------------------------------------------------------------------|
b-[-8-8-8-8-8-8-8-8--8-7--8--8-8-8-8-8-8-8--8-7--0--0-7-0-7-0--8-7--0--0-7-0-7-0--8-7-|
F#[-8-8-8-8-8-8-8-8--8-7--8--8-8-8-8-8-8-8--8-7--0--0-7-0-7-0--8-7--0--0-7-0-7-0--8-7-|
B-[-8-8-8-8-8-8-8-8--8-7--8--8-8-8-8-8-8-8--8-7--0--0-7-0-7-0--8-7--0--0-7-0-7-0--8-7-|

    then let the havoc choose to shape us all, push us to invent
C#[-----------------------------------------------------------------------------------|
G#[-----------------------------------------------------------------------------------|
E-[-----------------------------------------------------------------------------------|
b-[-8-8-8-8-8-8-8-8--8-7--8--8-8-8-8-8-8-8--8-7--0--0-7-0-7-0--8-7--0--0-7-0-7-0--8-7-|
F#[-8-8-8-8-8-8-8-8--8-7--8--8-8-8-8-8-8-8--8-7--0--0-7-0-7-0--8-7--0--0-7-0-7-0--8-7-|
B-[-8-8-8-8-8-8-8-8--8-7--8--8-8-8-8-8-8-8--8-7--0--0-7-0-7-0--8-7--0--0-7-0-7-0--8-7-|

    we can feed off shame all day
C#[-----------------------------------------------------------------------------------|
G#[-----------------------------------------------------------------------------------|
E-[-----------------------------------------------------------------------------------|
b-[-8-8-8-8-8-8-8-8--8-7--8--8-8-8-8-8-8-8--8-7--0--0-7-0-7-0--8-7--0--0-7-0-7-0--8-7-|
F#[-8-8-8-8-8-8-8-8--8-7--8--8-8-8-8-8-8-8--8-7--0--0-7-0-7-0--8-7--0--0-7-0-7-0--8-7-|
B-[-8-8-8-8-8-8-8-8--8-7--8--8-8-8-8-8-8-8--8-7--0--0-7-0-7-0--8-7--0--0-7-0-7-0--8-7-|

    we could feed off shame all day
C#[-----------------------------------------------------------------------------------|
G#[-----------------------------------------------------------------------------------|
E-[-----------------------------------------------------------------------------------|
b-[-8-8-8-8-8-8-8-8--8-7--8--8-8-8-8-8-8-8--8-7--0--0-7-0-7-0--8-7--0--0-7-0-7-0--8-7-|
F#[-8-8-8-8-8-8-8-8--8-7--8--8-8-8-8-8-8-8--8-7--0--0-7-0-7-0--8-7--0--0-7-0-7-0--8-7-|
B-[-8-8-8-8-8-8-8-8--8-7--8--8-8-8-8-8-8-8--8-7--0--0-7-0-7-0--8-7--0--0-7-0-7-0--8-7-|

prechorus

    soon the stares
C#[-------------------------------------------------------------------|
G#[-------------------------------------------------------------------|
E-[-------------------------------------------------------------------|
b-[-------------------------------------------------------------------|
F#[-------------------------------------------------------------------|
B-[-5-5-5--7--7--7--8--8--8-10-10-10-5-5-5--7--7--7--8--8--8-10-10-10-|

   catch  we begin to feel the calm as we
C#[-------------------------------------------------------------------|
G#[-------------------------------------------------------------------|
E-[-------------------------------------------------------------------|
b-[-------------------------------------------------------------------|
F#[-------------------------------------------------------------------|
B-[-5-5-5--7--7--7--8--8--8-10-10-10-5-5-5--7--7--7--8--8--8-10-10-10-|

    feed on the facts      lets give in
C#[--------------------------------------------------------------------[
G#[--------------------------------------------------------------------[
E-[--------------------------------------------------------------------[
b-[--------------------------------------------------------------------[
F#[--------------------------------------------------------------------[
B-[-5-5-5--7--7--7--8--8--8-10-10-10-5-5-5--7--7--7--8--8--8-10-10-10--[
  [                                                                    [
C#[--------------------------------------------------------------------[
G#[-8-8-8--10-10-10-11-11-11-13-13-138-8-8--10-10-10-11-11-11-13-13-13-[
E-[--------------------------------------------------------------------[
b-[-5-5-5--7--7--7--8--8--8--10-10-105-5-5--7--7--7--8--8--8--10-10-10-[
F#[--------------------------------------------------------------------[
B-[--------------------------------------------------------------------[

    lets give in to giving more
C#[--------------------------------------------------------------------[
G#[--------------------------------------------------------------------[
E-[--------------------------------------------------------------------[
b-[--------------------------------------------------------------------[
F#[--------------------------------------------------------------------[
B-[-5-5-5--7--7--7--8--8--8-10-10-10-5-5-5--7--7--7--8--8--8-10-10-10--[
  [                                                                    [
C#[--------------------------------------------------------------------[
G#[-8-8-8--10-10-10-11-11-11-13-13-138-8-8--10-10-10-11-11-11-13-13-13-[
E-[--------------------------------------------------------------------[
b-[-5-5-5--7--7--7--8--8--8--10-10-105-5-5--7--7--7--8--8--8--10-10-10-[
F#[--------------------------------------------------------------------[
B-[--------------------------------------------------------------------[

chorus
 like to be feeling the sand bring color back to both my arms the sun let it
C#[------------------------------------------------------------------------|
G#[------------------------------------------------------------------------|
E-[------------------------------------------------------------------------|
b-[-12--12-12-12-12-xxx-10--10-10-10-10-xxx-3--3-3-3-3-xxx-5--5-5-5-5-xxx--|
F#[-12--12-12-12-12-xxx-10--10-10-10-10-xxx-3--3-3-3-3-xxx-5--5-5-5-5-xxx--|
B-[-12--12-12-12-12-xxx-10--10-10-10-10-xxx-3--3-3-3-3-xxx-5--5-5-5-5-xxx--|


       do damage like they  said it would if given chance
C#[-----------------------------------------------------------------|
G#[-----------------------------------------------------------------|
E-[-----------------------------------------------------------------|
b-[-7--7--7--12--12--12--12--10--10--10--10--3--3--3--3--5--5--5--5-|
F#[-7--7--7--12--12--12--12--10--10--10--10--3--3--3--3--5--5--5--5-|
B-[-7--7--7--12--12--12--12--10--10--10--10--3--3--3--3--5--5--5--5-|

   had to be shouting your voices, scheming devils never make it
C#[-------------------------------------------------------------|
G#[-------------------------------------------------------------|
E-[-------------------------------------------------------------|
b-[-12-12-12-12-12-12-10-10-10-10-10-10-3-3-3-3-3-3-5-5-5-5-5-5-|
F#[-12-12-12-12-12-12-10-10-10-10-10-10-3-3-3-3-3-3-5-5-5-5-5-5-|
B-[-12-12-12-12-12-12-10-10-10-10-10-10-3-3-3-3-3-3-5-5-5-5-5-5-|

   through    hey way to go lad,                 can't wait to go
C#[---------------------------------------------------------------[
G#[---------------------------------------------------------------[
E-[---------------------------------------------------------------[
b-[-12-12-12-12-12-12-10-10-10-10-10-10-8-8-8-8-8-8/7-7-7-7-7-----[
F#[-12-12-12-12-12-12-10-10-10-10-10-10-8-8-8-8-8-8/7-7-7-7-7-----[
B-[-12-12-12-12-12-12-10-10-10-10-10-10-8-8-8-8-8-8/7-7-7-7-7-----[

   through    hey way to go lad,                 can't wait to go
C#[---------------------------------------------------------------[
G#[---------------------------------------------------------------[
E-[---------------------------------------------------------------[
b-[-12-12-12-12-12-12-10-10-10-10-10-10-8-8-8-8-8-8/7-7-7-7-7-----[
F#[-12-12-12-12-12-12-10-10-10-10-10-10-8-8-8-8-8-8/7-7-7-7-7-----[
B-[-12-12-12-12-12-12-10-10-10-10-10-10-8-8-8-8-8-8/7-7-7-7-7-----[

   through    hey way to go lad,                 can't wait to go
C#[---------------------------------------------------------------[
G#[---------------------------------------------------------------[
E-[---------------------------------------------------------------[
b-[-12-12-12-12-12-12-10-10-10-10-10-10-8-8-8-8-8-8/7-7-7---------[
F#[-12-12-12-12-12-12-10-10-10-10-10-10-8-8-8-8-8-8/7-7-7---------[
B-[-12-12-12-12-12-12-10-10-10-10-10-10-8-8-8-8-8-8/7-7-7---------[


______________________________________3.Shameful Metaphors_______________________________________


tuning: drop db

intro
-----------------------------------------------------------------|
-----------------------------------------------------------------|
-9-9-9-9-9-9-9-9--5-5-5--2-2-2--9-9-9-9-9-9-9-9--5-5-5-4h5-4-0---|
-0-0-0-0-0-0-0-0--0-0-0--0-0-0--0-0-0-0-0-0-0-0--0-0-0-0-0-0-0---|
-----------------------------------------------------------------|
-----------------------------------------------------------------|

-----------------------------------------------------------------|
-----------------------------------------------------------------|
-9-9-9-9-9-9-9-9--5-5-5--2-2-2--9-9-9-9-9-9-9-9--5-5-5-4h5-4-0---|
-0-0-0-0-0-0-0-0--0-0-0--0-0-0--0-0-0-0-0-0-0-0--0-0-0-0-0-0-0---|
-----------------------------------------------------------------|
-----------------------------------------------------------------|

-----------------------------------------------------------------|
-----------------------------------------------------------------|
-9-9-9-9-9-9-9-9--5-5-5--2-2-2--9-9-9-9-9-9-9-9--5-5-5-4h5-4-0---|
-0-0-0-0-0-0-0-0--0-0-0--0-0-0--0-0-0-0-0-0-0-0--0-0-0-0-0-0-0---|
-----------------------------------------------------------------|
-----------------------------------------------------------------|

-----------------------------------------------------------------|
-----------------------------------------------------------------|
-9-9-9-9-9-9-9-9--5-5-5--2-2-2--9-9-9-9-9-9-9-9--5-5-5-4h5-4-0---|
-0-0-0-0-0-0-0-0--0-0-0--0-0-0--0-0-0-0-0-0-0-0--0-0-0-0-0-0-0---|
-----------------------------------------------------------------|
-----------------------------------------------------------------|

verse

    fear       its all the same     should I    evolve            to
-------------------------------------------------------------------------------|
-------------------------------------------------------------------------------|
-7-7-7-7-7-7-7-7-7-7-7-7-7-7-7-7-7-7-7-7-7-7-7-7-7-4-4-4-4-4-4-4-4-4-4-4-4-4-4-|
-7-7-7-7-7-7-7-7-7-7-7-7-7-7-7-7-7-7-7-7-7-7-7-7-7-4-4-4-4-4-4-4-4-4-4-4-4-4-4-|
-5-5-5-5-5-5-5-5-5-5-5-5-5-5-5-5-5-5-5-5-5-5-5-5-5-2-2-2-2-2-2-2-2-2-2-2-2-2-2-|
-------------------------------------------------------------------------------|

  tend to these sights
------------------------------|
------------------------------|
-2-2-2-2-2-2-2-2-2-2-2-2-2-2--|
-2-2-2-2-2-2-2-2-2-2-2-2-2-2--|
-0-0-0-0-0-0-0-0-0-0-0-0-0-0--|
------------------------------|

  said out loud then said again              if fates so wrong you'll start to
-------------------------------------------------------------------------------|
-------------------------------------------------------------------------------|
-7-7-7-7-7-7-7-7-7-7-7-7-7-7-7-7-7-7-7-7-7-7-7-7-7-4-4-4-4-4-4-4-4-4-4-4-4-4-4-|
-7-7-7-7-7-7-7-7-7-7-7-7-7-7-7-7-7-7-7-7-7-7-7-7-7-4-4-4-4-4-4-4-4-4-4-4-4-4-4-|
-5-5-5-5-5-5-5-5-5-5-5-5-5-5-5-5-5-5-5-5-5-5-5-5-5-2-2-2-2-2-2-2-2-2-2-2-2-2-2-|
-------------------------------------------------------------------------------|

  feel light-headed
------------------------------[
------------------------------[
-2-2-2-2-2-2-2-2-2-2-2-2-2-2--[
-2-2-2-2-2-2-2-2-2-2-2-2-2-2--[
-0-0-0-0-0-0-0-0-0-0-0-0-0-0--[
------------------------------[

prechorus

   by    my   admission              nothing         grows
[--------------------------------------------------------------------|
[--------------------------------------------------------------------|
[--------------------------------------------------------------------|
[--5-5-5-7-7-7-9-9-9-12-12-12-12--12-12-12-12-12-12--7-7-7-7-7-7-7-7-|
[--5-5-5-7-7-7-9-9-9-12-12-12-12--12-12-12-12-12-12--7-7-7-7-7-7-7-7-|
[--5-5-5-7-7-7-9-9-9-12-12-12-12--12-12-12-12-12-12--7-7-7-7-7-7-7-7-|

  just   a    longer list of         unsorted        laws
[--------------------------------------------------------------------|
[--------------------------------------------------------------------|
[--------------------------------------------------------------------|
[--5-5-5-7-7-7-9-9-9-12-12-12-12--12-12-12-12-12-12--7-7-7-7-7-7-7-7-|
[--5-5-5-7-7-7-9-9-9-12-12-12-12--12-12-12-12-12-12--7-7-7-7-7-7-7-7-|
[--5-5-5-7-7-7-9-9-9-12-12-12-12--12-12-12-12-12-12--7-7-7-7-7-7-7-7-|

chorus

so        why     then   has my life made no sound and are  your   eyes    closing
--------------------------------------------------------------------------------------|
--------------------------------------------------------------------------------------|
--------------------------------------------------------------------------------------|
-5-5-5-5-5-5-5-5-5-5-5-5-5-5-5-5-5-0-12-7-0--5-5-5-5-5-5-5-5-5-5-5-5-5-5-5-5-12-0-7-0-|
-5-5-5-5-5-5-5-5-5-5-5-5-5-5-5-5-5-0-12-7-0--5-5-5-5-5-5-5-5-5-5-5-5-5-5-5-5-12-0-7-0-|
-5-5-5-5-5-5-5-5-5-5-5-5-5-5-5-5-5-0-12-7-0--5-5-5-5-5-5-5-5-5-5-5-5-5-5-5-5-12-0-7-0-|


 even     now      my         life made no sound i    fear   you    eyes   closing
---------------------------------------------------------------------------------------[
---------------------------------------------------------------------------------------[
---------------------------------------------------------------------------------------[
-5-5-5-5-5-5-5-5-5-5-5-5-5-5-5-5-0-12-7-0--5-5-5-5-5-5-5-5-5-5-5-5-5-5-5-5-5-12-0-7-0--[
-5-5-5-5-5-5-5-5-5-5-5-5-5-5-5-5-0-12-7-0--5-5-5-5-5-5-5-5-5-5-5-5-5-5-5-5-5-12-0-7-0--[
-5-5-5-5-5-5-5-5-5-5-5-5-5-5-5-5-0-12-7-0--5-5-5-5-5-5-5-5-5-5-5-5-5-5-5-5-5-12-0-7-0--[

pre-verse

-----------------------------------------------------------------|
-----------------------------------------------------------------|
-9-9-9-9-9-9-9-9--5-5-5--2-2-2--9-9-9-9-9-9-9-9--5-5-5-4h5-4-0---|
-0-0-0-0-0-0-0-0--0-0-0--0-0-0--0-0-0-0-0-0-0-0--0-0-0-0-0-0-0---|
-----------------------------------------------------------------|
-----------------------------------------------------------------|

verse

   revolting man                       this sacred chain    brought
[-------------------------------------------------------------------------------|
[-------------------------------------------------------------------------------|
[-7-7-7-7-7-7-7-7-7-7-7-7-7-7-7-7-7-7-7-7-7-7-7-7-7-4-4-4-4-4-4-4-4-4-4-4-4-4-4-|
[-7-7-7-7-7-7-7-7-7-7-7-7-7-7-7-7-7-7-7-7-7-7-7-7-7-4-4-4-4-4-4-4-4-4-4-4-4-4-4-|
[-5-5-5-5-5-5-5-5-5-5-5-5-5-5-5-5-5-5-5-5-5-5-5-5-5-2-2-2-2-2-2-2-2-2-2-2-2-2-2-|
[-------------------------------------------------------------------------------|
[
[----------------------7nh------------------------------------------------------|
[---------------------------------------------------7nh-------------------------|
[-----------------7nh-----------------------------------------------------------|
[-------------------------------------------------------------------------------|
[-------------------------------------------------------------------------------|
[-------------------------------------------------------------------------------|


  down to trial
[------------------------------|
[------------------------------|
[-2-2-2-2-2-2-2-2-2-2-2-2-2-2--|
[-2-2-2-2-2-2-2-2-2-2-2-2-2-2--|
[-0-0-0-0-0-0-0-0-0-0-0-0-0-0--|
[------------------------------|
[
[------------------------------|
[------------------------------|
[------------------------------|
[-----7nh----------------------|
[------------------------------|
[------------------------------|

 no better man can fail the way                 you needed  all keep close th vein
[-------------------------------------------------------------------------------|
[-------------------------------------------------------------------------------|
[-7-7-7-7-7-7-7-7-7-7-7-7-7-7-7-7-7-7-7-7-7-7-7-7-7-4-4-4-4-4-4-4-4-4-4-4-4-4-4-|
[-7-7-7-7-7-7-7-7-7-7-7-7-7-7-7-7-7-7-7-7-7-7-7-7-7-4-4-4-4-4-4-4-4-4-4-4-4-4-4-|
[-5-5-5-5-5-5-5-5-5-5-5-5-5-5-5-5-5-5-5-5-5-5-5-5-5-2-2-2-2-2-2-2-2-2-2-2-2-2-2-|
[-------------------------------------------------------------------------------|
[
[----------------------7nh------------------------------------------------------|
[---------------------------------------------------7nh-------------------------|
[-----------------7nh-----------------------------------------------------------|
[-------------------------------------------------------------------------------|
[-------------------------------------------------------------------------------|
[-------------------------------------------------------------------------------|

 of empty thoughts
[------------------------------[
[------------------------------[
[-2-2-2-2-2-2-2-2-2-2-2-2-2-2--[
[-2-2-2-2-2-2-2-2-2-2-2-2-2-2--[
[-0-0-0-0-0-0-0-0-0-0-0-0-0-0--[
[------------------------------[
[                              [
[------------------------------[
[------------------------------[
[------------------------------[
[-----7nh----------------------[
[------------------------------[
[------------------------------[


prechorus

   by    my   admission              nothing         grows
[--------------------------------------------------------------------|
[--------------------------------------------------------------------|
[--------------------------------------------------------------------|
[--5-5-5-7-7-7-9-9-9-12-12-12-12--12-12-12-12-12-12--7-7-7-7-7-7-7-7-|
[--5-5-5-7-7-7-9-9-9-12-12-12-12--12-12-12-12-12-12--7-7-7-7-7-7-7-7-|
[--5-5-5-7-7-7-9-9-9-12-12-12-12--12-12-12-12-12-12--7-7-7-7-7-7-7-7-|

  just   a    longer list of         unsorted        laws
[--------------------------------------------------------------------|
[--------------------------------------------------------------------|
[--------------------------------------------------------------------|
[--5-5-5-7-7-7-9-9-9-12-12-12-12--12-12-12-12-12-12--7-7-7-7-7-7-7-7-|
[--5-5-5-7-7-7-9-9-9-12-12-12-12--12-12-12-12-12-12--7-7-7-7-7-7-7-7-|
[--5-5-5-7-7-7-9-9-9-12-12-12-12--12-12-12-12-12-12--7-7-7-7-7-7-7-7-|

chorus

so        why     then   has my life made no sound and are  your   eyes    closing
--------------------------------------------------------------------------------------|
--------------------------------------------------------------------------------------|
--------------------------------------------------------------------------------------|
-5-5-5-5-5-5-5-5-5-5-5-5-5-5-5-5-5-0-12-7-0--5-5-5-5-5-5-5-5-5-5-5-5-5-5-5-5-12-0-7-0-|
-5-5-5-5-5-5-5-5-5-5-5-5-5-5-5-5-5-0-12-7-0--5-5-5-5-5-5-5-5-5-5-5-5-5-5-5-5-12-0-7-0-|
-5-5-5-5-5-5-5-5-5-5-5-5-5-5-5-5-5-0-12-7-0--5-5-5-5-5-5-5-5-5-5-5-5-5-5-5-5-12-0-7-0-|


 even     now      my         life made no sound i    fear   you    eyes   closing
---------------------------------------------------------------------------------------[
---------------------------------------------------------------------------------------[
---------------------------------------------------------------------------------------[
-5-5-5-5-5-5-5-5-5-5-5-5-5-5-5-5-0-12-7-0--5-5-5-5-5-5-5-5-5-5-5-5-5-5-5-5-5-12-0-7-0--[
-5-5-5-5-5-5-5-5-5-5-5-5-5-5-5-5-0-12-7-0--5-5-5-5-5-5-5-5-5-5-5-5-5-5-5-5-5-12-0-7-0--[
-5-5-5-5-5-5-5-5-5-5-5-5-5-5-5-5-0-12-7-0--5-5-5-5-5-5-5-5-5-5-5-5-5-5-5-5-5-12-0-7-0--[

interlude

   behold the lost     behold a band-aid
-----------------------------------------------|
-----------------------------------------------|
--------7---------9--------7--------4/5\4------|
-----------------------------------------------|
-0-0-0--5--0-0-0--7-0-0-0--5-0-0-0--2/3\2-0----|
-0-0-0-----0-0-0----0-0-0----0-0-0--------0----|


   behold the lost     behold a band-aid
-----------------------------------------------|
-----------------------------------------------|
--------7---------9--------7--------4/5\4------|
-----------------------------------------------|
-0-0-0--5--0-0-0--7-0-0-0--5-0-0-0--2/3\2-0----|
-0-0-0-----0-0-0----0-0-0----0-0-0--------0----|

------------------------------------------------------------------|
------------------------------------------------------------------|
-------------11-11-11-11------------------------------------------|
-7/9-9-9-9-9-11-11-11-11-11-11-11-11\7-7-7-7-7-7-7--5-5-5-0-0-0-0-|
-7/9-9-9-9-9-9--9--9--9--11-11-11-11\7-7-7-7-7-7-7--5-5-5-0-0-0-0-|
-7/9-9-9-9-9-------------11-11-11-11\7-7-7-7-7-7-7--5-5-5-0-0-0-0-|

these shameful metaphors         fought it through the teeth
------------------------------------------------------------------|
------------------------------------------------------------------|
-------------11-11-11-11------------------------------------------|
-7/9-9-9-9-9-11-11-11-11-11-11-11-11\7-7-7-7-7-7-7--5-5-5-0-0-0-0-|
-7/9-9-9-9-9-9--9--9--9--11-11-11-11\7-7-7-7-7-7-7--5-5-5-0-0-0-0-|
-7/9-9-9-9-9-------------11-11-11-11\7-7-7-7-7-7-7--5-5-5-0-0-0-0-|


      shameful metaphors         biting at you heels
------------------------------------------------------------------|
------------------------------------------------------------------|
-------------11-11-11-11------------------------------------------|
-7/9-9-9-9-9-11-11-11-11-11-11-11-11\7-7-7-7-7-7-7--5-5-5-0-0-0-0-|
-7/9-9-9-9-9-9--9--9--9--11-11-11-11\7-7-7-7-7-7-7--5-5-5-0-0-0-0-|
-7/9-9-9-9-9-------------11-11-11-11\7-7-7-7-7-7-7--5-5-5-0-0-0-0-|


       shameful metaphors         fought it cheek to cheek
----------------------------------------------------------------------[
----------------------------------------------------------------------[
-------------11-11-11-11----------------------------9-9-9-11-11-11-11-[
-7/9-9-9-9-9-11-11-11-11-11-11-11-11\7-7-7-7-7-7-7--9-9-9-11-11-11-11-[
-7/9-9-9-9-9-9--9--9--9--11-11-11-11\7-7-7-7-7-7-7--7-7-7-9--9--9--9--[
-7/9-9-9-9-9-------------11-11-11-11\7-7-7-7-7-7-7--------------------[


chorus

so        why     then   has all  my life made no sound and are  your   eyes    closing
--------------------------------------------------------------------------------------|
--------------------------------------------------------------------------------------|
--------------------------------------------------------------------------------------|
-5-5-5-5-5-5-5-5-5-5-5-5-5-5-5-5-5-0-12-7-0--5-5-5-5-5-5-5-5-5-5-5-5-5-5-5-5-12-0-7-0-|
-5-5-5-5-5-5-5-5-5-5-5-5-5-5-5-5-5-0-12-7-0--5-5-5-5-5-5-5-5-5-5-5-5-5-5-5-5-12-0-7-0-|
-5-5-5-5-5-5-5-5-5-5-5-5-5-5-5-5-5-0-12-7-0--5-5-5-5-5-5-5-5-5-5-5-5-5-5-5-5-12-0-7-0-|


 even     now      my         life made no sound i    fear   you    eyes   closing
---------------------------------------------------------------------------------------[
---------------------------------------------------------------------------------------[
---------------------------------------------------------------------------------------[
-5-5-5-5-5-5-5-5-5-5-5-5-5-5-5-5-0-12-7-0--5-5-5-5-5-5-5-5-5-5-5-5-5-5-5-5-5-12-0-7-0~-[
-5-5-5-5-5-5-5-5-5-5-5-5-5-5-5-5-0-12-7-0--5-5-5-5-5-5-5-5-5-5-5-5-5-5-5-5-5-12-0-7-0~-[
-5-5-5-5-5-5-5-5-5-5-5-5-5-5-5-5-0-12-7-0--5-5-5-5-5-5-5-5-5-5-5-5-5-5-5-5-5-12-0-7-0~-[

__________________________________________4.Jars_________________________________________________

tuning- Drop B (b f# b e g# c#)

Intro/verse
   Hold            onto  chance        Lest we bleed ourselves                  then
c#------------------------------------------------------------------------------------]
g#------------------------------------------------------------------------------------]
e-------------------------------------------------------------------------------------]
b-------------------------------------------------------------------------------------]
f#------------------------------------------------------------------------------------]
b-12-12-0-12-15-15-0-15-10-10-0-10-8-8-0-8--12-12-0-12-15-15-0-15-10-10-0-10-8-8-0----]


   save            for the pets        They're the lonliest              put  into
c#-----------------------------------------------------------------------------------]
g#-----------------------------------------------------------------------------------]
e------------------------------------------------------------------------------------]
b------------------------------------------------------------------------------------]
f#-----------------------------------------------------------------------------------]
b-12-12-0-12-15-15-0-15-10-10-0-10-8-8-0-8--12-12-0-12-15-15-0-15-10-10-0-10-8-8-0-8-]


pre chorus

   jars               we'll save this earth put into jars      we'll save this earth
we can't
c#---------------------------------------------------------------------------------------------]
g#---------------------------------------------------------------------------------------------]
e------0-----------0-----------0-----------0-----------0-----------0-----------0-----------0---]
b--7-------7---7-------7---7-------7---7-------7----7-------7---7-------7---7-------7---7------]
f#---5---5-------5---5-------5---5-------5---5--------5---5-------5---5-------5---5-------5----]
b-0----------0-----------0-----------0------------0-----------0-----------0-----------0--------]

chorus

   both          become         the    same  pawn   thats  made  to fall
c#-----------------------------------------------------------------------]
g#-----------------------------------------------------------------------]
e------------------------------------------------------------------------]
b--12-12-12-12-12-12-12-12-12-12-12-12-12-12-3-3-3-3-3-3-3-3-3-3-3-3-3-3-]
f#-12-12-12-12-12-12-12-12-12-12-12-12-12-12-3-3-3-3-3-3-3-3-3-3-3-3-3-3-]
b--12-12-12-12-12-12-12-12-12-12-12-12-12-12-3-3-3-3-3-3-3-3-3-3-3-3-3-3-]

   oil that tastes like blood  stole the summer scent from
c#---------------------------------------------------------]
g#---------------------------------------------------------]
e----------------------------------------------------------]
b--8-8-8-8-8-8-8-8-8-8-8-8-8-8-5-5-5-5-5-5-5-5-5-5-5-5-5-5-]
f#-8-8-8-8-8-8-8-8-8-8-8-8-8-8-5-5-5-5-5-5-5-5-5-5-5-5-5-5-]
b--8-8-8-8-8-8-8-8-8-8-8-8-8-8-5-5-5-5-5-5-5-5-5-5-5-5-5-5-]

   me       to you        your    stabbing   me through you  your stabbing
c#------------------------------------------------------------------------]
g#------------------------------------------------------------------------]
e-------------------------------------------------------------------------]
b--12-12-12-12-12-12-12-12-12-12-12-12-12-12-3-3-3-3-3-3-3-3-3-3-3-3-3-3--]
f#-12-12-12-12-12-12-12-12-12-12-12-12-12-12-3-3-3-3-3-3-3-3-3-3-3-3-3-3--]
b--12-12-12-12-12-12-12-12-12-12-12-12-12-12-3-3-3-3-3-3-3-3-3-3-3-3-3-3--]

   you  through him and betting most of            this

c#---------------------------------------------------------]
g#---------------------------------------------------------]
e----------------------------------------------------------]
b--8-8-8-8-8-8-8-8-8-8-8-8-8-8-5-5-5-5-5-5-5-5-5-5-5-5-5-5-]
f#-8-8-8-8-8-8-8-8-8-8-8-8-8-8-5-5-5-5-5-5-5-5-5-5-5-5-5-5-]
b--8-8-8-8-8-8-8-8-8-8-8-8-8-8-5-5-5-5-5-5-5-5-5-5-5-5-5-5-]

  world              we'll add enough of the  world
c#---------------------------------------------------------------------------]
g#---------------------------------------------------------------------------]
e----------------------------------------------------------------------------]
b----------------------------------------------------------------------------]
f#-------------------------------------------3-3-0-3-7-7-0-7-5-5-0-5-5-7-3-0-]
b-12-12-0-12-15-15-0-15-10-10-0-10-8-8-0-8---3-3-0-3-7-7-0-7-5-5-0-5-5-7-3-0-]

Verse 2

   Steal            from  yourselves   it never felt so good                     and
c#--------------------------------------------------------------------------------------]
g#--------------------------------------------------------------------------------------]
e---------------------------------------------------------------------------------------]
b---------------------------------------------------------------------------------------]
f#--------------------------------------------------------------------------------------]
b-12-12-0-12-15-15-0-15-10-10-0-10-8-8-0-8--12-12-0-12-15-15-0-15-10-10-0-10-8-8-0-8----]


   feed              from their hand's confused by opposites              put  into
c#-----------------------------------------------------------------------------------]
g#-----------------------------------------------------------------------------------]
e------------------------------------------------------------------------------------]
b------------------------------------------------------------------------------------]
f#-----------------------------------------------------------------------------------]
b-12-12-0-12-15-15-0-15-10-10-0-10-8-8-0-8--12-12-0-12-15-15-0-15-10-10-0-10-8-8-0-8-]


pre chorus

   jars               we'll save this earth put into jars      we'll save this earth
we can't
c#--------------------------------------------------------------------------------------------]
g#--------------------------------------------------------------------------------------------]
e------0-----------0-----------0-----------0-----------0-----------0-----------0-----------0--]
b--7-------7---7-------7---7-------7---7-------7----7-------7---7-------7---7-------7---7-----]
f#---5---5-------5---5-------5---5-------5---5--------5---5-------5---5-------5---5-------5---]
b-0----------0-----------0-----------0------------0-----------0-----------0-----------0-------]

chorus

   both          become         the    same  pawn   thats  made  to fall
c#-----------------------------------------------------------------------]
g#-----------------------------------------------------------------------]
e------------------------------------------------------------------------]
b--12-12-12-12-12-12-12-12-12-12-12-12-12-12-3-3-3-3-3-3-3-3-3-3-3-3-3-3-]
f#-12-12-12-12-12-12-12-12-12-12-12-12-12-12-3-3-3-3-3-3-3-3-3-3-3-3-3-3-]
b--12-12-12-12-12-12-12-12-12-12-12-12-12-12-3-3-3-3-3-3-3-3-3-3-3-3-3-3-]

   oil that tastes like blood  stole the summer scent from
c#---------------------------------------------------------]
g#---------------------------------------------------------]
e----------------------------------------------------------]
b--8-8-8-8-8-8-8-8-8-8-8-8-8-8-5-5-5-5-5-5-5-5-5-5-5-5-5-5-]
f#-8-8-8-8-8-8-8-8-8-8-8-8-8-8-5-5-5-5-5-5-5-5-5-5-5-5-5-5-]
b--8-8-8-8-8-8-8-8-8-8-8-8-8-8-5-5-5-5-5-5-5-5-5-5-5-5-5-5-]

   me       to you        your    stabbing   me through you  your stabbing
c#------------------------------------------------------------------------]
g#------------------------------------------------------------------------]
e-------------------------------------------------------------------------]
b--12-12-12-12-12-12-12-12-12-12-12-12-12-12-3-3-3-3-3-3-3-3-3-3-3-3-3-3--]
f#-12-12-12-12-12-12-12-12-12-12-12-12-12-12-3-3-3-3-3-3-3-3-3-3-3-3-3-3--]
b--12-12-12-12-12-12-12-12-12-12-12-12-12-12-3-3-3-3-3-3-3-3-3-3-3-3-3-3--]

   you  through him and betting most of            this

c#---------------------------------------------------------]
g#---------------------------------------------------------]
e----------------------------------------------------------]
b--8-8-8-8-8-8-8-8-8-8-8-8-8-8-5-5-5-5-5-5-5-5-5-5-5-5-5-5-]
f#-8-8-8-8-8-8-8-8-8-8-8-8-8-8-5-5-5-5-5-5-5-5-5-5-5-5-5-5-]
b--8-8-8-8-8-8-8-8-8-8-8-8-8-8-5-5-5-5-5-5-5-5-5-5-5-5-5-5-]

  world              we'll add enough of the  world
c#---------------------------------------------------------------------------]
g#---------------------------------------------------------------------------]
e----------------------------------------------------------------------------]
b----------------------------------------------------------------------------]
f#-------------------------------------------3-3-0-3-7-7-0-7-5-5-0-5-5-7-3-0-]
b-12-12-0-12-15-15-0-15-10-10-0-10-8-8-0-8---3-3-0-3-7-7-0-7-5-5-0-5-5-7-3-0-]

Interlude
    This world                                      we'll add    enough
c#-1717171717171717171717171717171715151513131312121212---------------]
g#-----------------------------------------------------13131313131313-]
e---------------------------------------------------------------------]
b---------------------------------------------------------------------]
f#--------------------------------------------------------------------]
b---------------------------------------------------------------------]

   enough            of the       world
c#--------------------------------12121212121212121313131310-]
g#-----------------------------------------------------------]
e-14141414141414141414141414141414---------------------------]
b------------------------------------------------------------]
f#-----------------------------------------------------------]
b------------------------------------------------------------]

c#-10101010101010101010101010101010-]
g#----------------------------------]
e-----------------------------------]
b-----------------------------------]
f#----------------------------------]
b-----------------------------------]

                  felling manic for a day                             depends
c#------------------------------------------------------------------------------------]
g#------------------------------------------------------------------------------------]
e-------------------------------------------------------------------------------------]
b-------------------------------------------------------------------------------------]
f#-12-0-10^12-12~-0-10^12-12~-0-10^12-8~-10^12-12~-0-10^12-12~-0-10^12-12~-0-10^12-8~-]
b--12-0-10^12-12~-0-10^12-12~-0-10^12-8~-10^12-12~-0-10^12-12~-0-10^12-12~-0-10^12-8~-]

 on the trends                         depends  on the surface        and if
c#----------------------------------------------------------------------------]
g#----------------------------------------------------------------------------]
e-----------------------------------------------------------------------------]
b-----------------------------------------------------------------------------]
f#-10^12-12~-0-10^12-12~-0-10^12-12~-0-10^12-8~-10^12-12~-0-10^12-12~-0-10^12-]
b--10^12-12~-0-10^12-12~-0-10^12-12~-0-10^12-8~-10^12-12~-0-10^12-12~-0-10^12-]

   the sun never sets, we can't
c#--------------------]
g#--------------------]
e---------------------]
b---------------------]
f#-12~-0-10^12-8-0-10-]
b--12~-0-10^12-8-0-10-]


chorus

   both          become         the    same  pawn   that's  made  to fall
c#-----------------------------------------------------------------------]
g#-----------------------------------------------------------------------]
e------------------------------------------------------------------------]
b--12-12-12-12-12-12-12-12-12-12-12-12-12-12-3-3-3-3-3-3-3-3-3-3-3-3-3-3-]
f#-12-12-12-12-12-12-12-12-12-12-12-12-12-12-3-3-3-3-3-3-3-3-3-3-3-3-3-3-]
b--12-12-12-12-12-12-12-12-12-12-12-12-12-12-3-3-3-3-3-3-3-3-3-3-3-3-3-3-]

   oil that tastes like blood  stole the summer scent from

c#---------------------------------------------------------]
g#---------------------------------------------------------]
e----------------------------------------------------------]
b--8-8-8-8-8-8-8-8-8-8-8-8-8-8-5-5-5-5-5-5-5-5-5-5-5-5-5-5-]
f#-8-8-8-8-8-8-8-8-8-8-8-8-8-8-5-5-5-5-5-5-5-5-5-5-5-5-5-5-]
b--8-8-8-8-8-8-8-8-8-8-8-8-8-8-5-5-5-5-5-5-5-5-5-5-5-5-5-5-]

   me       to you        your    stabbing   me through you  your stabbing
c#------------------------------------------------------------------------]
g#------------------------------------------------------------------------]
e-------------------------------------------------------------------------]
b--12-12-12-12-12-12-12-12-12-12-12-12-12-12-3-3-3-3-3-3-3-3-3-3-3-3-3-3--]
f#-12-12-12-12-12-12-12-12-12-12-12-12-12-12-3-3-3-3-3-3-3-3-3-3-3-3-3-3--]
b--12-12-12-12-12-12-12-12-12-12-12-12-12-12-3-3-3-3-3-3-3-3-3-3-3-3-3-3--]

   you  through him and betting most of            this
c#---------------------------------------------------------]
g#---------------------------------------------------------]
e----------------------------------------------------------]
b--8-8-8-8-8-8-8-8-8-8-8-8-8-8-5-5-5-5-5-5-5-5-5-5-5-5-5-5-]
f#-8-8-8-8-8-8-8-8-8-8-8-8-8-8-5-5-5-5-5-5-5-5-5-5-5-5-5-5-]
b--8-8-8-8-8-8-8-8-8-8-8-8-8-8-5-5-5-5-5-5-5-5-5-5-5-5-5-5-]

   world                                     we'll  add  enough  of  the
c#-----------------------------------------------------------------------]
g#-----------------------------------------------------------------------]
e------------------------------------------------------------------------]
b--12-12-12-12-12-12-12-12-12-12-12-12-12-12-3-3-3-3-3-3-3-3-3-3-3-3-3-3-]
f#-12-12-12-12-12-12-12-12-12-12-12-12-12-12-3-3-3-3-3-3-3-3-3-3-3-3-3-3-]
b--12-12-12-12-12-12-12-12-12-12-12-12-12-12-3-3-3-3-3-3-3-3-3-3-3-3-3-3-]

   world
c#---------------------------------------------------------]
g#---------------------------------------------------------]
e----------------------------------------------------------]
b--8-8-8-8-8-8-8-8-8-8-8-8-8-8-5-5-5-5-5-5-5-5-5-5-5-5-5-5-]
f#-8-8-8-8-8-8-8-8-8-8-8-8-8-8-5-5-5-5-5-5-5-5-5-5-5-5-5-5-]
b--8-8-8-8-8-8-8-8-8-8-8-8-8-8-5-5-5-5-5-5-5-5-5-5-5-5-5-5-]

   its  the  main  thing  you  shout               till the bitter
c#------------------------------------------------------------------------]
g#------------------------------------------------------------------------]
e-------------------------------------------------------------------------]
b--12-12-12-12-12-12-12-12-12-12-12-12-12-12-3-3-3-3-3-3-3-3-3-3-3-3-3-3--]
f#-12-12-12-12-12-12-12-12-12-12-12-12-12-12-3-3-3-3-3-3-3-3-3-3-3-3-3-3--]
b--12-12-12-12-12-12-12-12-12-12-12-12-12-12-3-3-3-3-3-3-3-3-3-3-3-3-3-3--]

   end                                          into jars
c#---------------------------------------------------------]
g#---------------------------------------------------------]
e----------------------------------------------------------]
b--8-8-8-8-8-8-8-8-8-8-8-8-8-8-5-5-5-5-5-5-5-5-5-5-5-5-5-5-]
f#-8-8-8-8-8-8-8-8-8-8-8-8-8-8-5-5-5-5-5-5-5-5-5-5-5-5-5-5-]
b--8-8-8-8-8-8-8-8-8-8-8-8-8-8-5-5-5-5-5-5-5-5-5-5-5-5-5-5-]

outro

c#-----------------------------------------------------------------------------------------]
g#-----------------------------------------------------------------------------------------]
e------------------------------------------------------------------------------------------]
b------------------------------------------------------------------------------------------]
f#-12-0-10^12-12~-0-10^12-12~-0-10^12-12~-0-10^12-12~-0-10^12-12~-0-10^12-12~-0-10^12-12~\-]
b--12-0-10^12-12~-0-10^12-12~-0-10^12-12~-0-10^12-12~-0-10^12-12~-0-10^12-12~-0-10^12-12~\-]

 end with a pick scrape

____________________________________5.Fell Into Your shoes_______________________________________

tuning: drop d (Dadgbe)

        intro

pick scrapes then...

e---------------------------------------------------------------------|
b---------------------------------------------------------------------|
g---------------------------------------------------------------------|
d---------------------------------------------------------------------|
a---------------------------------------------------------------------|
D-0-0-0-0-12-0-0-0--0-0-0-12-0-0-0--0-0-0-0-12-0-0-0--0-0-0-12-0-0-0--|

e---------------------------------------------------------------------|
b---------------------------------------------------------------------|
g---------------------------------------------------------------------|
d---------------------------------------------------------------------|
a---------------------------------------------------------------------|
D-0-0-0-0-12-0-0-0--0-0-0-12-0-0-0--0-0-0-0-12-0-0-0--0-0-0-12-0-0-0--|

e----------------------------------[
b----------------------------------[
g----------------------------------[
d----------------------------------[
a----------------------------------[
D-0-0-0-0-12-0-0-0--0-0-0-12-0-0-0-[

verse

    somehow           we're        sent     by        fools
e[--------------------------------------------------------------------------[
b[--------------------------------------------------------------------------[
g[--------------------------------------------------------------------------[
d[-12-12-12-12-12-12-12-12-9-9-9-9-9-9-9-9-4-4-4-4-4-4-4-4-4-4-4-4-4-4-4-4--[
a[-12-12-12-12-12-12-12-12-9-9-9-9-9-9-9-9-4-4-4-4-4-4-4-4-4-4-4-4-4-4-4-4--[
D[-12-12-12-12-12-12-12-12-9-9-9-9-9-9-9-9-4-4-4-4-4-4-4-4-4-4-4-4-4-4-4-4--[
 [                                                                          [
e[--------------------------------------------------------------------------[
b[-17-17-17-17-17-17-17-17-17-17-17-14-14-14-14-14-14-14-14-14-14-14-14-14--[
g[--------------------------------------------------------------------------[
d[--------------------------------------------------------------------------[
a[--------------------------------------------------------------------------[
D[--------------------------------------------------------------------------[

    no           better            when     we're    lost
e[--------------------------------------------------------------------------[
b[--------------------------------------------------------------------------[
g[--------------------------------------------------------------------------[
d[-12-12-12-12-12-12-12-12-9-9-9-9-9-9-9-9-4-4-4-4-4-4-4-4-4-4-4-4-4-4-4-4--[
a[-12-12-12-12-12-12-12-12-9-9-9-9-9-9-9-9-4-4-4-4-4-4-4-4-4-4-4-4-4-4-4-4--[
D[-12-12-12-12-12-12-12-12-9-9-9-9-9-9-9-9-4-4-4-4-4-4-4-4-4-4-4-4-4-4-4-4--[
 [                                                                          [
e[--------------------------------------------------------------------------[
b[-17-17-17-17-17-17-17-17-17-17-17-14-14-14-14-14-14-14-14-14-14-14-14-14--[
g[--------------------------------------------------------------------------[
d[--------------------------------------------------------------------------[
a[--------------------------------------------------------------------------[
D[--------------------------------------------------------------------------[

    i            fell into your shoes                     but only one
e[--------------------------------------------------------------------------[
b[--------------------------------------------------------------------------[
g[--------------------------------------------------------------------------[
d[-12-12-12-12-12-12-12-12-9-9-9-9-9-9-9-9-4-4-4-4-4-4-4-4-4-4-4-4-4-4-4-4--[
a[-12-12-12-12-12-12-12-12-9-9-9-9-9-9-9-9-4-4-4-4-4-4-4-4-4-4-4-4-4-4-4-4--[
D[-12-12-12-12-12-12-12-12-9-9-9-9-9-9-9-9-4-4-4-4-4-4-4-4-4-4-4-4-4-4-4-4--[
 [                                                                          [
e[--------------------------------------------------------------------------[
b[-17-17-17-17-17-17-17-17-17-17-17-14-14-14-14-14-14-14-14-14-14-14-14-14--[
g[--------------------------------------------------------------------------[
d[--------------------------------------------------------------------------[
a[--------------------------------------------------------------------------[
D[--------------------------------------------------------------------------[




prechorus


hoping to be shown a leaner curfew
e------------------------------------------------------------------|
b------------------------------------------------------------------|
g-4-4-4-4-4-4-4-4-4-4-4-4-4-4-4-4-7-7-7-7-7-7-7-7-9-9-9-9-9-9-9-9--|
d------------------------------------------------------------------|
a-2-2-2-2-2-2-2-2-2-2-2-2-2-2-2-2-5-5-5-5-5-5-5-5-7-7-7-7-7-7-7-7--|
D------------------------------------------------------------------|

hopeful senseless sins  gathering clues
e------------------------------------------------------------------|
b------------------------------------------------------------------|
g-4-4-4-4-4-4-4-4-4-4-4-4-4-4-4-4-7-7-7-7-7-7-7-7-9-9-9-9-9-9-9-9--|
d------------------------------------------------------------------|
a-2-2-2-2-2-2-2-2-2-2-2-2-2-2-2-2-5-5-5-5-5-5-5-5-7-7-7-7-7-7-7-7--|
D------------------------------------------------------------------|

weaving into
[---------------------------------|
[---------------------------------|
[---------------------------------|
[-2-0-8-7-10-9-7-9-10-9-7-9---0-7-|
[-2-0-8-7-10-9-7-9-10-9-7-9---0-7-|
[-2-0-8-7-10-9-7-9-10-9-7-9---0-7-|

feeing off the youth
[---------------------------------|
[---------------------------------|
[---------------------------------|
[-2-0-8-7-10-9-7-9-10-9-7-9---0-7-|
[-2-0-8-7-10-9-7-9-10-9-7-9---0-7-|
[-2-0-8-7-10-9-7-9-10-9-7-9---0-7-|

e---------------------------------------------------------------------|
b---------------------------------------------------------------------|
g---------------------------------------------------------------------|
d---------------------------------------------------------------------|
a---------------------------------------------------------------------|
D-0-0-0-0-12-0-0-0--0-0-0-12-0-0-0--0-0-0-0-12-0-0-0--0-0-0-12-0-0-0--|

e---------------------------------------------------------------------|
b---------------------------------------------------------------------|
g---------------------------------------------------------------------|
d---------------------------------------------------------------------|
a---------------------------------------------------------------------|
D-0-0-0-0-12-0-0-0--0-0-0-12-0-0-0--0-0-0-0-12-0-0-0--0-0-0-12-0-0-0--|

chorus

  somehow           we're        sent     by        fools
e[--------------------------------------------------------------------------[
b[--------------------------------------------------------------------------[
g[--------------------------------------------------------------------------[
d[-12-12-12-12-12-12-12-12-9-9-9-9-9-9-9-9-4-4-4-4-4-4-4-4-4-4-4-4-4-4-4-4--[
a[-12-12-12-12-12-12-12-12-9-9-9-9-9-9-9-9-4-4-4-4-4-4-4-4-4-4-4-4-4-4-4-4--[
D[-12-12-12-12-12-12-12-12-9-9-9-9-9-9-9-9-4-4-4-4-4-4-4-4-4-4-4-4-4-4-4-4--[
 [                                                                          [
e[--------------------------------------------------------------------------[
b[-17-17-17-17-17-17-17-17-17-17-17-14-14-14-14-14-14-14-14-14-14-14-14-14--[
g[--------------------------------------------------------------------------[
d[--------------------------------------------------------------------------[
a[--------------------------------------------------------------------------[
D[--------------------------------------------------------------------------[

    no           better            when     we're    lost
e[--------------------------------------------------------------------------[
b[--------------------------------------------------------------------------[
g[--------------------------------------------------------------------------[
d[-12-12-12-12-12-12-12-12-9-9-9-9-9-9-9-9-4-4-4-4-4-4-4-4-4-4-4-4-4-4-4-4--[
a[-12-12-12-12-12-12-12-12-9-9-9-9-9-9-9-9-4-4-4-4-4-4-4-4-4-4-4-4-4-4-4-4--[
D[-12-12-12-12-12-12-12-12-9-9-9-9-9-9-9-9-4-4-4-4-4-4-4-4-4-4-4-4-4-4-4-4--[
 [                                                                          [
e[--------------------------------------------------------------------------[
b[-17-17-17-17-17-17-17-17-17-17-17-14-14-14-14-14-14-14-14-14-14-14-14-14--[
g[--------------------------------------------------------------------------[
d[--------------------------------------------------------------------------[
a[--------------------------------------------------------------------------[
D[--------------------------------------------------------------------------[

    i            fell into your shoes                     but only one
e[--------------------------------------------------------------------------[
b[--------------------------------------------------------------------------[
g[--------------------------------------------------------------------------[
d[-12-12-12-12-12-12-12-12-9-9-9-9-9-9-9-9-4-4-4-4-4-4-4-4-4-4-4-4-4-4-4-4--[
a[-12-12-12-12-12-12-12-12-9-9-9-9-9-9-9-9-4-4-4-4-4-4-4-4-4-4-4-4-4-4-4-4--[
D[-12-12-12-12-12-12-12-12-9-9-9-9-9-9-9-9-4-4-4-4-4-4-4-4-4-4-4-4-4-4-4-4--[
 [                                                                          [
e[--------------------------------------------------------------------------[
b[-17-17-17-17-17-17-17-17-17-17-17-14-14-14-14-14-14-14-14-14-14-14-14-14--[
g[--------------------------------------------------------------------------[
d[--------------------------------------------------------------------------[
a[--------------------------------------------------------------------------[
D[--------------------------------------------------------------------------[


prechorus


the skies are overwlemed another teacher
e------------------------------------------------------------------|
b------------------------------------------------------------------|
g-4-4-4-4-4-4-4-4-4-4-4-4-4-4-4-4-7-7-7-7-7-7-7-7-9-9-9-9-9-9-9-9--|
d------------------------------------------------------------------|
a-2-2-2-2-2-2-2-2-2-2-2-2-2-2-2-2-5-5-5-5-5-5-5-5-7-7-7-7-7-7-7-7--|
D------------------------------------------------------------------|

heads for higher ground gathering clues
e------------------------------------------------------------------|
b------------------------------------------------------------------|
g-4-4-4-4-4-4-4-4-4-4-4-4-4-4-4-4-7-7-7-7-7-7-7-7-9-9-9-9-9-9-9-9--|
d------------------------------------------------------------------|
a-2-2-2-2-2-2-2-2-2-2-2-2-2-2-2-2-5-5-5-5-5-5-5-5-7-7-7-7-7-7-7-7--|
D------------------------------------------------------------------|

weaving into
[---------------------------------|
[---------------------------------|
[---------------------------------|
[-2-0-8-7-10-9-7-9-10-9-7-9---0-7-|
[-2-0-8-7-10-9-7-9-10-9-7-9---0-7-|
[-2-0-8-7-10-9-7-9-10-9-7-9---0-7-|

feeing off the youth
[---------------------------------|
[---------------------------------|
[---------------------------------|
[-2-0-8-7-10-9-7-9-10-9-7-9---0-7-|
[-2-0-8-7-10-9-7-9-10-9-7-9---0-7-|
[-2-0-8-7-10-9-7-9-10-9-7-9---0-7-|

e---------------------------------------------------------------------|
b---------------------------------------------------------------------|
g---------------------------------------------------------------------|
d---------------------------------------------------------------------|
a---------------------------------------------------------------------|
D-0-0-0-0-12-0-0-0--0-0-0-12-0-0-0--0-0-0-0-12-0-0-0--0-0-0-12-0-0-0--|

e---------------------------------------------------------------------|
b---------------------------------------------------------------------|
g---------------------------------------------------------------------|
d---------------------------------------------------------------------|
a---------------------------------------------------------------------|
D-0-0-0-0-12-0-0-0--0-0-0-12-0-0-0--0-0-0-0-12-0-0-0--0-0-0-12-0-0-0--|


solo

e--------------------------------------------------------------------------------[
b-17T-15T-14T-10T-7Tb-12T-10T-8-7-8-7-8-7------------------------------------7Tb-[
g-----------------------------------------7-6-6-7-9-10-9-7-6-7-6-7-6-7-6-7-6-----[
d--------------------------------------------------------------------------------[
a--------------------------------------------------------------------------------[
D--------------------------------------------------------------------------------[

e----------------------------------------[
b-7Tb-7Tb-12T-10T-8-7-8-7-8-7------------[
g-----------------------------7-6b-6b-6b-[
d----------------------------------------[
a----------------------------------------[
D----------------------------------------[


prechorus


closing chapters tell all a new virtue
e[------------------------------------------------------------------|
b[------------------------------------------------------------------|
g[-4-4-4-4-4-4-4-4-4-4-4-4-4-4-4-4-7-7-7-7-7-7-7-7-9-9-9-9-9-9-9-9--|
d[------------------------------------------------------------------|
a[-2-2-2-2-2-2-2-2-2-2-2-2-2-2-2-2-5-5-5-5-5-5-5-5-7-7-7-7-7-7-7-7--|
D[------------------------------------------------------------------|
 [
e[------------------------------------------------------------------[
b[------------------------------------------------------------------[
g[-5b------------------------------7b--------------9b---------------[
d[------------------------------------------------------------------[
a[------------------------------------------------------------------[
D[------------------------------------------------------------------[

pay for healing hands as eyes go hallow
e[------------------------------------------------------------------|
b[------------------------------------------------------------------|
g[-4-4-4-4-4-4-4-4-4-4-4-4-4-4-4-4-7-7-7-7-7-7-7-7-9-9-9-9-9-9-9-9--|
d[------------------------------------------------------------------|
a[-2-2-2-2-2-2-2-2-2-2-2-2-2-2-2-2-5-5-5-5-5-5-5-5-7-7-7-7-7-7-7-7--|
D[------------------------------------------------------------------|
 [
e[------------------------------------------------------------------[
b[------------------------------------------------------------------[
g[-5b------------------------------7b--------------9b---------------[
d[------------------------------------------------------------------[
a[------------------------------------------------------------------[
D[------------------------------------------------------------------[

weaving into
[---------------------------------|
[---------------------------------|
[---------------------------------|
[-2-0-8-7-10-9-7-9-10-9-7-9---0-7-|
[-2-0-8-7-10-9-7-9-10-9-7-9---0-7-|
[-2-0-8-7-10-9-7-9-10-9-7-9---0-7-|

we bring this to
[---------------------------------|
[---------------------------------|
[---------------------------------|
[-2-0-8-7-10-9-7-9-10-9-7-9---0-7-|
[-2-0-8-7-10-9-7-9-10-9-7-9---0-7-|
[-2-0-8-7-10-9-7-9-10-9-7-9---0-7-|


[---------------------------------|
[---------------------------------|
[---------------------------------|
[-2-0-8-7-10-9-7-9-10-9-7-9---0-7-|
[-2-0-8-7-10-9-7-9-10-9-7-9---0-7-|
[-2-0-8-7-10-9-7-9-10-9-7-9---0-7-|


[---------------------------------|
[---------------------------------|
[---------------------------------|
[-2-0-8-7-10-9-7-9-10-9-7-9---0-7-|
[-2-0-8-7-10-9-7-9-10-9-7-9---0-7-|
[-2-0-8-7-10-9-7-9-10-9-7-9---0-7-|

chorus

  somehow           we're        sent     by        fools
e[--------------------------------------------------------------------------[
b[--------------------------------------------------------------------------[
g[--------------------------------------------------------------------------[
d[-12-12-12-12-12-12-12-12-9-9-9-9-9-9-9-9-4-4-4-4-4-4-4-4-4-4-4-4-4-4-4-4--[
a[-12-12-12-12-12-12-12-12-9-9-9-9-9-9-9-9-4-4-4-4-4-4-4-4-4-4-4-4-4-4-4-4--[
D[-12-12-12-12-12-12-12-12-9-9-9-9-9-9-9-9-4-4-4-4-4-4-4-4-4-4-4-4-4-4-4-4--[
 [                                                                          [
e[--------------------------------------------------------------------------[
b[-17-17-17-17-17-17-17-17-17-17-17-14-14-14-14-14-14-14-14-14-14-14-14-14--[
g[--------------------------------------------------------------------------[
d[--------------------------------------------------------------------------[
a[--------------------------------------------------------------------------[
D[--------------------------------------------------------------------------[

    no           better            when     we're    lost
e[--------------------------------------------------------------------------[
b[--------------------------------------------------------------------------[
g[--------------------------------------------------------------------------[
d[-12-12-12-12-12-12-12-12-9-9-9-9-9-9-9-9-4-4-4-4-4-4-4-4-4-4-4-4-4-4-4-4--[
a[-12-12-12-12-12-12-12-12-9-9-9-9-9-9-9-9-4-4-4-4-4-4-4-4-4-4-4-4-4-4-4-4--[
D[-12-12-12-12-12-12-12-12-9-9-9-9-9-9-9-9-4-4-4-4-4-4-4-4-4-4-4-4-4-4-4-4--[
 [                                                                          [
e[--------------------------------------------------------------------------[
b[-17-17-17-17-17-17-17-17-17-17-17-14-14-14-14-14-14-14-14-14-14-14-14-14--[
g[--------------------------------------------------------------------------[
d[--------------------------------------------------------------------------[
a[--------------------------------------------------------------------------[
D[--------------------------------------------------------------------------[

    i            fell into your shoes                     but only one
e[--------------------------------------------------------------------------[
b[--------------------------------------------------------------------------[
g[--------------------------------------------------------------------------[
d[-12-12-12-12-12-12-12-12-9-9-9-9-9-9-9-9-4-4-4-4-4-4-4-4-4-4-4-4-4-4-4-4--[
a[-12-12-12-12-12-12-12-12-9-9-9-9-9-9-9-9-4-4-4-4-4-4-4-4-4-4-4-4-4-4-4-4--[
D[-12-12-12-12-12-12-12-12-9-9-9-9-9-9-9-9-4-4-4-4-4-4-4-4-4-4-4-4-4-4-4-4--[
 [                                                                          [
e[--------------------------------------------------------------------------[
b[-17-17-17-17-17-17-17-17-17-17-17-14-14-14-14-14-14-14-14-14-14-14-14-14--[
g[--------------------------------------------------------------------------[
d[--------------------------------------------------------------------------[
a[--------------------------------------------------------------------------[
D[--------------------------------------------------------------------------[

  somehow           we're        sent     by        fools
e[--------------------------------------------------------------------------[
b[--------------------------------------------------------------------------[
g[--------------------------------------------------------------------------[
d[-12-12-12-12-12-12-12-12-9-9-9-9-9-9-9-9-4-4-4-4-4-4-4-4-4-4-4-4-4-4-4-4--[
a[-12-12-12-12-12-12-12-12-9-9-9-9-9-9-9-9-4-4-4-4-4-4-4-4-4-4-4-4-4-4-4-4--[
D[-12-12-12-12-12-12-12-12-9-9-9-9-9-9-9-9-4-4-4-4-4-4-4-4-4-4-4-4-4-4-4-4--[
 [                                                                          [
e[--------------------------------------------------------------------------[
b[-17-17-17-17-17-17-17-17-17-17-17-14-14-14-14-14-14-14-14-14-14-14-14-14--[
g[--------------------------------------------------------------------------[
d[--------------------------------------------------------------------------[
a[--------------------------------------------------------------------------[
D[--------------------------------------------------------------------------[

    no           better            when     we're    lost
e[--------------------------------------------------------------------------[
b[--------------------------------------------------------------------------[
g[--------------------------------------------------------------------------[
d[-12-12-12-12-12-12-12-12-9-9-9-9-9-9-9-9-4-4-4-4-4-4-4-4-4-4-4-4-4-4-4-4--[
a[-12-12-12-12-12-12-12-12-9-9-9-9-9-9-9-9-4-4-4-4-4-4-4-4-4-4-4-4-4-4-4-4--[
D[-12-12-12-12-12-12-12-12-9-9-9-9-9-9-9-9-4-4-4-4-4-4-4-4-4-4-4-4-4-4-4-4--[
 [                                                                          [
e[--------------------------------------------------------------------------[
b[-17-17-17-17-17-17-17-17-17-17-17-14-14-14-14-14-14-14-14-14-14-14-14-14--[
g[--------------------------------------------------------------------------[
d[--------------------------------------------------------------------------[
a[--------------------------------------------------------------------------[
D[--------------------------------------------------------------------------[

    i            fell into your shoes                     but only one
e[--------------------------------------------------------------------------[
b[--------------------------------------------------------------------------[
g[--------------------------------------------------------------------------[
d[-12-12-12-12-12-12-12-12-9-9-9-9-9-9-9-9-4-4-4-4-4-4-4-4-4-4-4-4-4-4-4-4--[
a[-12-12-12-12-12-12-12-12-9-9-9-9-9-9-9-9-4-4-4-4-4-4-4-4-4-4-4-4-4-4-4-4--[
D[-12-12-12-12-12-12-12-12-9-9-9-9-9-9-9-9-4-4-4-4-4-4-4-4-4-4-4-4-4-4-4-4--[
 [                                                                          [
e[--------------------------------------------------------------------------[
b[-17-17-17-17-17-17-17-17-17-17-17-14-14-14-14-14-14-14-14-14-14-14-14-14--[
g[--------------------------------------------------------------------------[
d[--------------------------------------------------------------------------[
a[--------------------------------------------------------------------------[
D[--------------------------------------------------------------------------[


e[--------------------------------------------------------------------------[
b[--------------------------------------------------------------------------[
g[--------------------------------------------------------------------------[
d[-12-12-12-12-12-12-12-12-9-9-9-9-9-9-9-9-4-4-4-4-4-4-4-4-4-4-4-4-4-4-4-4--[
a[-12-12-12-12-12-12-12-12-9-9-9-9-9-9-9-9-4-4-4-4-4-4-4-4-4-4-4-4-4-4-4-4--[
D[-12-12-12-12-12-12-12-12-9-9-9-9-9-9-9-9-4-4-4-4-4-4-4-4-4-4-4-4-4-4-4-4--[
 [                                                                          [
e[--------------------------------------------------------------------------[
b[-17-17-17-17-17-17-17-17-17-17-17-14-14-14-14-14-14-14-14-14-14-14-14-14--[
g[--------------------------------------------------------------------------[
d[--------------------------------------------------------------------------[
a[--------------------------------------------------------------------------[
D[--------------------------------------------------------------------------[
 [                                                                          [
e[--------------------------------------------------------------------------[
b[--------------------------------------------------------------------------[
g[----9b----------------------9b-----------------------6--------------------[
d[--------------------------------------------------------------------------[
a[--------------------------------------------------------------------------[
D[--------------------------------------------------------------------------[

e[--------------------------------------------------------------------------[
b[--------------------------------------------------------------------------[
g[--------------------------------------------------------------------------[
d[-12-12-12-12-12-12-12-12-9-9-9-9-9-9-9-9-4-4-4-4-4-4-4-4-4-4-4-4-4-4-4-4--[
a[-12-12-12-12-12-12-12-12-9-9-9-9-9-9-9-9-4-4-4-4-4-4-4-4-4-4-4-4-4-4-4-4--[
D[-12-12-12-12-12-12-12-12-9-9-9-9-9-9-9-9-4-4-4-4-4-4-4-4-4-4-4-4-4-4-4-4--[
 [                                                                          [
e[--------------------------------------------------------------------------[
b[-17-17-17-17-17-17-17-17-17-17-17-14-14-14-14-14-14-14-14-14-14-14-14-14--[
g[--------------------------------------------------------------------------[
d[--------------------------------------------------------------------------[
a[--------------------------------------------------------------------------[
D[--------------------------------------------------------------------------[
 [                                                                          [
e[--------------------------------------------------------------------------[
b[--------------------------------------------------------------------------[
g[----9b----------------------9b-----------------------6--------------------[
d[--------------------------------------------------------------------------[
a[--------------------------------------------------------------------------[
D[--------------------------------------------------------------------------[

e[--------------------------------------------------------------------------[
b[--------------------------------------------------------------------------[
g[--------------------------------------------------------------------------[
d[-12-12-12-12-12-12-12-12-9-9-9-9-9-9-9-9-4-4-4-4-4-4-4-4-4-4-4-4-4-4-4-4--[
a[-12-12-12-12-12-12-12-12-9-9-9-9-9-9-9-9-4-4-4-4-4-4-4-4-4-4-4-4-4-4-4-4--[
D[-12-12-12-12-12-12-12-12-9-9-9-9-9-9-9-9-4-4-4-4-4-4-4-4-4-4-4-4-4-4-4-4--[
 [                                                                          [
e[--------------------------------------------------------------------------[
b[-17-17-17-17-17-17-17-17-17-17-17-14-14-14-14-14-14-14-14-14-14-14-14-14--[
g[--------------------------------------------------------------------------[
d[--------------------------------------------------------------------------[
a[--------------------------------------------------------------------------[
D[--------------------------------------------------------------------------[
 [                                                                          [
e[--------------------------------------------------------------------------[
b[--------------------------------------------------------------------------[
g[----9b----------------------9b-----------------------6--------------------[
d[--------------------------------------------------------------------------[
a[--------------------------------------------------------------------------[
D[--------------------------------------------------------------------------[

_____________________________________6.Letter From A Thief_______________________________________

tuning: Drop B

Intro

--------------------------------------------------------------------|
--------------------------------------------------------------------|
--7-7-7-7-7---7-7--7-7-7-7---7-7----7-7-7-7-7---7-7--7-7-7-7---7-7--|
--------------------------------------------------------------------|
--5-5-5-5-6p5-5-5--5-5-5-6p5-5-5----5-5-5-5-6p5-5-5--5-5-5-6p5-5-5--|
--------------------------------------------------------------------|

--------------------------------------------------------------------|
--------------------------------------------------------------------|
--7-7-7-7-7---7-7--7-7-7-7---7-7----7-7-7-7-7---7-7--7-7-7-7---7-7--|
--------------------------------------------------------------------|
--5-5-5-5-6p5-5-5--5-5-5-6p5-5-5----5-5-5-5-6p5-5-5--5-5-5-6p5-5-5--|
--------------------------------------------------------------------|


  they know what everybody knows, better sit a letter from a
[-5-----------------------0-------5----------------------0-[
[-------6----3------6---------------------6----3----6------[
[----------------------------------------------------------[
[----------------------------------------------------------[
[----------------------------------------------------------[
[----------------------------------------------------------[

  thief says
---------------[
---------------[
---10--10---5--[
---10--10---5--[
---8---8----3--[
---------------[


Verse


  why       lead          when        everybody       sleeps
--------------------------------------------------------------------|
--------------------------------------------------------------------|
--7-7-7-7-7---7-7--7-7-7-7---7-7----7-7-7-7-7---7-7--7-7-7-7---7-7--|
--7-7-7-7-7---7-7--7-7-7-7---7-7----7-7-7-7-7---7-7--7-7-7-7---7-7--|
--5-5-5-5-6p5-5-5--5-5-5-6p5-5-5----5-5-5-5-6p5-5-5--5-5-5-6p5-5-5--|
--------------------------------------------------------------------|

  so        few            ways      to cover up      the
--------------------------------------------------------------------|
--------------------------------------------------------------------|
--7-7-7-7-7---7-7--7-7-7-7---7-7----7-7-7-7-7---7-7--7-7-7-7---7-7--|
--7-7-7-7-7---7-7--7-7-7-7---7-7----7-7-7-7-7---7-7--7-7-7-7---7-7--|
--5-5-5-5-6p5-5-5--5-5-5-6p5-5-5----5-5-5-5-6p5-5-5--5-5-5-6p5-5-5--|
--------------------------------------------------------------------|

  old ruins
---------------|
---------------|
---10--10---5--|
---10--10---5--|
---8---8----3--|
---------------|

  lost       in a          finger          forced to        lie
--------------------------------------------------------------------|
--------------------------------------------------------------------|
--7-7-7-7-7---7-7--7-7-7-7---7-7----7-7-7-7-7---7-7--7-7-7-7---7-7--|
--7-7-7-7-7---7-7--7-7-7-7---7-7----7-7-7-7-7---7-7--7-7-7-7---7-7--|
--5-5-5-5-6p5-5-5--5-5-5-6p5-5-5----5-5-5-5-6p5-5-5--5-5-5-6p5-5-5--|
--------------------------------------------------------------------|

  this       sends        us                      medicating
--------------------------------------------------------------------|
--------------------------------------------------------------------|
--7-7-7-7-7---7-7--7-7-7-7---7-7----7-7-7-7-7---7-7--7-7-7-7---7-7--|
--7-7-7-7-7---7-7--7-7-7-7---7-7----7-7-7-7-7---7-7--7-7-7-7---7-7--|
--5-5-5-5-6p5-5-5--5-5-5-6p5-5-5----5-5-5-5-6p5-5-5--5-5-5-6p5-5-5--|
--------------------------------------------------------------------|

through it all
---------------[
---------------[
---10--10---5--[
---10--10---5--[
---8---8----3--[
---------------[

Chorus

  if      you        ever              enter               my
-----------------------------------------------------------------------------------|
-----------------------------------------------------------------------------------|
-10-10-10-10-10-10-10-10-10-10-10-10-10--------------------------------------------|
-8--8--8--8--8--8--8--8--8--8--8--8--8--10-10-10-10-10-10-10-10-10-10-10-10-10-10--|
-8--8--8--8--8--8--8--8--8--8--8--8--8--10-10-10-10-10-10-10-10-10-10-10-10-10-10--|
-8--8--8--8--8--8--8--8--8--8--8--8--8--10-10-10-10-10-10-10-10-10-10-10-10-10-10--|

mind                 stay     there                          you'll
------------------------------------------------------------------------|
------------------------------------------------------------------------|
-7-7-7-7-7-7-7-7-7-7-7-7-7-7-10-10-10-10-10-10-10-10-10-10-10-10-10-10--|
-7-7-7-7-7-7-7-7-7-7-7-7-7-7-10-10-10-10-10-10-10-10-10-10-10-10-10-10--|
-5-5-5-5-5-5-5-5-5-5-5-5-5-5-8--8--8--8--8--8--8--8--8--8--8--8--8--8---|
------------------------------------------------------------------------|

live           defend    it      off    or           fool        them       all
-----------------------------------------------------------------------------------|
-----------------------------------------------------------------------------------|
-10-10-10-10-10-10-10-10-10-10-10-10-10--------------------------------------------|
-8--8--8--8--8--8--8--8--8--8--8--8--8--10-10-10-10-10-10-10-10-10-10-10-10-10-10--|
-8--8--8--8--8--8--8--8--8--8--8--8--8--10-10-10-10-10-10-10-10-10-10-10-10-10-10--|
-8--8--8--8--8--8--8--8--8--8--8--8--8--10-10-10-10-10-10-10-10-10-10-10-10-10-10--|

                    stay       there
------------------------------------------------------------------------|
------------------------------------------------------------------------|
-7-7-7-7-7-7-7-7-7-7-7-7-7-7-10-10-10-10-10-10-10-10-10-10-10-10-10-10--|
-7-7-7-7-7-7-7-7-7-7-7-7-7-7-10-10-10-10-10-10-10-10-10-10-10-10-10-10--|
-5-5-5-5-5-5-5-5-5-5-5-5-5-5-8--8--8--8--8--8--8--8--8--8--8--8--8--8---|
------------------------------------------------------------------------|

Verse


  face       less            so         little left   to  judge
--------------------------------------------------------------------|
--------------------------------------------------------------------|
--7-7-7-7-7---7-7--7-7-7-7---7-7----7-7-7-7-7---7-7--7-7-7-7---7-7--|
--7-7-7-7-7---7-7--7-7-7-7---7-7----7-7-7-7-7---7-7--7-7-7-7---7-7--|
--5-5-5-5-6p5-5-5--5-5-5-6p5-5-5----5-5-5-5-6p5-5-5--5-5-5-6p5-5-5--|
--------------------------------------------------------------------|

  left       wing            lets        seperate      the
--------------------------------------------------------------------|
--------------------------------------------------------------------|
--7-7-7-7-7---7-7--7-7-7-7---7-7----7-7-7-7-7---7-7--7-7-7-7---7-7--|
--7-7-7-7-7---7-7--7-7-7-7---7-7----7-7-7-7-7---7-7--7-7-7-7---7-7--|
--5-5-5-5-6p5-5-5--5-5-5-6p5-5-5----5-5-5-5-6p5-5-5--5-5-5-6p5-5-5--|
--------------------------------------------------------------------|

  cold out
---------------|
---------------|
---10--10---5--|
---10--10---5--|
---8---8----3--|
---------------|

  oposites                           we never need  to  tell
--------------------------------------------------------------------|
--------------------------------------------------------------------|
--7-7-7-7-7---7-7--7-7-7-7---7-7----7-7-7-7-7---7-7--7-7-7-7---7-7--|
--7-7-7-7-7---7-7--7-7-7-7---7-7----7-7-7-7-7---7-7--7-7-7-7---7-7--|
--5-5-5-5-6p5-5-5--5-5-5-6p5-5-5----5-5-5-5-6p5-5-5--5-5-5-6p5-5-5--|
--------------------------------------------------------------------|

  one      sting     I've           found  I'm having   to,
--------------------------------------------------------------------|
--------------------------------------------------------------------|
--7-7-7-7-7---7-7--7-7-7-7---7-7----7-7-7-7-7---7-7--7-7-7-7---7-7--|
--7-7-7-7-7---7-7--7-7-7-7---7-7----7-7-7-7-7---7-7--7-7-7-7---7-7--|
--5-5-5-5-6p5-5-5--5-5-5-6p5-5-5----5-5-5-5-6p5-5-5--5-5-5-6p5-5-5--|
--------------------------------------------------------------------|

   having to
---------------[
---------------[
---10--10---5--[
---10--10---5--[
---8---8----3--[
---------------[

Chorus

  if      you        ever              enter               my
-----------------------------------------------------------------------------------|
-----------------------------------------------------------------------------------|
-10-10-10-10-10-10-10-10-10-10-10-10-10--------------------------------------------|
-8--8--8--8--8--8--8--8--8--8--8--8--8--10-10-10-10-10-10-10-10-10-10-10-10-10-10--|
-8--8--8--8--8--8--8--8--8--8--8--8--8--10-10-10-10-10-10-10-10-10-10-10-10-10-10--|
-8--8--8--8--8--8--8--8--8--8--8--8--8--10-10-10-10-10-10-10-10-10-10-10-10-10-10--|

mind                 stay     there                          you'll
------------------------------------------------------------------------|
------------------------------------------------------------------------|
-7-7-7-7-7-7-7-7-7-7-7-7-7-7-10-10-10-10-10-10-10-10-10-10-10-10-10-10--|
-7-7-7-7-7-7-7-7-7-7-7-7-7-7-10-10-10-10-10-10-10-10-10-10-10-10-10-10--|
-5-5-5-5-5-5-5-5-5-5-5-5-5-5-8--8--8--8--8--8--8--8--8--8--8--8--8--8---|
------------------------------------------------------------------------|

live           defend    it      off    and          fool        them       all
-----------------------------------------------------------------------------------|
-----------------------------------------------------------------------------------|
-10-10-10-10-10-10-10-10-10-10-10-10-10--------------------------------------------|
-8--8--8--8--8--8--8--8--8--8--8--8--8--10-10-10-10-10-10-10-10-10-10-10-10-10-10--|
-8--8--8--8--8--8--8--8--8--8--8--8--8--10-10-10-10-10-10-10-10-10-10-10-10-10-10--|
-8--8--8--8--8--8--8--8--8--8--8--8--8--10-10-10-10-10-10-10-10-10-10-10-10-10-10--|

                    stay       there                          you'll
------------------------------------------------------------------------|
------------------------------------------------------------------------|
-7-7-7-7-7-7-7-7-7-7-7-7-7-7-10-10-10-10-10-10-10-10-10-10-10-10-10-10--|
-7-7-7-7-7-7-7-7-7-7-7-7-7-7-10-10-10-10-10-10-10-10-10-10-10-10-10-10--|
-5-5-5-5-5-5-5-5-5-5-5-5-5-5-8--8--8--8--8--8--8--8--8--8--8--8--8--8---|
------------------------------------------------------------------------|

live           defend    it      off    and          fool        them       all
-----------------------------------------------------------------------------------|
-----------------------------------------------------------------------------------|
-10-10-10-10-10-10-10-10-10-10-10-10-10--------------------------------------------|
-8--8--8--8--8--8--8--8--8--8--8--8--8--10-10-10-10-10-10-10-10-10-10-10-10-10-10--|
-8--8--8--8--8--8--8--8--8--8--8--8--8--10-10-10-10-10-10-10-10-10-10-10-10-10-10--|
-8--8--8--8--8--8--8--8--8--8--8--8--8--10-10-10-10-10-10-10-10-10-10-10-10-10-10--|


interlude before "solo"

                                  solitude
--------------------------------------------------|
--------------------------------------------------|
--15-15-15-15-14-14-14-14-14-14-14-14-14-14-14-14-|
--------------------------------------------------|
--13-13-13-13-12-12-12-12-12-12-12-12-12-12-12-12-|
--------------------------------------------------|


--------------------------------------------------|
--------------------------------------------------|
--15-15-15-15-14-14-14-14-14-14-14-14-14-14-14-14-|
--------------------------------------------------|
--13-13-13-13-12-12-12-12-12-12-12-12-12-12-12-12-|
--------------------------------------------------|

         waste   of
--------------------------------------------------|
--------------------------------------------------|
--15-15-15-15-14-14-14-14-14-14-14-14-14-14-14-14-|
--------------------------------------------------|
--13-13-13-13-12-12-12-12-12-12-12-12-12-12-12-12-|
--------------------------------------------------|

            man
-------------------------------------------------|
-------------------------------------------------|
-15-15-15-15-12-12-12-12-12-12-12-12-12-12-12-12-|
-------------------------------------------------|
-13-13-13-13-10-10-10-10-10-10-10-10-10-10-10-10-|
-------------------------------------------------|

                                this fades
--------------------------------------------------|
--------------------------------------------------|
--15-15-15-15-14-14-14-14-14-14-14-14-14-14-14-14-|
--------------------------------------------------|
--13-13-13-13-12-12-12-12-12-12-12-12-12-12-12-12-|
--------------------------------------------------|


--------------------------------------------------|
--------------------------------------------------|
--15-15-15-15-14-14-14-14-14-14-14-14-14-14-14-14-|
--------------------------------------------------|
--13-13-13-13-12-12-12-12-12-12-12-12-12-12-12-12-|
--------------------------------------------------|

          as    soon     as     the
--------------------------------------------------|
--------------------------------------------------|
--15-15-15-15-14-14-14-14-14-14-14-14-14-14-14-14-|
--------------------------------------------------|
--13-13-13-13-12-12-12-12-12-12-12-12-12-12-12-12-|
--------------------------------------------------|

      sun                         sets
-------------------------------------------------|
-------------------------------------------------|
-15-15-15-15-12-12-12-12-12-12-12-12-12-12-12-12-|
-------------------------------------------------|
-13-13-13-13-10-10-10-10-10-10-10-10-10-10-10-10-|
-------------------------------------------------|

and now the "solo"

-------------------------------------------------------------------|
-------------------------------------------------------------------|
--9b10-9b10r9p7-5-2-9b10-9b10b9p7-5-----5---5---9b10-9b10r9p7-5-2--|
------------------------------------0-0---0---0--------------------|
-------------------------------------------------------------------|
-------------------------------------------------------------------|

--------------------------------[
--------------------------------[
-9b10-9b10r9p7-5-----5----------[
-----------------0-0---0--10\8--[
--------------------------------[
--------------------------------[

post "Solo" (last prechorus)

I now own this fatal role that lives  imagine heres a better feel
---5------5------5------5------5------5------5------5------5------5---|
-6---6--6---6--6---6--6---6--6---6--6---6--6---6--6---6--6---6--6---6-|
----------------------------------------------------------------------|
----------------------------------------------------------------------|
----------------------------------------------------------------------|
----------------------------------------------------------------------|

            told      to  dissolve          or    choose   to     fade
----------------------------------------------------------------------------|
----------------------------------------------------------------------------|
-10-10-10-10-10-10-10-10-10-10-10-10-10-------------------------------------|
-8--8--8--8--8--8--8--8--8--8--8--8--8--10-10-10-10-10-10-10-10-10-10-10-10-|
-8--8--8--8--8--8--8--8--8--8--8--8--8--10-10-10-10-10-10-10-10-10-10-10-10-|
-8--8--8--8--8--8--8--8--8--8--8--8--8--10-10-10-10-10-10-10-10-10-10-10-10-|

pm___________________________________________________________[

          or       stay       here  you'll live
---------------------------------------------------[
---------------------------------------------------[
-7-7-7-7-7-7-7-7-7-7-7-7-10-10-10-10-10-10-10-10\--[
---------------------------------------------------[
-5-5-5-5-5-5-5-5-5-5-5-5-8--8--8--8--8--8--8--8\---[
---------------------------------------------------[

chorus

  if      you        ever              enter               my
-----------------------------------------------------------------------------------|
-----------------------------------------------------------------------------------|
-10-10-10-10-10-10-10-10-10-10-10-10-10--------------------------------------------|
-8--8--8--8--8--8--8--8--8--8--8--8--8--10-10-10-10-10-10-10-10-10-10-10-10-10-10--|
-8--8--8--8--8--8--8--8--8--8--8--8--8--10-10-10-10-10-10-10-10-10-10-10-10-10-10--|
-8--8--8--8--8--8--8--8--8--8--8--8--8--10-10-10-10-10-10-10-10-10-10-10-10-10-10--|

mind                 stay     there                          you'll
------------------------------------------------------------------------|
------------------------------------------------------------------------|
-7-7-7-7-7-7-7-7-7-7-7-7-7-7-10-10-10-10-10-10-10-10-10-10-10-10-10-10--|
-7-7-7-7-7-7-7-7-7-7-7-7-7-7-10-10-10-10-10-10-10-10-10-10-10-10-10-10--|
-5-5-5-5-5-5-5-5-5-5-5-5-5-5-8--8--8--8--8--8--8--8--8--8--8--8--8--8---|
------------------------------------------------------------------------|

live           defend    it      off    and          fool        them       all
-----------------------------------------------------------------------------------|
-----------------------------------------------------------------------------------|
-10-10-10-10-10-10-10-10-10-10-10-10-10--------------------------------------------|
-8--8--8--8--8--8--8--8--8--8--8--8--8--10-10-10-10-10-10-10-10-10-10-10-10-10-10--|
-8--8--8--8--8--8--8--8--8--8--8--8--8--10-10-10-10-10-10-10-10-10-10-10-10-10-10--|
-8--8--8--8--8--8--8--8--8--8--8--8--8--10-10-10-10-10-10-10-10-10-10-10-10-10-10--|

                    stay       there                          you'll
------------------------------------------------------------------------|
------------------------------------------------------------------------|
-7-7-7-7-7-7-7-7-7-7-7-7-7-7-10-10-10-10-10-10-10-10-10-10-10-10-10-10--|
-7-7-7-7-7-7-7-7-7-7-7-7-7-7-10-10-10-10-10-10-10-10-10-10-10-10-10-10--|
-5-5-5-5-5-5-5-5-5-5-5-5-5-5-8--8--8--8--8--8--8--8--8--8--8--8--8--8---|
------------------------------------------------------------------------|

 live
  if      you        ever              enter               my
-----------------------------------------------------------------------------------|
-----------------------------------------------------------------------------------|
-10-10-10-10-10-10-10-10-10-10-10-10-10--------------------------------------------|
-8--8--8--8--8--8--8--8--8--8--8--8--8--10-10-10-10-10-10-10-10-10-10-10-10-10-10--|
-8--8--8--8--8--8--8--8--8--8--8--8--8--10-10-10-10-10-10-10-10-10-10-10-10-10-10--|
-8--8--8--8--8--8--8--8--8--8--8--8--8--10-10-10-10-10-10-10-10-10-10-10-10-10-10--|

mind                 stay     there                          you'll
------------------------------------------------------------------------|
------------------------------------------------------------------------|
-7-7-7-7-7-7-7-7-7-7-7-7-7-7-10-10-10-10-10-10-10-10-10-10-10-10-10-10--|
-7-7-7-7-7-7-7-7-7-7-7-7-7-7-10-10-10-10-10-10-10-10-10-10-10-10-10-10--|
-5-5-5-5-5-5-5-5-5-5-5-5-5-5-8--8--8--8--8--8--8--8--8--8--8--8--8--8---|
------------------------------------------------------------------------|

live           defend    it      off    and          fool        them       all
-----------------------------------------------------------------------------------|
-----------------------------------------------------------------------------------|
-10-10-10-10-10-10-10-10-10-10-10-10-10--------------------------------------------|
-8--8--8--8--8--8--8--8--8--8--8--8--8--10-10-10-10-10-10-10-10-10-10-10-10-10-10--|
-8--8--8--8--8--8--8--8--8--8--8--8--8--10-10-10-10-10-10-10-10-10-10-10-10-10-10--|
-8--8--8--8--8--8--8--8--8--8--8--8--8--10-10-10-10-10-10-10-10-10-10-10-10-10-10--|

                    stay       there
------------------------------------------------------------------------|
------------------------------------------------------------------------|
-7-7-7-7-7-7-7-7-7-7-7-7-7-7-10-10-10-10-10-10-10-10-10-10-10-10-10-10--|
-7-7-7-7-7-7-7-7-7-7-7-7-7-7-10-10-10-10-10-10-10-10-10-10-10-10-10-10--|
-5-5-5-5-5-5-5-5-5-5-5-5-5-5-8--8--8--8--8--8--8--8--8--8--8--8--8--8---|
------------------------------------------------------------------------|


------[
------[
------[
-7-0--[
-7-0--[
-7-0--[


________________________________7.Highland's Appartion___________________________________________

Acoustic throughout

tuning= drop c#

verse

             see      it                    startled
--------------------------------------------------------|
--------------------------------------------------------|
--------------------------------------------------------|
--------------------------------------------------------|
-------------10-10-10-9-9-9--------------10-10-10-9-9-9-|
-0-0-0-0-0-0-0--0--0--0-0-0--0-0-0-0-0-0-0--0--0--0-0-0-|

            afternoon     I              had   to
--------------------------------------------------------|
--------------------------------------------------------|
--------------------------------------------------------|
--------------------------------------------------------|
-------------10-10-10-9-9-9--------------10-10-10-9-9-9-|
-0-0-0-0-0-0-0--0--0--0-0-0--0-0-0-0-0-0-0--0--0--0-0-0-|


 ask       or      dare          I            ever        know
--------------------------------------------------------------------------------|
-11-11-11-11-11-11-11-11-11-11-11-11---11-11-11-11-11-11-9--9--9--9--9--9--9--9-|
-9--9--9--9--9--9--9--9--9--9--9--9----9--9--9--9--9--9--7--7--7--7--7--7--7--7-|
-9--9--9--9--9--9--9--9--9--9--9--9----10-10-10-9--9--9--7--7--7--7--7--7--7--7-|
-9--9--9--9--9--9--9--9--9--9--9--9----9--9--9--9--9--9--7--7--7--7--7--7--7--7-|

                tell us
------------------------|
-9--9--9--9--9--9--9--9-|
-7--7--7--7--7--7--7--7-|
-7--7--7--7--7--7--7--7-|
-7--7--7--7--7--7--7--7-|

             we      are                demented
--------------------------------------------------------|
--------------------------------------------------------|
--------------------------------------------------------|
--------------------------------------------------------|
-------------10-10-10-9-9-9--------------10-10-10-9-9-9-|
-0-0-0-0-0-0-0--0--0--0-0-0--0-0-0-0-0-0-0--0--0--0-0-0-|

            watch    as                   atention
--------------------------------------------------------|
--------------------------------------------------------|
--------------------------------------------------------|
--------------------------------------------------------|
-------------10-10-10-9-9-9--------------10-10-10-9-9-9-|
-0-0-0-0-0-0-0--0--0--0-0-0--0-0-0-0-0-0-0--0--0--0-0-0-|

    span          hold so fast                  then goes up
-------------------------------------------------------------------------|
-11-11-11-11-11-11-11-11-11-11-11-11--9--9--9--9--9--9--9--9--9--9--9--9-|
-9--9--9--9--9--9--9--9--9--9--9--9---7--7--7--7--7--7--7--7--7--7--7--7-|
-9--9--9--9--9--9--9--9--9--9--9--9---7--7--7--7--7--7--7--7--7--7--7--7-|
-9--9--9--9--9--9--9--9--9--9--9--9---7--7--7--7--7--7--7--7--7--7--7--7-|

  in smoke
----------------[
----------------[
-9--9--9--9-9-9-[
-7--7--7--7-7-7-[
-10-10-10-9-9-9-[
-7--7--7--7-7-7-[

chorus

  I don't think your nervous  enough
------------------------------------------|
-3-3-3-3-3-3-3-3-3-3----------------------|
-2-2-2-2-2-2-2-2-2-2--4-4-4-4-4-4-4-4-4-4-|
-0-0-0-0-0-0-0-0-0-0--2-2-2-2-2-2-2-2-2-2-|
-0-0-0-0-0-0-0-0-0-0--2-2-2-2-2-2-2-2-2-2-|
-0-0-0-0-0-0-0-0-0-0--2-2-2-2-2-2-2-2-2-2-|

    it happened to show it's own face        search for the soul
-----------------------------------------------------------------|
-----------------------------------------------------------------|
----7-7-7-7-7-7-7-7-7-7--7-7-7-7-7-7-7-7--2-4-4-4-4-4-4-4-4-4-4--|
----5-5-5-5-5-5-5-5-5-5--7-7-7-7-7-7-7-7--2-4-4-4-4-4-4-4-4-4-4--|
----5-5-5-5-5-5-5-5-5-5--5-5-5-5-5-5-5-5--0-2-2-2-2-2-2-2-2-2-2--|
----5-5-5-5-5-5-5-5-5-5------------------------------------------|

 less ends            and point him toward     rest
------------------------------------------------------------------------------------[
------------------------------------------------------------------------------------[
-7-7-7-7-7-7-7-7-7-7--7-7-7-7-7-7-7-7-7-7--5-5-5-5-5-5-5-5-5-5-5-5-5-5-5-5-5-5-5-5--[
-5-5-5-5-5-5-5-5-5-5--7-7-7-7-7-7-7-7-7-7--5-5-5-5-5-5-5-5-5-5-5-5-5-5-5-5-5-5-5-5--[
-5-5-5-5-5-5-5-5-5-5--5-5-5-5-5-5-5-5-5-5--3-3-3-3-3-3-3-3-3-3-3-3-3-3-3-3-3-3-3-3--[
-5-5-5-5-5-5-5-5-5-5----------------------------------------------------------------[

verse

                 culprits                    shudder
--------------------------------------------------------|
--------------------------------------------------------|
--------------------------------------------------------|
--------------------------------------------------------|
-------------10-10-10-9-9-9--------------10-10-10-9-9-9-|
-0-0-0-0-0-0-0--0--0--0-0-0--0-0-0-0-0-0-0--0--0--0-0-0-|

            apparitions                    left   in
--------------------------------------------------------|
--------------------------------------------------------|
--------------------------------------------------------|
--------------------------------------------------------|
-------------10-10-10-9-9-9--------------10-10-10-9-9-9-|
-0-0-0-0-0-0-0--0--0--0-0-0--0-0-0-0-0-0-0--0--0--0-0-0-|


  time  if we're honest                 sight  unknown
--------------------------------------------------------------------------------|
-11-11-11-11-11-11-11-11-11-11-11-11---11-11-11-11-11-11-9--9--9--9--9--9--9--9-|
-9--9--9--9--9--9--9--9--9--9--9--9----9--9--9--9--9--9--7--7--7--7--7--7--7--7-|
-9--9--9--9--9--9--9--9--9--9--9--9----10-10-10-9--9--9--7--7--7--7--7--7--7--7-|
-9--9--9--9--9--9--9--9--9--9--9--9----9--9--9--9--9--9--7--7--7--7--7--7--7--7-|

                crowing
------------------------|
-9--9--9--9--9--9--9--9-|
-7--7--7--7--7--7--7--7-|
-7--7--7--7--7--7--7--7-|
-7--7--7--7--7--7--7--7-|

                  frozen                      bedroom
--------------------------------------------------------|
--------------------------------------------------------|
--------------------------------------------------------|
--------------------------------------------------------|
-------------10-10-10-9-9-9--------------10-10-10-9-9-9-|
-0-0-0-0-0-0-0--0--0--0-0-0--0-0-0-0-0-0-0--0--0--0-0-0-|

              awoke up certain             lays   a
--------------------------------------------------------|
--------------------------------------------------------|
--------------------------------------------------------|
--------------------------------------------------------|
-------------10-10-10-9-9-9--------------10-10-10-9-9-9-|
-0-0-0-0-0-0-0--0--0--0-0-0--0-0-0-0-0-0-0--0--0--0-0-0-|

    tomb          her tree holds it                  unbeknownst
-------------------------------------------------------------------------|
-11-11-11-11-11-11-11-11-11-11-11-11--9--9--9--9--9--9--9--9--9--9--9--9-|
-9--9--9--9--9--9--9--9--9--9--9--9---7--7--7--7--7--7--7--7--7--7--7--7-|
-9--9--9--9--9--9--9--9--9--9--9--9---7--7--7--7--7--7--7--7--7--7--7--7-|
-9--9--9--9--9--9--9--9--9--9--9--9---7--7--7--7--7--7--7--7--7--7--7--7-|

still sending chills
----------------[
----------------[
-9--9--9--9-9-9-[
-7--7--7--7-7-7-[
-10-10-10-9-9-9-[
-7--7--7--7-7-7-[

chorus

  I don't think your nervous  enough
------------------------------------------|
-3-3-3-3-3-3-3-3-3-3----------------------|
-2-2-2-2-2-2-2-2-2-2--4-4-4-4-4-4-4-4-4-4-|
-0-0-0-0-0-0-0-0-0-0--2-2-2-2-2-2-2-2-2-2-|
-0-0-0-0-0-0-0-0-0-0--2-2-2-2-2-2-2-2-2-2-|
-0-0-0-0-0-0-0-0-0-0--2-2-2-2-2-2-2-2-2-2-|

    it happened to show it's own face        search for the soul
-----------------------------------------------------------------|
-----------------------------------------------------------------|
----7-7-7-7-7-7-7-7-7-7--7-7-7-7-7-7-7-7--2-4-4-4-4-4-4-4-4-4-4--|
----5-5-5-5-5-5-5-5-5-5--7-7-7-7-7-7-7-7--2-4-4-4-4-4-4-4-4-4-4--|
----5-5-5-5-5-5-5-5-5-5--5-5-5-5-5-5-5-5--0-2-2-2-2-2-2-2-2-2-2--|
----5-5-5-5-5-5-5-5-5-5------------------------------------------|

 less ends            and point him toward     rest
------------------------------------------------------------------------------------[
------------------------------------------------------------------------------------[
-7-7-7-7-7-7-7-7-7-7--7-7-7-7-7-7-7-7-7-7--5-5-5-5-5-5-5-5-5-5-5-5-5-5-5-5-5-5-5-5--[
-5-5-5-5-5-5-5-5-5-5--7-7-7-7-7-7-7-7-7-7--5-5-5-5-5-5-5-5-5-5-5-5-5-5-5-5-5-5-5-5--[
-5-5-5-5-5-5-5-5-5-5--5-5-5-5-5-5-5-5-5-5--3-3-3-3-3-3-3-3-3-3-3-3-3-3-3-3-3-3-3-3--[
-5-5-5-5-5-5-5-5-5-5----------------------------------------------------------------[

interlude

     oooooohhhhh
-------------------------------------------------------------[
-------------------------------------------------------------[
-4-4-4-4-4-4-4-4-4-4-4-4-4-4-4-4-4-4-4-4-2-2-2-2-2-2-2-2-2-2-[
-4-4-4-4-4-4-4-4-4-4-4-4-4-4-4-4-4-4-4-4-2-2-2-2-2-2-2-2-2-2-[
-2-2-2-2-2-2-2-2-2-2-2-2-2-2-2-2-2-2-2-2-0-0-0-0-0-0-0-0-0-0-[
-------------------------------------------------------------[

                                                 you won't
[-------------------------------------------------------------|
[-------------------------------------------------------------|
[-------0----------0-------------0----------0-----------------|
[---4-----4----4-----4--------4-----4----4-----4--------------|
[-2---2------0---0-----2----2---2------0---0------------------|
[-------------------------------------------------2---2-2-2-2-|


 find me curling up      a place that should make sense well
------------------------------------------------------------[
------------------------------------------------------------[
-------0----------0-------------0----------0----------------[
---4-----4----4-----4--------4-----4----4-----4-------4-4-0-[
-2---2------0---0-----2----2---2------0---0-----------2-2-0-[
-------------------------------------------------2--2-2-2-0-[

 excuse me  for this better   judgement night is  so worth  waiting  for
----------------------------------------------------------------------------|
----------------------------------------------------------------------------|
-4---4---4--7--7--7--2--2--2--9--9--9----4--4--4--7--7--7--2--2--2--4--4--4-|
-4---4---4--7--7--7--2--2--2--9--9--9----4--4--4--7--7--7--2--2--2--2--2--2-|
-2---2---2--5--5--5--0--0--0--7--7--7----2--2--2--5--5--5--0--0--0--2--2--2-|
--------------------------------------------------------------------2--2--2-|

 a blinding scare so cauterizing         arms out pointing sit and stare at this
----------------------------------------------------------------------------|
----------------------------------------------------------------------------|
-4---4---4--7--7--7--2--2--2--9--9--9----4--4--4--7--7--7--2--2--2--4--4--4-|
-4---4---4--7--7--7--2--2--2--9--9--9----4--4--4--7--7--7--2--2--2--2--2--2-|
-2---2---2--5--5--5--0--0--0--7--7--7----2--2--2--5--5--5--0--0--0--2--2--2-|
--------------------------------------------------------------------2--2--2-|

 proof                                   this living proof
----------------------------------------------------------------------------|
----------------------------------------------------------------------------|
-4---4---4--7--7--7--2--2--2--9--9--9----4--4--4--7--7--7--2--2--2--4--4--4-|
-4---4---4--7--7--7--2--2--2--9--9--9----4--4--4--7--7--7--2--2--2--2--2--2-|
-2---2---2--5--5--5--0--0--0--7--7--7----2--2--2--5--5--5--0--0--0--2--2--2-|
--------------------------------------------------------------------2--2--2-|

 this proof                              this living proof
--------------------------------------------------------------------------------------[
--------------------------------------------------------------------------------------[
-4---4---4--7--7--7--2--2--2--9--9--9----4--4--4--7--7--7--2--2--2--4--4--4-4-4-4-4-4-[
-4---4---4--7--7--7--2--2--2--9--9--9----4--4--4--7--7--7--2--2--2--2--2--2-2-2-2-2-2-[
-2---2---2--5--5--5--0--0--0--7--7--7----2--2--2--5--5--5--0--0--0--2--2--2-2-2-2-2-2-[
--------------------------------------------------------------------2--2--2-2-2-2-2-2-[

verse

              suns    up                 braver
--------------------------------------------------------|
--------------------------------------------------------|
--------------------------------------------------------|
--------------------------------------------------------|
-------------10-10-10-9-9-9--------------10-10-10-9-9-9-|
-0-0-0-0-0-0-0--0--0--0-0-0--0-0-0-0-0-0-0--0--0--0-0-0-|

              hands and legs             untouched
--------------------------------------------------------|
--------------------------------------------------------|
--------------------------------------------------------|
--------------------------------------------------------|
-------------10-10-10-9-9-9--------------10-10-10-9-9-9-|
-0-0-0-0-0-0-0--0--0--0-0-0--0-0-0-0-0-0-0--0--0--0-0-0-|

    before                 we forget                        save this
-------------------------------------------------------------------------|
-11-11-11-11-11-11-11-11-11-11-11-11--9--9--9--9--9--9--9--9--9--9--9--9-|
-9--9--9--9--9--9--9--9--9--9--9--9---7--7--7--7--7--7--7--7--7--7--7--7-|
-9--9--9--9--9--9--9--9--9--9--9--9---7--7--7--7--7--7--7--7--7--7--7--7-|
-9--9--9--9--9--9--9--9--9--9--9--9---7--7--7--7--7--7--7--7--7--7--7--7-|

unaging proof
----------------[
----------------[
-9--9--9--9-9-9-[
-7--7--7--7-7-7-[
-10-10-10-9-9-9-[
-7--7--7--7-7-7-[


chorus

  I don't think your nervous  enough
------------------------------------------|
-3-3-3-3-3-3-3-3-3-3----------------------|
-2-2-2-2-2-2-2-2-2-2--4-4-4-4-4-4-4-4-4-4-|
-0-0-0-0-0-0-0-0-0-0--2-2-2-2-2-2-2-2-2-2-|
-0-0-0-0-0-0-0-0-0-0--2-2-2-2-2-2-2-2-2-2-|
-0-0-0-0-0-0-0-0-0-0--2-2-2-2-2-2-2-2-2-2-|

    it happened to show it's own face        search for the soul
-----------------------------------------------------------------|
-----------------------------------------------------------------|
----7-7-7-7-7-7-7-7-7-7--7-7-7-7-7-7-7-7--2-4-4-4-4-4-4-4-4-4-4--|
----5-5-5-5-5-5-5-5-5-5--7-7-7-7-7-7-7-7--2-4-4-4-4-4-4-4-4-4-4--|
----5-5-5-5-5-5-5-5-5-5--5-5-5-5-5-5-5-5--0-2-2-2-2-2-2-2-2-2-2--|
----5-5-5-5-5-5-5-5-5-5------------------------------------------|

 less ends            and point him toward
------------------------------------------------------------------------------------[
------------------------------------------------------------------------------------[
-7-7-7-7-7-7-7-7-7-7--7-7-7-7-7-7-7-7-7-7--5-5-5-5-5-5-5-5-5-5-5-5-5-5-5-5-5-5-5-5--[
-5-5-5-5-5-5-5-5-5-5--7-7-7-7-7-7-7-7-7-7--5-5-5-5-5-5-5-5-5-5-5-5-5-5-5-5-5-5-5-5--[
-5-5-5-5-5-5-5-5-5-5--5-5-5-5-5-5-5-5-5-5--3-3-3-3-3-3-3-3-3-3-3-3-3-3-3-3-3-3-3-3--[
-5-5-5-5-5-5-5-5-5-5----------------------------------------------------------------[

------------------------------------------|
------------------------------------------|
-4-4-4-4-4-4-4-4-4-4--2-2-2-2-2-2-2-2-2-2-|
-2-2-2-2-2-2-2-2-2-2--2-2-2-2-2-2-2-2-2-2-|
-2-2-2-2-2-2-2-2-2-2--0-0-0-0-0-0-0-0-0-0-|
-2-2-2-2-2-2-2-2-2-2----------------------|

  I don't think your nervous  enough
------------------------------------------|
-3-3-3-3-3-3-3-3-3-3----------------------|
-2-2-2-2-2-2-2-2-2-2--4-4-4-4-4-4-4-4-4-4-|
-0-0-0-0-0-0-0-0-0-0--2-2-2-2-2-2-2-2-2-2-|
-0-0-0-0-0-0-0-0-0-0--2-2-2-2-2-2-2-2-2-2-|
-0-0-0-0-0-0-0-0-0-0--2-2-2-2-2-2-2-2-2-2-|

    it happened to show it's own face        search for the soul
-----------------------------------------------------------------|
-----------------------------------------------------------------|
----7-7-7-7-7-7-7-7-7-7--7-7-7-7-7-7-7-7--2-4-4-4-4-4-4-4-4-4-4--|
----5-5-5-5-5-5-5-5-5-5--7-7-7-7-7-7-7-7--2-4-4-4-4-4-4-4-4-4-4--|
----5-5-5-5-5-5-5-5-5-5--5-5-5-5-5-5-5-5--0-2-2-2-2-2-2-2-2-2-2--|
----5-5-5-5-5-5-5-5-5-5------------------------------------------|

 less ends            and point him toward     rest
------------------------------------------------------------------------------------[
------------------------------------------------------------------------------------[
-7-7-7-7-7-7-7-7-7-7--7-7-7-7-7-7-7-7-7-7--5-5-5-5-5-5-5-5-5-5-5-5-5-5-5-5-5-5-5-5--[
-5-5-5-5-5-5-5-5-5-5--7-7-7-7-7-7-7-7-7-7--5-5-5-5-5-5-5-5-5-5-5-5-5-5-5-5-5-5-5-5--[
-5-5-5-5-5-5-5-5-5-5--5-5-5-5-5-5-5-5-5-5--3-3-3-3-3-3-3-3-3-3-3-3-3-3-3-3-3-3-3-3--[
-5-5-5-5-5-5-5-5-5-5----------------------------------------------------------------[

outro
                                                           ooh
----------------------------------------------------------------------------------[
----------------------------------------------------------------------------------[
-4-4-4-4-4-4-4-4-4-4-4-4-4-4-4-4-4-4-4-4--2-2-2-2-2-2-2-2-2-2-2-2-2-2-2-2-2-2-2-2-[
-4-4-4-4-4-4-4-4-4-4-4-4-4-4-4-4-4-4-4-4--2-2-2-2-2-2-2-2-2-2-2-2-2-2-2-2-2-2-2-2-[
-2-2-2-2-2-2-2-2-2-2-2-2-2-2-2-2-2-2-2-2--0-0-0-0-0-0-0-0-0-0-0-0-0-0-0-0-0-0-0-0-[
----------------------------------------------------------------------------------[

---------------------[
---------------------[
-2-2-2-2-2-2-2-2-----[
-0-0-0-0-0-0-0-0-----[
---------------------[
---------------------[

_________________________________8.Roswell's Spell_______________________________________________


drop b

verse

(2's played fast, sounds like 1 note)

Life, It’s always overblown
--------------------------------------------------------------------------5-5-5-5-5-|
--------------------------------5-5-5-5-5---------------------------------5-5-5-5-5-|
--------------------------------4-4-4-4-4---------------------------------2-2-2-2-2-|
-2-2-2-2--2-2-2-2--2-2-2-2--x-2-2-2-2-2-2--2-2-2-2--2-2-2-2--2-2-2-2--x-2-----------|
-2-2-2-2--2-2-2-2--2-2-2-2--x-2------------2-2-2-2--2-2-2-2--2-2-2-2--x-2-----------|
-2-2-2-2--2-2-2-2--2-2-2-2--x-2------------2-2-2-2--2-2-2-2--2-2-2-2--x-2-----------|

Till we wake up create some other needs
--------------------------------------------------------------------------5-5-5-5-5-|
--------------------------------5-5-5-5-5---------------------------------5-5-5-5-5-|
--------------------------------4-4-4-4-4---------------------------------2-2-2-2-2-|
-2-2-2-2--2-2-2-2--2-2-2-2--x-2-2-2-2-2-2--2-2-2-2--2-2-2-2--2-2-2-2--x-2-----------|
-2-2-2-2--2-2-2-2--2-2-2-2--x-2------------2-2-2-2--2-2-2-2--2-2-2-2--x-2-----------|
-2-2-2-2--2-2-2-2--2-2-2-2--x-2------------2-2-2-2--2-2-2-2--2-2-2-2--x-2-----------|

yeah well, cries, heard from man that knows
--------------------------------------------------------------------------5-5-5-5-5-|
--------------------------------5-5-5-5-5---------------------------------5-5-5-5-5-|
--------------------------------4-4-4-4-4---------------------------------2-2-2-2-2-|
-2-2-2-2--2-2-2-2--2-2-2-2--x-2-2-2-2-2-2--2-2-2-2--2-2-2-2--2-2-2-2--x-2-----------|
-2-2-2-2--2-2-2-2--2-2-2-2--x-2------------2-2-2-2--2-2-2-2--2-2-2-2--x-2-----------|
-2-2-2-2--2-2-2-2--2-2-2-2--x-2------------2-2-2-2--2-2-2-2--2-2-2-2--x-2-----------|

Let to witness, the cat upon a ledge
--------------------------------------------------------------------------5-5-5-5-5-|
--------------------------------5-5-5-5-5---------------------------------5-5-5-5-5-|
--------------------------------4-4-4-4-4---------------------------------2-2-2-2-2-|
-2-2-2-2--2-2-2-2--2-2-2-2--x-2-2-2-2-2-2--2-2-2-2--2-2-2-2--2-2-2-2--x-2-----------|
-2-2-2-2--2-2-2-2--2-2-2-2--x-2------------2-2-2-2--2-2-2-2--2-2-2-2--x-2-----------|
-2-2-2-2--2-2-2-2--2-2-2-2--x-2------------2-2-2-2--2-2-2-2--2-2-2-2--x-2-----------|

Heats source rained down dyad Scout craft
--------------------------------------------------------------------------5-5-5-5-5-|
--------------------------------5-5-5-5-5---------------------------------5-5-5-5-5-|
--------------------------------4-4-4-4-4---------------------------------2-2-2-2-2-|
-2-2-2-2--2-2-2-2--2-2-2-2--x-2-2-2-2-2-2--2-2-2-2--2-2-2-2--2-2-2-2--x-2-----------|
-2-2-2-2--2-2-2-2--2-2-2-2--x-2------------2-2-2-2--2-2-2-2--2-2-2-2--x-2-----------|
-2-2-2-2--2-2-2-2--2-2-2-2--x-2------------2-2-2-2--2-2-2-2--2-2-2-2--x-2-----------|

Hands reveal a meeting, but did they come?
--------------------------------------------------------------------------5-5-5-5-5-|
--------------------------------5-5-5-5-5---------------------------------5-5-5-5-5-|
--------------------------------4-4-4-4-4---------------------------------2-2-2-2-2-|
-2-2-2-2--2-2-2-2--2-2-2-2--x-2-2-2-2-2-2--2-2-2-2--2-2-2-2--2-2-2-2--x-2-----------|
-2-2-2-2--2-2-2-2--2-2-2-2--x-2------------2-2-2-2--2-2-2-2--2-2-2-2--x-2-----------|
-2-2-2-2--2-2-2-2--2-2-2-2--x-2------------2-2-2-2--2-2-2-2--2-2-2-2--x-2-----------|

prechorus

So I look at the eyes, straight to the soul doorway
I look at the eyes, to know all you know
-12----------------12----------------12-----------------------|
----12-----------------12---------------12-----------------12-|
-------12----12-----------12----12---------12----12-----12----|
----------14-----------------14---------------14-----12-------|
--------------------------------------------------------------|
--------------------------------------------------------------|

verse

Find an other labeled hoaxes
--------------------------------------------------------------------------5-5-5-5-5-|
--------------------------------5-5-5-5-5---------------------------------5-5-5-5-5-|
--------------------------------4-4-4-4-4---------------------------------2-2-2-2-2-|
-2-2-2-2--2-2-2-2--2-2-2-2--x-2-2-2-2-2-2--2-2-2-2--2-2-2-2--2-2-2-2--x-2-----------|
-2-2-2-2--2-2-2-2--2-2-2-2--x-2------------2-2-2-2--2-2-2-2--2-2-2-2--x-2-----------|
-2-2-2-2--2-2-2-2--2-2-2-2--x-2------------2-2-2-2--2-2-2-2--2-2-2-2--x-2-----------|

Just as Roswell found another link
--------------------------------------------------------------------------5-5-5-5-5-|
--------------------------------5-5-5-5-5---------------------------------5-5-5-5-5-|
--------------------------------4-4-4-4-4---------------------------------2-2-2-2-2-|
-2-2-2-2--2-2-2-2--2-2-2-2--x-2-2-2-2-2-2--2-2-2-2--2-2-2-2--2-2-2-2--x-2-----------|
-2-2-2-2--2-2-2-2--2-2-2-2--x-2------------2-2-2-2--2-2-2-2--2-2-2-2--x-2-----------|
-2-2-2-2--2-2-2-2--2-2-2-2--x-2------------2-2-2-2--2-2-2-2--2-2-2-2--x-2-----------|

Reform witness, night abductions
--------------------------------------------------------------------------5-5-5-5-5-|
--------------------------------5-5-5-5-5---------------------------------5-5-5-5-5-|
--------------------------------4-4-4-4-4---------------------------------2-2-2-2-2-|
-2-2-2-2--2-2-2-2--2-2-2-2--x-2-2-2-2-2-2--2-2-2-2--2-2-2-2--2-2-2-2--x-2-----------|
-2-2-2-2--2-2-2-2--2-2-2-2--x-2------------2-2-2-2--2-2-2-2--2-2-2-2--x-2-----------|
-2-2-2-2--2-2-2-2--2-2-2-2--x-2------------2-2-2-2--2-2-2-2--2-2-2-2--x-2-----------|

You always felt a meaning, but did they come?
--------------------------------------------------------------------------5-5-5-5-5-|
--------------------------------5-5-5-5-5---------------------------------5-5-5-5-5-|
--------------------------------4-4-4-4-4---------------------------------2-2-2-2-2-|
-2-2-2-2--2-2-2-2--2-2-2-2--x-2-2-2-2-2-2--2-2-2-2--2-2-2-2--2-2-2-2--x-2-----------|
-2-2-2-2--2-2-2-2--2-2-2-2--x-2------------2-2-2-2--2-2-2-2--2-2-2-2--x-2-----------|
-2-2-2-2--2-2-2-2--2-2-2-2--x-2------------2-2-2-2--2-2-2-2--2-2-2-2--x-2-----------|

Heats source rained down dyad Scout craft
--------------------------------------------------------------------------5-5-5-5-5-|
--------------------------------5-5-5-5-5---------------------------------5-5-5-5-5-|
--------------------------------4-4-4-4-4---------------------------------2-2-2-2-2-|
-2-2-2-2--2-2-2-2--2-2-2-2--x-2-2-2-2-2-2--2-2-2-2--2-2-2-2--2-2-2-2--x-2-----------|
-2-2-2-2--2-2-2-2--2-2-2-2--x-2------------2-2-2-2--2-2-2-2--2-2-2-2--x-2-----------|
-2-2-2-2--2-2-2-2--2-2-2-2--x-2------------2-2-2-2--2-2-2-2--2-2-2-2--x-2-----------|

prechorus

So I look at the eyes, straight to the soul doorway
I look at the eyes, to know all you know
-12----------------12----------------12-----------------------|
----12-----------------12---------------12-----------------12-|
-------12----12-----------12----12---------12----12-----12----|
----------14-----------------14---------------14-----12-------|
--------------------------------------------------------------|
--------------------------------------------------------------|


chorus

And there’s a why I’m burning out inside
---------------------------------------------------------------|
---------------------------------------------------------------|
-9-9-9-9-9-9-9-9-9-9-9-9-9-9-9-9-9-5-5-5-5-5-5-----------------|
-9-9-9-9-9-9-9-9-9-9-9-9-9-9-9-9-9-5-5-5-5-5-5-7-7-7-7-7-7-7-7-|
-7-7-7-7-7-7-7-7-7-7-7-7-7-7-7-7-7-3-3-3-3-3-3-7-7-7-7-7-7-7-7-|
-----------------------------------------------7-7-7-7-7-7-7-7-|

With a need to know
-------------------------------------------------------------------|
-------------------------------------------------------------------|
-9-9-9-9-9-9-9-9-9-9-9-9-9-9-9-9-----------------------------------|
-9-9-9-9-9-9-9-9-9-9-9-9-9-9-9-9-10-10-10-10-10-10-5-5-5-5-5-5-5-5-|
-7-7-7-7-7-7-7-7-7-7-7-7-7-7-7-7-10-10-10-10-10-10-5-5-5-5-5-5-5-5-|
---------------------------------10-10-10-10-10-10-5-5-5-5-5-5-5-5-|

One self, Well I’m burning out inside
---------------------------------------------------------------|
---------------------------------------------------------------|
-9-9-9-9-9-9-9-9-9-9-9-9-9-9-9-9-9-5-5-5-5-5-5-----------------|
-9-9-9-9-9-9-9-9-9-9-9-9-9-9-9-9-9-5-5-5-5-5-5-7-7-7-7-7-7-7-7-|
-7-7-7-7-7-7-7-7-7-7-7-7-7-7-7-7-7-3-3-3-3-3-3-7-7-7-7-7-7-7-7-|
-----------------------------------------------7-7-7-7-7-7-7-7-|

With a need to know
-------------------------------------------------------------------|
-------------------------------------------------------------------|
-9-9-9-9-9-9-9-9-9-9-9-9-9-9-9-9-----------------------------------|
-9-9-9-9-9-9-9-9-9-9-9-9-9-9-9-9-10-10-10-10-10-10-5-5-5-5-5-5-5-5-|
-7-7-7-7-7-7-7-7-7-7-7-7-7-7-7-7-10-10-10-10-10-10-5-5-5-5-5-5-5-5-|
---------------------------------10-10-10-10-10-10-5-5-5-5-5-5-5-5-|

post chorus

Does anybody really see anything?
Does anybody really see anyone?
-----------------------[
-----------------------[
-9----------9----------[
-9-10--5-9--9--10-5-9--[
-7-10--5-9--7--10-5-9--[
---10--5-9-----10-5-9--[

interlude


----------------------------[
-------5*---5*-5*~~~~~~~----[
----5*----------------------[
-5*-------------------------[
----------------------------[
----------------------------[


------------------------------------------------------------------------------|
------------------------------------------------------------------------------|
------------------------------------------------------------------------------|
-2-0-2-5-2-0-2-0-2-5-2-0---2-0-2-5-2-0-2-0-2-5-2-0---2-0-2-5-2-0-2-0-2-5-2-0--|
-2-0-2-5-2-0-2-0-2-5-2-0---2-0-2-5-2-0-2-0-2-5-2-0---2-0-2-5-2-0-2-0-2-5-2-0--|
-2-0-2-5-2-0-2-0-2-5-2-0---2-0-2-5-2-0-2-0-2-5-2-0---2-0-2-5-2-0-2-0-2-5-2-0--|
               ____pm___                 ____pm___                 ____pm____

--------------------------|
--------------------------|
--------------------------|
-2-0-2-5-2-0-2-0-2-5-2-0--|
-2-0-2-5-2-0-2-0-2-5-2-0--|
-2-0-2-5-2-0-2-0-2-5-2-0--|
               ____pm____

LIGHTS TWO MILES WIDE
--------------------------5*------------------------------------------------5*---------------------|
--------------------------5*------------------------------------------------5*---------------------|
-9-9-9--------------------5*--7-7-7--5-5-5---------9-9-9--------------------5*--7-7-7--5-5-5-------|
-9-9-9--10-10-10--5-5-5-0-----7-7-7--5-5-5--5-5-5--9-9-9--10-10-10--5-5-5-0-----7-7-7--5-5-5--5-5-5|
-7-7-7--10-10-10--5-5-5-0-----5-5-5--3-3-3--5-5-5--7-7-7--10-10-10--5-5-5-0-----5-5-5--3-3-3--5-5-5|
--------10-10-10--5-5-5-0-------------------5-5-5---------10-10-10--5-5-5-0-------------------5-5-5|

Felt it lift, Felt it pull
--------------------------5*------------------------------------------------5*---------------------|
--------------------------5*------------------------------------------------5*---------------------|
-9-9-9--------------------5*--7-7-7--5-5-5---------9-9-9--------------------5*--7-7-7--5-5-5-------|
-9-9-9--10-10-10--5-5-5-0-----7-7-7--5-5-5--5-5-5--9-9-9--10-10-10--5-5-5-0-----7-7-7--5-5-5--5-5-5|
-7-7-7--10-10-10--5-5-5-0-----5-5-5--3-3-3--5-5-5--7-7-7--10-10-10--5-5-5-0-----5-5-5--3-3-3--5-5-5|
--------10-10-10--5-5-5-0-------------------5-5-5---------10-10-10--5-5-5-0-------------------5-5-5|

chorus

And there’s a why I’m burning out inside
---------------------------------------------------------------|
---------------------------------------------------------------|
-9-9-9-9-9-9-9-9-9-9-9-9-9-9-9-9-9-5-5-5-5-5-5-----------------|
-9-9-9-9-9-9-9-9-9-9-9-9-9-9-9-9-9-5-5-5-5-5-5-7-7-7-7-7-7-7-7-|
-7-7-7-7-7-7-7-7-7-7-7-7-7-7-7-7-7-3-3-3-3-3-3-7-7-7-7-7-7-7-7-|
-----------------------------------------------7-7-7-7-7-7-7-7-|

With a need to know
-------------------------------------------------------------------|
-------------------------------------------------------------------|
-9-9-9-9-9-9-9-9-9-9-9-9-9-9-9-9-----------------------------------|
-9-9-9-9-9-9-9-9-9-9-9-9-9-9-9-9-10-10-10-10-10-10-5-5-5-5-5-5-5-5-|
-7-7-7-7-7-7-7-7-7-7-7-7-7-7-7-7-10-10-10-10-10-10-5-5-5-5-5-5-5-5-|
---------------------------------10-10-10-10-10-10-5-5-5-5-5-5-5-5-|

One self, Well I’m burning out inside
---------------------------------------------------------------|
---------------------------------------------------------------|
-9-9-9-9-9-9-9-9-9-9-9-9-9-9-9-9-9-5-5-5-5-5-5-----------------|
-9-9-9-9-9-9-9-9-9-9-9-9-9-9-9-9-9-5-5-5-5-5-5-7-7-7-7-7-7-7-7-|
-7-7-7-7-7-7-7-7-7-7-7-7-7-7-7-7-7-3-3-3-3-3-3-7-7-7-7-7-7-7-7-|
-----------------------------------------------7-7-7-7-7-7-7-7-|

With a need to know
-------------------------------------------------------------------|
-------------------------------------------------------------------|
-9-9-9-9-9-9-9-9-9-9-9-9-9-9-9-9-----------------------------------|
-9-9-9-9-9-9-9-9-9-9-9-9-9-9-9-9-10-10-10-10-10-10-5-5-5-5-5-5-5-5-|
-7-7-7-7-7-7-7-7-7-7-7-7-7-7-7-7-10-10-10-10-10-10-5-5-5-5-5-5-5-5-|
---------------------------------10-10-10-10-10-10-5-5-5-5-5-5-5-5-|

And there’s a why I’m burning out inside
---------------------------------------------------------------|
---------------------------------------------------------------|
-9-9-9-9-9-9-9-9-9-9-9-9-9-9-9-9-9-5-5-5-5-5-5-----------------|
-9-9-9-9-9-9-9-9-9-9-9-9-9-9-9-9-9-5-5-5-5-5-5-7-7-7-7-7-7-7-7-|
-7-7-7-7-7-7-7-7-7-7-7-7-7-7-7-7-7-3-3-3-3-3-3-7-7-7-7-7-7-7-7-|
-----------------------------------------------7-7-7-7-7-7-7-7-|

With a need to know
-------------------------------------------------------------------|
-------------------------------------------------------------------|
-9-9-9-9-9-9-9-9-9-9-9-9-9-9-9-9-----------------------------------|
-9-9-9-9-9-9-9-9-9-9-9-9-9-9-9-9-10-10-10-10-10-10-5-5-5-5-5-5-5-5-|
-7-7-7-7-7-7-7-7-7-7-7-7-7-7-7-7-10-10-10-10-10-10-5-5-5-5-5-5-5-5-|
---------------------------------10-10-10-10-10-10-5-5-5-5-5-5-5-5-|

One self, Well I’m burning out inside
---------------------------------------------------------------|
---------------------------------------------------------------|
-9-9-9-9-9-9-9-9-9-9-9-9-9-9-9-9-9-5-5-5-5-5-5-----------------|
-9-9-9-9-9-9-9-9-9-9-9-9-9-9-9-9-9-5-5-5-5-5-5-7-7-7-7-7-7-7-7-|
-7-7-7-7-7-7-7-7-7-7-7-7-7-7-7-7-7-3-3-3-3-3-3-7-7-7-7-7-7-7-7-|
-----------------------------------------------7-7-7-7-7-7-7-7-|

With a need to know
-------------------------------------------------------------------|
-------------------------------------------------------------------|
-9-9-9-9-9-9-9-9-9-9-9-9-9-9-9-9-----------------------------------|
-9-9-9-9-9-9-9-9-9-9-9-9-9-9-9-9-10-10-10-10-10-10-5-5-5-5-5-5-5-5-|
-7-7-7-7-7-7-7-7-7-7-7-7-7-7-7-7-10-10-10-10-10-10-5-5-5-5-5-5-5-5-|
---------------------------------10-10-10-10-10-10-5-5-5-5-5-5-5-5-|

outro

Does anybody really see anything?
Does anybody really see anyone?
-----------------------|
-----------------------|
-9----------9----------|
-9-10--5-9--9--10-5-9--|
-7-10--5-9--7--10-5-9--|
---10--5-9-----10-5-9--|


Does anybody really see anything?
Does anybody really see anyone?
-----------------------[
-----------------------[
-9----------9----------[
-9-10--5-9--9--10-5-9--[
-7-10--5-9--7--10-5-9--[
---10--5-9-----10-5-9--[


_____________________________________9.Interlewd_________________________________________________
if you like this song I'm sorry but I despise this song so I didn't tab it out.
________________________________10.A New Momentum________________________________________________

tuning: Drop c#

intro

-12-12-12-12-12-12-12-12-12-12-12-12-12-12--15-15-15-15-15-15-15-15-15-15-|
--------------------------------------------------------------------------|
-9--9--9--9--9--9--9--9--9--9--9--9--9---9--12-12-12-12-12-12-12-12-12-12-|
--------------------------------------------------------------------------|
--------------------------------------------------------------------------|
--------------------------------------------------------------------------|

-15-15-15-15-12-12-12-12-12-12-12-12-12-12-12-12-12-12-17-17-17-17-17-17-17-|
----------------------------------------------------------------------------|
-12-12-12-12-9--9--9--9--9--9--9--9--9--9--9--9--9--9--14-14-14-14-14-14-14-|
----------------------------------------------------------------------------|
----------------------------------------------------------------------------|
----------------------------------------------------------------------------|

-17-17-17-17-17-17-17-|
----------------------|
-14-14-14-14-14-14-14-|
----------------------|
----------------------|
----------------------|


-12-12-12-12-12-12-12-12-12-12-12-12-12-12--15-15-15-15-15-15-15-15-15-15-|
--------------------------------------------------------------------------|
-9--9--9--9--9--9--9--9--9--9--9--9--9---9--12-12-12-12-12-12-12-12-12-12-|
--------------------------------------------------------------------------|
--------------------------------------------------------------------------|
--------------------------------------------------------------------------|

-15-15-15-15-12-12-12-12-12-12-12-12-12-12-12-12-12-12-17-17-17-17-17-17-17-|
----------------------------------------------------------------------------|
-12-12-12-12-9--9--9--9--9--9--9--9--9--9--9--9--9--9--14-14-14-14-14-14-14-|
----------------------------------------------------------------------------|
----------------------------------------------------------------------------|
----------------------------------------------------------------------------|

-17-17-17-17-17-17-17-|
----------------------|
-14-14-14-14-14-14-14-|
----------------------|
----------------------|
----------------------|

chorus

-----------------------------------------|
-----------------------------------------|
-----------------------------------------|
-2--2-2--7--7-7--0--0-0--5--5-5--0-0-2-0-|
-2--2-2--7--7-7--0--0-0--5--5-5--0-0-2-0-|
-2--2-2--7--7-7--0--0-0--5--5-5--0-0-2-0-|

-----------------------------------------|
-----------------------------------------|
-----------------------------------------|
-2--2-2--7--7-7--0--0-0--5--5-5--0-0-2-0-|
-2--2-2--7--7-7--0--0-0--5--5-5--0-0-2-0-|
-2--2-2--7--7-7--0--0-0--5--5-5--0-0-2-0-|

[-----------------------------------------|
[-----------------------------------------|
[-----------------------------------------|
[-2--2-2--7--7-7--0--0-0--5--5-5--0-0-2-0-|
[-2--2-2--7--7-7--0--0-0--5--5-5--0-0-2-0-|
[-2--2-2--7--7-7--0--0-0--5--5-5--0-0-2-0-|
[
[-----------------------------------------|
[-----------------------------------------|
[-9--9-9--14--14-14--7--7-7--12--12-12----|
[-----------------------------------------|
[-7--7-7--12--12-12--5--5-5--10--10-10----|
[-----------------------------------------|

[-----------------------------------------|
[-----------------------------------------|
[-----------------------------------------|
[-2--2-2--7--7-7--0--0-0--5--5-5--0-0-2-0-|
[-2--2-2--7--7-7--0--0-0--5--5-5--0-0-2-0-|
[-2--2-2--7--7-7--0--0-0--5--5-5--0-0-2-0-|
[
[-----------------------------------------[
[-----------------------------------------[
[-9--9-9--14--14-14--7--7-7--12--12-12----[
[-----------------------------------------[
[-7--7-7--12--12-12--5--5-5--10--10-10----[
[-----------------------------------------[

Verse (clean)

should we ignore
-------------------|
-------------------|
-----------------5-|
-2--2-2--7--7-7--5-|
-2--2-2--7--7-7--3-|
-2--2-2--7--7-7----|

this was too intense
-------------------|
-------------------|
-----------------5-|
-2--2-2--7--7-7--5-|
-2--2-2--7--7-7--3-|
-2--2-2--7--7-7----|

too awful
-------------------|
-------------------|
-----------------5-|
-2--2-2--7--7-7--5-|
-2--2-2--7--7-7--3-|
-2--2-2--7--7-7----|

please stand still
-------------------|
-------------------|
-----------------5-|
-2--2-2--7--7-7--5-|
-2--2-2--7--7-7--3-|
-2--2-2--7--7-7----|

to size them all
-------------------|
-------------------|
-----------------5-|
-2--2-2--7--7-7--5-|
-2--2-2--7--7-7--3-|
-2--2-2--7--7-7----|

his monetary gain equals
-------------------|
-------------------|
-----------------5-|
-2--2-2--7--7-7--5-|
-2--2-2--7--7-7--3-|
-2--2-2--7--7-7----|

his monetary
-------------------|
-------------------|
-----------------5-|
-2--2-2--7--7-7--5-|
-2--2-2--7--7-7--3-|
-2--2-2--7--7-7----|

mind
-------------------[
-------------------[
-----------------5-[
-2--2-2--7--7-7--5-[
-2--2-2--7--7-7--3-[
-2--2-2--7--7-7----[

pre chorus

 even if the saints gave their all  like lions in the face of a growing crowd
----------------------------------------------------------------------------|
----------------------------------------------------------------------------|
----------------------------------------------------------------------------|
-9-9-9-9-9-9-9-9-9-9-9-9-9-9-11-12-0-9-9-9-9-9-9-9-9-9-9-9-9-9-9-11-12-11-2-|
-9-9-9-9-9-9-9-9-9-9-9-9-9-9-11-12-0-9-9-9-9-9-9-9-9-9-9-9-9-9-9-11-12-11-2-|
-9-9-9-9-9-9-9-9-9-9-9-9-9-9-11-12-0-9-9-9-9-9-9-9-9-9-9-9-9-9-9-11-12-11-2-|

to little and to late on the day                  when all
----------------------------------------------------------------|
----------------------------------------------------------------|
----------------------------------------------------------------|
-9-9-9-9-9-9-9-9-9-9-9-9-9-9-11-12-0-x-x--x-x-x-x-9-9-9-9-9-9-9-|
-9-9-9-9-9-9-9-9-9-9-9-9-9-9-11-12-0-x-x--x-x-x-x-9-9-9-9-9-9-9-|
-9-9-9-9-9-9-9-9-9-9-9-9-9-9-11-12-0-x-x--x-x-x-x-9-9-9-9-9-9-9-|

 will fall
--------------------------[
--------------------------[
--------------------------[
-9-9-9-9-9-9-9-11-12-11-2-[
-9-9-9-9-9-9-9-11-12-11-2-[
-9-9-9-9-9-9-9-11-12-11-2-[

chorus

so         drawing           into
-----------------------------------------|
-----------------------------------------|
-----------------------------------------|
-2--2-2--7--7-7--0--0-0--5--5-5--0-0-2-0-|
-2--2-2--7--7-7--0--0-0--5--5-5--0-0-2-0-|
-2--2-2--7--7-7--0--0-0--5--5-5--0-0-2-0-|

one     another     keeps momentum
-----------------------------------------|
-----------------------------------------|
-----------------------------------------|
-2--2-2--7--7-7--0--0-0--5--5-5--0-0-2-0-|
-2--2-2--7--7-7--0--0-0--5--5-5--0-0-2-0-|
-2--2-2--7--7-7--0--0-0--5--5-5--0-0-2-0-|

  driving     forward  like   a
[-----------------------------------------|
[-----------------------------------------|
[-----------------------------------------|
[-2--2-2--7--7-7--0--0-0--5--5-5--0-0-2-0-|
[-2--2-2--7--7-7--0--0-0--5--5-5--0-0-2-0-|
[-2--2-2--7--7-7--0--0-0--5--5-5--0-0-2-0-|
[
[-----------------------------------------|
[-----------------------------------------|
[-9--9-9--14--14-14--7--7-7--12--12-12----|
[-----------------------------------------|
[-7--7-7--12--12-12--5--5-5--10--10-10----|
[-----------------------------------------|

    torching       sun
[-----------------------------------------|
[-----------------------------------------|
[-----------------------------------------|
[-2--2-2--7--7-7--0--0-0--5--5-5--0-0-2-0-|
[-2--2-2--7--7-7--0--0-0--5--5-5--0-0-2-0-|
[-2--2-2--7--7-7--0--0-0--5--5-5--0-0-2-0-|
[
[-----------------------------------------[
[-----------------------------------------[
[-9--9-9--14--14-14--7--7-7--12--12-12----[
[-----------------------------------------[
[-7--7-7--12--12-12--5--5-5--10--10-10----[
[-----------------------------------------[

Verse (clean)

could sleep forever
-------------------|
-------------------|
-----------------5-|
-2--2-2--7--7-7--5-|
-2--2-2--7--7-7--3-|
-2--2-2--7--7-7----|

in spite of this look
-------------------|
-------------------|
-----------------5-|
-2--2-2--7--7-7--5-|
-2--2-2--7--7-7--3-|
-2--2-2--7--7-7----|

a look so scared
-------------------|
-------------------|
-----------------5-|
-2--2-2--7--7-7--5-|
-2--2-2--7--7-7--3-|
-2--2-2--7--7-7----|

sitting her with nothing
-------------------|
-------------------|
-----------------5-|
-2--2-2--7--7-7--5-|
-2--2-2--7--7-7--3-|
-2--2-2--7--7-7----|

new to add
-------------------|
-------------------|
-----------------5-|
-2--2-2--7--7-7--5-|
-2--2-2--7--7-7--3-|
-2--2-2--7--7-7----|

and crying out you never seemed forced
-------------------|
-------------------|
-----------------5-|
-2--2-2--7--7-7--5-|
-2--2-2--7--7-7--3-|
-2--2-2--7--7-7----|

it's just the kind of fuel I need
-------------------|
-------------------|
-----------------5-|
-2--2-2--7--7-7--5-|
-2--2-2--7--7-7--3-|
-2--2-2--7--7-7----|

to feel reborn
-------------------[
-------------------[
-----------------5-[
-2--2-2--7--7-7--5-[
-2--2-2--7--7-7--3-[
-2--2-2--7--7-7----[

pre chorus

 feeding off the chase right before is like biting into ankles pulling round
----------------------------------------------------------------------------|
----------------------------------------------------------------------------|
----------------------------------------------------------------------------|
-9-9-9-9-9-9-9-9-9-9-9-9-9-9-11-12-0-9-9-9-9-9-9-9-9-9-9-9-9-9-9-11-12-11-2-|
-9-9-9-9-9-9-9-9-9-9-9-9-9-9-11-12-0-9-9-9-9-9-9-9-9-9-9-9-9-9-9-11-12-11-2-|
-9-9-9-9-9-9-9-9-9-9-9-9-9-9-11-12-0-9-9-9-9-9-9-9-9-9-9-9-9-9-9-11-12-11-2-|

to finish one more phrase                         when all
----------------------------------------------------------------|
----------------------------------------------------------------|
----------------------------------------------------------------|
-9-9-9-9-9-9-9-9-9-9-9-9-9-9-11-12-0-x-x--x-x-x-x-9-9-9-9-9-9-9-|
-9-9-9-9-9-9-9-9-9-9-9-9-9-9-11-12-0-x-x--x-x-x-x-9-9-9-9-9-9-9-|
-9-9-9-9-9-9-9-9-9-9-9-9-9-9-11-12-0-x-x--x-x-x-x-9-9-9-9-9-9-9-|

 will fall
--------------------------[
--------------------------[
--------------------------[
-9-9-9-9-9-9-9-11-12-11-2-[
-9-9-9-9-9-9-9-11-12-11-2-[
-9-9-9-9-9-9-9-11-12-11-2-[

chorus

so         drawing           into
-----------------------------------------|
-----------------------------------------|
-----------------------------------------|
-2--2-2--7--7-7--0--0-0--5--5-5--0-0-2-0-|
-2--2-2--7--7-7--0--0-0--5--5-5--0-0-2-0-|
-2--2-2--7--7-7--0--0-0--5--5-5--0-0-2-0-|

one     another     keeps momentum
-----------------------------------------|
-----------------------------------------|
-----------------------------------------|
-2--2-2--7--7-7--0--0-0--5--5-5--0-0-2-0-|
-2--2-2--7--7-7--0--0-0--5--5-5--0-0-2-0-|
-2--2-2--7--7-7--0--0-0--5--5-5--0-0-2-0-|

  driving     forward  like   a
[-----------------------------------------|
[-----------------------------------------|
[-----------------------------------------|
[-2--2-2--7--7-7--0--0-0--5--5-5--0-0-2-0-|
[-2--2-2--7--7-7--0--0-0--5--5-5--0-0-2-0-|
[-2--2-2--7--7-7--0--0-0--5--5-5--0-0-2-0-|
[
[-----------------------------------------|
[-----------------------------------------|
[-9--9-9--14--14-14--7--7-7--12--12-12----|
[-----------------------------------------|
[-7--7-7--12--12-12--5--5-5--10--10-10----|
[-----------------------------------------|

    torching
[----------------[
[----------------[
[----------------[
[-2--2-2--7--7-7-[
[-2--2-2--7--7-7-[
[-2--2-2--7--7-7-[
[                [
[----------------[
[----------------[
[-9--9-9--14--14-[
[----------------[
[-7--7-7--12--12-[
[----------------[

interlude

-12-12-12-12-12-12-12-12-12-12-12-12-12-12--15-15-15-15-15-15-15-15-15-15-|
--------------------------------------------------------------------------|
-9--9--9--9--9--9--9--9--9--9--9--9--9---9--12-12-12-12-12-12-12-12-12-12-|
--------------------------------------------------------------------------|
--------------------------------------------------------------------------|
--------------------------------------------------------------------------|

-15-15-15-15-12-12-12-12-12-12-12-12-12-12-12-12-12-12-17-17-17-17-17-17-17-|
----------------------------------------------------------------------------|
-12-12-12-12-9--9--9--9--9--9--9--9--9--9--9--9--9--9--14-14-14-14-14-14-14-|
----------------------------------------------------------------------------|
----------------------------------------------------------------------------|
----------------------------------------------------------------------------|

-17-17-17-17-17-17-17-|
----------------------|
-14-14-14-14-14-14-14-|
----------------------|
----------------------|
----------------------|


 learn to       choose to      breath then    stitch your arm to me
-----------------------------------------------------------------------|
-----------------------------------------------------------------------|
----------------------------------------------12-12-12-12-12-7-7-7-7-7-|
-3-2--2--2-0-2--3-2--2--2-0-2--3-2--2--2-0-2---------------------------|
-3-2--2--2-0-2--3-2--2--2-0-2--3-2--2--2-0-2--10-10-10-10-10-5-5-5-5-5-|
-3-2--2--2-0-2--3-2--2--2-0-2--3-2--2--2-0-2---------------------------|

  learn to       choose to      breath then    stitch your arm to me
-----------------------------------------------------------------------|
-----------------------------------------------------------------------|
----------------------------------------------12-12-12-12-12-7-7-7-7-7-|
-3-2--2--2-0-2--3-2--2--2-0-2--3-2--2--2-0-2---------------------------|
-3-2--2--2-0-2--3-2--2--2-0-2--3-2--2--2-0-2--10-10-10-10-10-5-5-5-5-5-|
-3-2--2--2-0-2--3-2--2--2-0-2--3-2--2--2-0-2---------------------------|

  learn to       choose to      breath then    stitch your arm to me
-----------------------------------------------------------------------|
-----------------------------------------------------------------------|
----------------------------------------------12-12-12-12-12-7-7-7-7-7-|
-3-2--2--2-0-2--3-2--2--2-0-2--3-2--2--2-0-2---------------------------|
-3-2--2--2-0-2--3-2--2--2-0-2--3-2--2--2-0-2--10-10-10-10-10-5-5-5-5-5-|
-3-2--2--2-0-2--3-2--2--2-0-2--3-2--2--2-0-2---------------------------|

  learn to       choose to      breath then    stitch your arm
---------------------------------------------------------------[
---------------------------------------------------------------[
----------------------------------------------12-12-12-12-12-7-[
-3-2--2--2-0-2--3-2--2--2-0-2--3-2--2--2-0-2-------------------[
-3-2--2--2-0-2--3-2--2--2-0-2--3-2--2--2-0-2--10-10-10-10-10-5-[
-3-2--2--2-0-2--3-2--2--2-0-2--3-2--2--2-0-2-------------------[

chorus

so         drawing           into
-----------------------------------------|
-----------------------------------------|
-----------------------------------------|
-2--2-2--7--7-7--0--0-0--5--5-5--0-0-2-0-|
-2--2-2--7--7-7--0--0-0--5--5-5--0-0-2-0-|
-2--2-2--7--7-7--0--0-0--5--5-5--0-0-2-0-|

one     another     keeps momentum
-----------------------------------------|
-----------------------------------------|
-----------------------------------------|
-2--2-2--7--7-7--0--0-0--5--5-5--0-0-2-0-|
-2--2-2--7--7-7--0--0-0--5--5-5--0-0-2-0-|
-2--2-2--7--7-7--0--0-0--5--5-5--0-0-2-0-|

  driving     forward  like   a
[-----------------------------------------|
[-----------------------------------------|
[-----------------------------------------|
[-2--2-2--7--7-7--0--0-0--5--5-5--0-0-2-0-|
[-2--2-2--7--7-7--0--0-0--5--5-5--0-0-2-0-|
[-2--2-2--7--7-7--0--0-0--5--5-5--0-0-2-0-|
[
[-----------------------------------------|
[-----------------------------------------|
[-9--9-9--14--14-14--7--7-7--12--12-12----|
[-----------------------------------------|
[-7--7-7--12--12-12--5--5-5--10--10-10----|
[-----------------------------------------|

    torching       sun
[-----------------------------------------|
[-----------------------------------------|
[-----------------------------------------|
[-2--2-2--7--7-7--0--0-0--5--5-5--0-0-2-0-|
[-2--2-2--7--7-7--0--0-0--5--5-5--0-0-2-0-|
[-2--2-2--7--7-7--0--0-0--5--5-5--0-0-2-0-|
[
[-----------------------------------------|
[-----------------------------------------|
[-9--9-9--14--14-14--7--7-7--12--12-12----|
[-----------------------------------------|
[-7--7-7--12--12-12--5--5-5--10--10-10----|
[-----------------------------------------|


so         drawing           into
-----------------------------------------|
-----------------------------------------|
-----------------------------------------|
-2--2-2--7--7-7--0--0-0--5--5-5--0-0-2-0-|
-2--2-2--7--7-7--0--0-0--5--5-5--0-0-2-0-|
-2--2-2--7--7-7--0--0-0--5--5-5--0-0-2-0-|

one     another     keeps momentum
-----------------------------------------|
-----------------------------------------|
-----------------------------------------|
-2--2-2--7--7-7--0--0-0--5--5-5--0-0-2-0-|
-2--2-2--7--7-7--0--0-0--5--5-5--0-0-2-0-|
-2--2-2--7--7-7--0--0-0--5--5-5--0-0-2-0-|

  driving     forward  like   a
[-----------------------------------------|
[-----------------------------------------|
[-----------------------------------------|
[-2--2-2--7--7-7--0--0-0--5--5-5--0-0-2-0-|
[-2--2-2--7--7-7--0--0-0--5--5-5--0-0-2-0-|
[-2--2-2--7--7-7--0--0-0--5--5-5--0-0-2-0-|
[
[-----------------------------------------|
[-----------------------------------------|
[-9--9-9--14--14-14--7--7-7--12--12-12----|
[-----------------------------------------|
[-7--7-7--12--12-12--5--5-5--10--10-10----|
[-----------------------------------------|

    torching       sun
[-------------------------[
[-------------------------[
[-------------------------[
[-2--2-2--7--7-7--0--0-0--[
[-2--2-2--7--7-7--0--0-0--[
[-2--2-2--7--7-7--0--0-0--[

________________________________________11.This Circus_________________

tuning: Drop B

Intro part 1

What did I have to lose Being Negative  I bled through the snow
--------------------------------------------------------------------|
--------------------------------------------------------------------|
--------------------------------------------------------------------|
--------------------------------------------------------------------|
--2-2-2-2--2-2-2-2-0-0-4-4-4-4--4-4-4-4-5-5-4-4--2-2-2-2--2-2-2-2---|
--2-2-2-2--2-2-2-2-0-0-4-4-4-4--4-4-4-4-5-5-4-4--2-2-2-2--2-2-2-2---|

Then never set down
--------------------------------|
--------------------------------|
--------------------------------|
--------------------------------|
-0-0-4-4-4-4--4-4-4-4-0-0-0-0---|
-0-0-4-4-4-4--4-4-4-4-0-0-0-0---|

It's clear for today You're sleazy at night And soon as we heal
--------------------------------------------------------------------|
--------------------------------------------------------------------|
--------------------------------------------------------------------|
--------------------------------------------------------------------|
--2-2-2-2--2-2-2-2-0-0-4-4-4-4--4-4-4-4-5-5-4-4--2-2-2-2--2-2-2-2---|
--2-2-2-2--2-2-2-2-0-0-4-4-4-4--4-4-4-4-5-5-4-4--2-2-2-2--2-2-2-2---|

we will run
--------------------------------|
--------------------------------|
--------------------------------|
--------------------------------|
-0-0-4-4-4-4--4-4-4-4-0-0-0-0---|
-0-0-4-4-4-4--4-4-4-4-0-0-0-0---|


intro part 2

or start swinging
------------------------------------------------------------------|
------------------------------------------------------------------|
-9-9-9-9--9-9-9-9-7-7-7-7-11-11-11-11--11-11-11-11-12--12--11-11--|
------------------------------------------------------------------|
-7-7-7-7--7-7-7-7-5-5-5-5-9--9--9--9---9--9--9--9--10--10--9--9---|
------------------------------------------------------------------|

-----------------------------------------------------------[
-----------------------------------------------------------[
-9-9-9-9--9-9-9-9-7-7-7-7-11-11-11-11-11-11-11-11-7-7-7-7--[
-----------------------------------------------------------[
-7-7-7-7--7-7-7-7-5-5-5-5-9--9--9--9--9--9--9--9--5-5-5-5--[
-----------------------------------------------------------[

prechorus

For below they're begging for it I'm on my way, never settle, always learning
----------------------------------------------------------|
----------------------------------------------------------|
----------------------------------------------------------|
----------------------------------------------------------|
-2-2--2-2--2-2-0--4-4--4-4--4-4-0--5-5--5-5--555-4-4-5-0--|
-2-2--2-2--2-2-0--4-4--4-4--4-4-0--5-5--5-5--555-4-4-5-0--|

People, they beg us for it I'm on my way, almost there
----------------------------------------------------------|
----------------------------------------------------------|
----------------------------------------------------------|
----------------------------------------------------------|
-2-2--2-2--2-2-0--4-4--4-4--4-4-0--5-5--5-5--555-4-4-5-0--|
-2-2--2-2--2-2-0--4-4--4-4--4-4-0--5-5--5-5--555-4-4-5-0--|


chorus

this might just feed the mother of all our needs
---------------------------------------|
---------------------------------------|
---------------------------------------|
--2----2---12-12-12-12-10-10-10-10-10--|
--2----2---12-12-12-12-10-10-10-10-10--|
--2----2---12-12-12-12-10-10-10-10-10--|

turning over here
---------------------------------------[
---------------------------------------[
---------------------------------------[
--2----2---12-12-12-12-10-10-10-10-10--[
--2----2---12-12-12-12-10-10-10-10-10--[
--2----2---12-12-12-12-10-10-10-10-10--[


verse

Luck must fight over me And never give in to Weird out the soul
--------------------------------------------------------------------|
--------------------------------------------------------------------|
--------------------------------------------------------------------|
--------------------------------------------------------------------|
--------------------------------------------------------------------|
--2-2-2-2--2-2-2-2-0-0-4-4-4-4--4-4-4-4-5-5-4-4--2-2-2-2--2-2-2-2---|

replace it with salt
--------------------------------[
--------------------------------[
--------------------------------[
--------------------------------[
--------------------------------[
-0-0-4-4-4-4--4-4-4-4-0-0-0-0---[

I live with in sight of THis medicine man how perfectly
--------------------------------------------------------------------|
--------------------------------------------------------------------|
--------------------------------------------------------------------|
--------------------------------------------------------------------|
--------------------------------------------------------------------|
--2-2-2-2--2-2-2-2-0-0-4-4-4-4--4-4-4-4-5-5-4-4--2-2-2-2--2-2-2-2---|

I start
--------------------------------[
--------------------------------[
--------------------------------[
--------------------------------[
--------------------------------[
-0-0-4-4-4-4--4-4-4-4-0-0-0-0---[

swinging, start swinging
------------------------------------------------------------------|
------------------------------------------------------------------|
-9-9-9-9--9-9-9-9-7-7-7-7-11-11-11-11--11-11-11-11-12--12--11-11--|
------------------------------------------------------------------|
-7-7-7-7--7-7-7-7-5-5-5-5-9--9--9--9---9--9--9--9--10--10--9--9---|
------------------------------------------------------------------|

-----------------------------------------------------------[
-----------------------------------------------------------[
-9-9-9-9--9-9-9-9-7-7-7-7-11-11-11-11-11-11-11-11-7-7-7-7--[
-----------------------------------------------------------[
-7-7-7-7--7-7-7-7-5-5-5-5-9--9--9--9--9--9--9--9--5-5-5-5--[
-----------------------------------------------------------[

chorus

this might just feed the mother of all our needs
---------------------------------------|
---------------------------------------|
---------------------------------------|
--2----2---12-12-12-12-10-10-10-10-10--|
--2----2---12-12-12-12-10-10-10-10-10--|
--2----2---12-12-12-12-10-10-10-10-10--|

turning over oh so clear
---------------------------------------|
---------------------------------------|
---------------------------------------|
--2----2---12-12-12-12-10-10-10-10-10--|
--2----2---12-12-12-12-10-10-10-10-10--|
--2----2---12-12-12-12-10-10-10-10-10--|

this might just feed the mother of all our needs
---------------------------------------|
---------------------------------------|
---------------------------------------|
--2----2---12-12-12-12-10-10-10-10-10--|
--2----2---12-12-12-12-10-10-10-10-10--|
--2----2---12-12-12-12-10-10-10-10-10--|

turning over here
---------------------------------------|
---------------------------------------|
---------------------------------------|
--2----2---12-12-12-12-10-10-10-10-10--|
--2----2---12-12-12-12-10-10-10-10-10--|
--2----2---12-12-12-12-10-10-10-10-10--|

   interlude

--------------------------------------------------------[
--------------------------------------------------------[
--------------------------------------------------------[
-2-2--2-2--2-2--2-2--2-2--2-2--2-2--2-2--2-2------------[
-2-2--2-2--2-2--2-2--2-2--2-2--2-2--2-2--2-2------------[
-2-2--2-2--2-2--2-2--2-2--2-2--2-2--2-2--2-2------------[

----------------------------------------------------------|
----------------------------------------------------------|
----------------------------------------------------------|
--2-0-2-5-2--2-0-2--2-0-2-2-0-5---5-7-5----5-5--5-7-10-12-|
--2-0-2-5-2--2-0-2--2-0-2-2-0-3-0-3-5-3----3-3--3-5-10-12-|
--2-0-2-5-2--2-0-2--2-0-2-2-0---0------0-0----------10-12-|

Just run them off or grab and hold
----------------------------------------------------------|
----------------------------------------------------------|
----------------------------------------------------------|
--2-0-2-5-2--2-0-2--2-0-2-2-0-5---5-7-5----5-5--5-7-10-12-|
--2-0-2-5-2--2-0-2--2-0-2-2-0-3-0-3-5-3----3-3--3-5-10-12-|
--2-0-2-5-2--2-0-2--2-0-2-2-0---0------0-0----------10-12-|

Just run them off or grab and hold
----------------------------------------------------------|
----------------------------------------------------------|
----------------------------------------------------------|
--2-0-2-5-2--2-0-2--2-0-2-2-0-5---5-7-5----5-5--5-7-10-12-|
--2-0-2-5-2--2-0-2--2-0-2-2-0-3-0-3-5-3----3-3--3-5-10-12-|
--2-0-2-5-2--2-0-2--2-0-2-2-0---0------0-0----------10-12-|

Just run them off or grab and hold
----------------------------------------------------------|
----------------------------------------------------------|
----------------------------------------------------------|
--2-0-2-5-2--2-0-2--2-0-2-2-0-5---5-7-5----5-5--5-7-7-7-7-|
--2-0-2-5-2--2-0-2--2-0-2-2-0-3-0-3-5-3----3-3--3-5-5-5-5-|
--2-0-2-5-2--2-0-2--2-0-2-2-0---0------0-0----------------|

prechorus

For below they're begging for it I'm on my way, never settle, always learning
----------------------------------------------------------|
----------------------------------------------------------|
----------------------------------------------------------|
----------------------------------------------------------|
-2-2--2-2--2-2-0--4-4--4-4--4-4-0--5-5--5-5--555-4-4-5-0--|
-2-2--2-2--2-2-0--4-4--4-4--4-4-0--5-5--5-5--555-4-4-5-0--|

People, they beg us for it I'm on my way, almost there
----------------------------------------------------------|
----------------------------------------------------------|
----------------------------------------------------------|
----------------------------------------------------------|
-2-2--2-2--2-2-0--4-4--4-4--4-4-0--5-5--5-5--555-4-4-5-0--|
-2-2--2-2--2-2-0--4-4--4-4--4-4-0--5-5--5-5--555-4-4-5-0--|

chorus

this might just feed the mother of all our needs
---------------------------------------|
---------------------------------------|
---------------------------------------|
--2----2---12-12-12-12-10-10-10-10-10--|
--2----2---12-12-12-12-10-10-10-10-10--|
--2----2---12-12-12-12-10-10-10-10-10--|

turning over heard it oh so clear
---------------------------------------|
---------------------------------------|
---------------------------------------|
--2----2---12-12-12-12-10-10-10-10-10--|
--2----2---12-12-12-12-10-10-10-10-10--|
--2----2---12-12-12-12-10-10-10-10-10--|

this might just feed the mother of all our needs
---------------------------------------|
---------------------------------------|
---------------------------------------|
--2----2---12-12-12-12-10-10-10-10-10--|
--2----2---12-12-12-12-10-10-10-10-10--|
--2----2---12-12-12-12-10-10-10-10-10--|

turning over here
---------------------------------------|
---------------------------------------|
---------------------------------------|
--2----2---12-12-12-12-10-10-10-10-10--|
--2----2---12-12-12-12-10-10-10-10-10--|
--2----2---12-12-12-12-10-10-10-10-10--|

outro


--------------------------------------------------------------------|
--------------------------------------------------------------------|
--------------------------------------------------------------------|
--------------------------------------------------------------------|
--------------------------------------------------------------------|
--2-2-2-2--2-2-2-2-0-0-4-4-4-4--4-4-4-4-5-5-4-4--2-2-2-2--2-2-2-2---|

--------------------------------|
--------------------------------|
--------------------------------|
--------------------------------|
--------------------------------|
-0-0-4-4-4-4--4-4-4-4-0-0-0-0---|

--------------------------------------------------------------------|
--------------------------------------------------------------------|
--------------------------------------------------------------------|
--------------------------------------------------------------------|
--------------------------------------------------------------------|
--2-2-2-2--2-2-2-2-0-0-4-4-4-4--4-4-4-4-5-5-4-4--2-2-2-2--2-2-2-2---|


--------------------------------[
--------------------------------[
--------------------------------[
--------------------------------[
--------------------------------[
-0-0-4-4-4-4--4-4-4-4-0-0-0-0---[
comments
print report bad tab
4 comments total. Showing first comments.
0 reply
365_days_gone wrote on February 5 2010, 01:33 pm

- Fell Into Your Shoes is wrong. I dont even think its in the right tuning.

-The bridge in Letter from a Thief has some wrong notes.

-No extra guitar in the chorus of This Circus, OR the clean notes being picked in the verse and outro. My Guitar Pro has both of these tabbed out.

But very good. 4*'s. :)

0 reply
metalslayer09 wrote on February 5 2010, 05:51 pm

well it was a lot of songs to tab out but thanks for the criticizeing I'll see about fixing it at some point. and yeah fell into your shoes is wrong but that isn't that good of a song in my opinion... :)

0 reply
365_days_gone wrote on February 19 2010, 03:30 am

Just pointing out why it isn't a 5 star tab. I am very picky with album tabs...when I use them, I expect all the guitars to be there and to be correct! :)

I want to post or [tab]
guest
You may want to rate the tab now too:
select rating
Please do not post tabs as comments. Select "correction" instead!