Oops, an error
Loading. Please wait.

This Type Of Thinking Could Do Us In Tab

8,851 views 12 this week
5 commentsread comments
1 2 3 4 5
excellent!
x 5
add to favorites launch autoscroll
font size
0
reset
Autoscroll
+/-
esc
set tempo
stop
Contributor
WARNING: You are trying to view
                                    content from Ultimate-Guitar.com
                                    in an unauthorized application,
                                    which is prohibited.

                                    Please use an official Ultimate
                                    Guitar Tabs application for iPhone,
                                    iPad or Android to access legitimate
                                    chords, guitar, bass, and drum tabs
                                    from Ultimate-Guitar.com database.

                                    Type "ultimate guitar tabs" in Apple
                                    App Store's or Android Market's
                                    search to find the application.
Band- Chevelle
Album- This Type Of Thinking Could Do Us In

1.THE CLINCHER

Intro (Following the feedback at the very beginning):

C |---------------------------------------------------------------------------||
G |---------------------------------------------------------------------------||
D#|---------------------------------------------------------------------------||
A#|---------------------------------------------------------------------------||
F |---------------------------------------------------------------------------||
A#|---3p2p0-5p3p0-3p2p0-5p3p0-0h2h3p0--3p2p0-5p3p0-3p2p0-5p3p0-0h2h3p0--------|| x2

C |---------------------------------------------------------------------------||
G |---------------------------------------------------------------------------||
D#|---------------------------------------------------------------------------||
A#|---3-2-0-5-3-0-3-2-0-5-3-0-0-2-3-0--3-2-0-5-3-0-3-2-0-5-3-0-0-2-3-0--------||
F |---3-2-0-5-3-0-3-2-0-5-3-0-0-2-3-0--3-2-0-5-3-0-3-2-0-5-3-0-0-2-3-0--------||
A#|---3-2-0-5-3-0-3-2-0-5-3-0-0-2-3-0--3-2-0-5-3-0-3-2-0-5-3-0-0-2-3-0--------||

C |------------------------------------------------------------x-x------------||
G |------------------------------------------------------------x-x------------||
D#|------------------------------------------------------------x-x------------||
A#|---3-2-0-5-3-0-3-2-0-5-3-0-0-2-3-0--3-2-0-5-3-0-3-2-0-5-3-0-x-x------------||
F |---3-2-0-5-3-0-3-2-0-5-3-0-0-2-3-0--3-2-0-5-3-0-3-2-0-5-3-0-x-x------------||
A#|---3-2-0-5-3-0-3-2-0-5-3-0-0-2-3-0--3-2-0-5-3-0-3-2-0-5-3-0-x-x------------||

Verse 1 (Pick scrapes only.  Machine-gun style scrape on the 6th(A#) string):

Pre-Chorus 1 (Clean guitar with thick chorus):

      (These are 13's, 15's and 10's)
C |---------------------------------------------------------------------------||
G |---------------------------------------------------------------------------||
D#|---15151515151515151515151515151515-1010101010101010109-9-9-9-9-9-9--------||
A#|---x-x-x-x-x-x-x-x-x-x-x-x-x-x-x-x--x-x-x-x-x-x-x-x-x-x-x-x-x-x-x-x--------||
F |---13131313131313131313131313131313-8-8-8-8-8-8-8-8-8-7-7-7-7-7-7-7--------||
A#|---x-x-x-x-x-x-x-x-x-x-x-x-x-x-x-x--0-0-0-0-0-0-0-0-0-0-0-0-0-0-0-0--------||

Kick on the distortion on the last open chord and let harmonics ring:

C |---------------------------------------------------------------------------||
G |---------------------------------------------------------------------------||
D#|---15151515151515151515151515151515----------------------------------------||
A#|---x-x-x-x-x-x-x-x-x-x-x-x-x-x-x-x--0~~~~~~~-----------------------*5~~----||
F |---13131313131313131313131313131313-0~~~~~~~--------------------*5~~~~~----||
A#|---x-x-x-x-x-x-x-x-x-x-x-x-x-x-x-x--0~~~~~~~-------------------------------||

Verse 2 (Palm mutes and harmonics with pick scrapes oversampled):

      (Harmonics are still ringing)
C |---------------------------------------------------------------------------||
G |---------------------------------------------------------------------------||
D#|---------------------------------------------------------------------------||
A#|------------------------------------------------------0---0--0----*5~~-----||
F |------------------------------------------------------0---0--0-*5~~~~~-----||
A#|------------------------------------------------------0---0--0-------------|| x4
p.m.                                                     .   .  .

Verse 2 Continued:

C |---------------------------------------------------------------------------||
G |---------------------------------------------------------------------------||
D#|---7---7-7-7-7-7-7-7-7-7-7-7-7-7-7--7--7-7-7---7-7-7--7-5-5-5-5-5-5--------||
A#|---7---7-7-7-7-7-7-7-7-7-7-7-7-7-7--7--7-7-7---7-7-7--7-5-5-5-5-5-5--------||
F |---5---5-5-5-5-5-5-5-5-5-5-5-5-5-5--6--5h6-5---5-5-5--5-3-3-3-3-3-3--------||
A#|---------------------------------------------------------------------------|| x4

Pre-Chorus 2 (Back to clean):

C |---------------------------------------------------------------------------||
G |---------------------------------------------------------------------------||
D#|---15151515151515151515151515151515-1010101010101010109-9-9-9-9-9-9--------||
A#|---x-x-x-x-x-x-x-x-x-x-x-x-x-x-x-x--x-x-x-x-x-x-x-x-x-x-x-x-x-x-x-x--------||
F |---13131313131313131313131313131313-8-8-8-8-8-8-8-8-8-7-7-7-7-7-7-7--------||
A#|---x-x-x-x-x-x-x-x-x-x-x-x-x-x-x-x--0-0-0-0-0-0-0-0-0-0-0-0-0-0-0-0--------||

Distortion comes in here ("Never would I"):

C |---------------------------------------------------------------------------||
G |---------------------------------------------------------------------------||
D#|------------------------------------5-5-5-5-5-5-5-5-5-5-5-5-5-5-5-5--------||
A#|---3-3-3-3-3-3-3-3-3-3-3-3-3-3-3-3--5-5-5-5-5-5-5-5-5-5-5-5-5-5-5-5--------||
F |---3-3-3-3-3-3-3-3-3-3-3-3-3-3-3-3--3-3-3-3-3-3-3-3-3-3-3-3-3-3-3-3--------||
A#|---3-3-3-3-3-3-3-3-3-3-3-3-3-3-3-3-----------------------------------------||

C |---------------------------------------------------------------------------||
G |---------------------------------------------------------------------------||
D#|---3-3-3-3-3-3-3-3-3-3-3-3-3-3-3-3--1010101010101010109-9-9-9-9-9-9--------||
A#|---3-3-3-3-3-3-3-3-3-3-3-3-3-3-3-3--x-x-x-x-x-x-x-x-x-x-x-x-x-x-x-x--------||
F |---1-1-1-1-1-1-1-1-1-1-1-1-1-1-1-1--8-8-8-8-8-8-8-8-8-7-7-7-7-7-7-7--------||
A#|------------------------------------0-0-0-0-0-0-0-0-0-0-0-0-0-0-0-0--------||

C |---------------------------------------------------------------------------||
G |---------------------------------------------------------------------------||
D#|------------------------------------5-5-5-5-5-5-5-5-5-5-5-5-5-5-5-5--------||
A#|---3-3-3-3-3-3-3-3-3-3-3-3-3-3-3-3--5-5-5-5-5-5-5-5-5-5-5-5-5-5-5-5--------||
F |---3-3-3-3-3-3-3-3-3-3-3-3-3-3-3-3--3-3-3-3-3-3-3-3-3-3-3-3-3-3-3-3--------||
A#|---3-3-3-3-3-3-3-3-3-3-3-3-3-3-3-3-----------------------------------------||

Breakdown (Same as intro except it's palm muted and there's an oversample):

C |---------------------------------------------------------------------------||
G |---------------------------------------------------------------------------||
D#|---------------------------------------------------------------------------||
A#|---------------------------------------------------------------------------||
F |---------------------------------------------------------------------------||
A#|---3p2p0-5p3p0-3p2p0-5p3p0-0h2h3p0--3p2p0-5p3p0-3p2p0-5p3p0-0h2h3p0--------||
p.m.  . . . . . . . . . . . . . . . .  . . . . . . . . . . . . . . . .

No palm muting this time:

C |---------------------------------------------------------------------------||
G |--------------------------------------------------------------*4.5---------||
D#|--------------------------------------------------------------*4.5---------||
A#|---------------------------------------------------------------------------||
F |---------------------------------------------------------------------------||
A#|---3p2p0-5p3p0-3p2p0-5p3p0-0h2h3p0--3p2p0-5p3p0-3p2p0-5p3p0----------------||

C |---------------------------------------------------------------------------||
G |---------------------------------------------------------------------------||
D#|---------------------------------------------------------------------------||
A#|---3-2-0-5-3-0-3-2-0-5-3-0-0-2-3-0--3-2-0-5-3-0-3-2-0-5-3-0-0-2-3-0--------||
F |---3-2-0-5-3-0-3-2-0-5-3-0-0-2-3-0--3-2-0-5-3-0-3-2-0-5-3-0-0-2-3-0--------||
A#|---3-2-0-5-3-0-3-2-0-5-3-0-0-2-3-0--3-2-0-5-3-0-3-2-0-5-3-0-0-2-3-0--------||

C |---------------------------------------------------------------------------||
G |--------------------------------------------------------------*4.5---------||
D#|--------------------------------------------------------------*4.5---------||
A#|---3-2-0-5-3-0-3-2-0-5-3-0-0-2-3-0--3-2-0-5-3-0-3-2-0-5-3-0----------------||
F |---3-2-0-5-3-0-3-2-0-5-3-0-0-2-3-0--3-2-0-5-3-0-3-2-0-5-3-0----------------||
A#|---3-2-0-5-3-0-3-2-0-5-3-0-0-2-3-0--3-2-0-5-3-0-3-2-0-5-3-0----------------||

C |---------------------------------------------------------------------------||
G |---------------------------------------------------------------------------||
D#|---------------------------------------------------------------------------||
A#|---3-2-0-5-3-0-3-2-0-5-3-0-0-2-3-0--3-2-0-5-3-0-3-2-0-5-3-0-0-2-3-0--------||
F |---3-2-0-5-3-0-3-2-0-5-3-0-0-2-3-0--3-2-0-5-3-0-3-2-0-5-3-0-0-2-3-0--------||
A#|---3-2-0-5-3-0-3-2-0-5-3-0-0-2-3-0--3-2-0-5-3-0-3-2-0-5-3-0-0-2-3-0--------|| x2

Chorus Riff (Repeat whole chorus 4 times):

C |---------------------------------------------------------------------------||
G |---------------------------------------------------------------------------||
D#|---3-3-3-3-3-3-3-3-3-3-3-3-3-3-3-3--1010101010101010109-9-9-9-9-9-9--------||
A#|---3-3-3-3-3-3-3-3-3-3-3-3-3-3-3-3--x-x-x-x-x-x-x-x-x-x-x-x-x-x-x-x--------||
F |---1-1-1-1-1-1-1-1-1-1-1-1-1-1-1-1--8-8-8-8-8-8-8-8-8-7-7-7-7-7-7-7--------||
A#|------------------------------------0-0-0-0-0-0-0-0-0-0-0-0-0-0-0-0--------||

C |---------------------------------------------------------------------------||
G |---------------------------------------------------------------------------||
D#|------------------------------------5-5-5-5-5-5-5-5-5-5-5-5-5-5-5-5--------||
A#|---3-3-3-3-3-3-3-3-3-3-3-3-3-3-3-3--5-5-5-5-5-5-5-5-5-5-5-5-5-5-5-5--------||
F |---3-3-3-3-3-3-3-3-3-3-3-3-3-3-3-3--3-3-3-3-3-3-3-3-3-3-3-3-3-3-3-3--------||
A#|---3-3-3-3-3-3-3-3-3-3-3-3-3-3-3-3-----------------------------------------|| x4

Main Riff again:

C |---------------------------------------------------------------------------||
G |---------------------------------------------------------------------------||
D#|---------------------------------------------------------------------------||
A#|---3-2-0-5-3-0-3-2-0-5-3-0-0-2-3-0--3-2-0-5-3-0-3-2-0-5-3-0-0-2-3-0--------||
F |---3-2-0-5-3-0-3-2-0-5-3-0-0-2-3-0--3-2-0-5-3-0-3-2-0-5-3-0-0-2-3-0--------||
A#|---3-2-0-5-3-0-3-2-0-5-3-0-0-2-3-0--3-2-0-5-3-0-3-2-0-5-3-0-0-2-3-0--------|| x2

Outro:

C |---------------------------------------------------------------------------||
G |---------------------------------------------------------------------------||
D#|---------------------------------------------------------------------------||
A#|---------------------------------------------------------------------------||
F |---------------------------------------------------------------------------||
A#|---3p2p0-5p3p0-3p2p0-5p3p0-0h2h3p0--3p2p0-5p3p0-3p2p0-5p3p0-0h2h3p0--------||

C |---------------------------------------------------------------------------||
G |---------------------------------------------------------------------------||
D#|---------------------------------------------------------------------------||
A#|------------------------------------------------------------0~-------------||
F |------------------------------------------------------------0~-------------||
A#|---3p2p0-5p3p0-3p2p0-5p3p0-0h2h3p0--3p2p0-5p3p0-3p2p0-5p3p0-0~-------------||

2.GET SOME

Intro:        pm----|
|-------------------|
|7*-----7*----------|
|---5*-----5*-------|
|-------------------|
|--------------5-4-0|
|--------------5-4-0|

Intro pt.2/Outro:listen for rythym
|---------------------------------------|
|---------------------------------------|
|---------------------------------------|
|----------5-555------------------------|
|2-222-0-2-3-333-2-4-0-000-2-4-7-775-4-0|
|2-222-0-2-------2-4-0-000-2-4-7-775-4-0|

Intro pt.3:again listen for rythm
|-------------|
|-------------|
|--3x---------|
|/-----\------|
|2-2222--0-5-0|
|2-2222--0-5-0|

verse:
|--------------------|
|--------------------|
|--------------------|
|--------------------|
|--------------------|
|2many times---0-5-0-|

chorus:     3x                        3x
|--------7777|------------|--------7777|------------|
|------------|------------|------------|------------|
|--------4444|------------|--------4444|------------|
|2-22222-----|2-22225-5-5-|0-00000-----|0-00004-4-4-|repeat as needed
|2-22222-----|2-22225-5-5-|0-00000-----|0-00004-4-4-|
|2-22222-----|2-22225-5-5-|0-00000-----|0-00004-4-4-|

Bridge:listen to rythym, pm for a while
|----------|----------|
|----------|----------|
|----------|----------|
|2---------|0---------|
|2---------|0---------|
|2---0-2-4-|0---0-4-0-|

Lead during bridge:
|---------|
|---------|
|9----7---|
|---------|
|7----5---|
|---------|

Fill before last chorus:
|-----------------|
|-----------------|
|-----------------|
|2----------------|
|2----------------|
|2------pickscrape|

3.VITAMIN R

intro  w/ distortion and slight palm mute
---------------------------------------------------------------------------|
---------------------------------------------------------------------------|
-------9----9999---9---9999---7---7777---7---7777--------------------------|
-------0----0000---0---0000---0---0000---0---0000--------------------------|
---------------------------------------------------------------------------|
---------------------------------------------------------------------------|

Verse
---------------------------------------------------------------------------------|
---------------------------------------------------------------------------------|
-----10----10 10 10 10--10---10 10 10 10 ---9---9999---9---9999------------------|
------0-----0-0--0--0----0---0--0--0--0-----0---0000---0---0000------------------|
---------------------------------------------------------------------------------|
---------------------------------------------------------------------------------|
p.m..............................................................................

verse cont.
---------------------------------------------------------------------------|
---------------------------------------------------------------------------|
---10---10-10-10-10-10---10---10--10--10--10---9---9999---9---9999---------|
----8----8---8---8--8-----8----8---8---8--8----8---8888---8---8888---------|
----8----8---8---8--8-----8----8---8---8--8----8---8888---8---8888---------|
----8----8---8---8--8-----8----8---8---8--8----8---8888---8---8888---------|
p.m..............................................................................

pre-verse
--------------------------------------------------------------------------------|
--------------------------------------------------------------------------------|
--------------------------------------------------------------------------------|
--------------------------------------------------------------------------------|
--------------------------------------------------------------------------------|
--000000000000000000000000-333333333333333333333333-----------------------------|
p.m..............................................................................

--------------------------------------------------------------------------------|
--------------------------------------------------------------------------------|
--------------------------------------------------------------------------------|
--------------------------------------------------------------------------------|
--------------------------------------------------------------------------------|
-000000000000000000000000-555555555555-333333333333-----------------------------|
p.m.....................................................................


------------------9-9-9-9-----------------------------------------|
------------------9-9-9-9-----------------------------------------|
------------------9-9-9-9-----------------------------------------|
----8---8-8--8-------------8---8-8---8/10---10-10-10--------------|
----8---8-8--8-------------8---8-8---8/10---10-10-10--------------|
----8---8-8--8-------------8---8-8---8/10---10-10-10--------------|
n.h.              *******

------------------6-6-6-6-----------------------------------------|
------------------6-6-6-6-----------------------------------------|
------------------6-6-6-6-----------------------------------------|
----5---5-5--5-------------5---5-5---5/3---3-3-3------------------|
----5---5-5--5-------------5---5-5---5/3---3-3-3------------------|
----5---5-5--5-------------5---5-5---5/3---3-3-3------------------|
n.h              ********

for the natural harmonics in the chorus just slightly place your
middle finger across the fret wire without pushing down the strings
and simply strum away

Bridge
-----------------------------------------------------------------------|
-----------------------------------------------------------------------|
-----5---5-5-----7----7-7----------------------------------------------|
-----3---3-3-----5----5-5----7-------7-------7-----7-------------------|
-----3---3-3-----5----5-5----5-------5-------5-----5-------------------|
-----3---3-3-----5----5-5-------0-0----0-0----0-0---0-0----------------|
p.m.                            ...    ...    ...   ...

4.STILL RUNNING

Tuning : dropped B (B,F#,B,E,G#,C#)

Intro PM throughout
C#|------------------------------------|
G#|------------------------------------|
E |------------------------------------|
B |------------------------------------|
F#|------------------------------------|
B |-00-22-44-55-4444-2222-4444-22-4444-| (2x)


C#|------------------------------------|
G#|------------------------------------|
E |------------------------------------|
B |-00-22-44-55-4444-2222-4444-22-4444-|
F#|-XX-XX-XX-XX-XXXX-XXXX-XXXX-XX-XXXX-|
B |-00-22-44-55-4444-2222-4444-22-4444-| (2x)

Chorus
C#|-------------------|
G#|-------------------|
E |-------------------|
B |-0-2-4-5-4-2-4-2-4-|
F#|-0-2-4-5-4-2-4-2-4-|
B |-0-2-4-5-4-2-4-2-4-|

Verse
C#|------------------------------------|------------------------------------|
G#|------------------------------------|------------------------------------|
E |------------------------------------|------------------------------------|
B |------------------------------------|------------------------------------|
F#|------------------------------------|------------------------------------|
B |-00-22-44-55-4444-2222-4444-22-4444-|-00-22-44-55-4444-2222-4444-2222222-| (2x)
   Palm Mute Throughout

C#|------------------------------------|------------------------------------|
G#|------------------------------------|------------------------------------|
E |------------------------------------|------------------------------------|
B |-00-22-44-55-4444-2222-4444-22-4444-|-00-22-44-55-4444-2222-4444-2222222-|
F#|-XX-XX-XX-XX-XXXX-XXXX-XXXX-XX-XXXX-|-XX-XX-XX-XX-XXXX-XXXX-XXXX-XXXXXXX-|
B |-00-22-44-55-4444-2222-4444-22-4444-|-00-22-44-55-4444-2222-4444-2222222-| (2x)


Chorus
C#|-------------------|
G#|-------------------|
E |-------------------|
B |-0-2-4-5-4-2-4-2-4-|
F#|-0-2-4-5-4-2-4-2-4-|
B |-0-2-4-5-4-2-4-2-4-| (4x)

Interlude
C#|-------------|
G#|-------------|
E |-------------|
B |-22-22-2-1-0-|
F#|-22-22-2-1-0-|
B |-22-22-2-1-0-|
  PM   ........

Verse

Chorus

Interlude

Breakdown
C#|-------------------|-------------------------|
G#|-------------------|-------------------------|
E |-------------------|-------------------------|
B |-------------------|-4444-2222-7777-11111111-|
F#|-00000000000000/44-|-4444-2222-7777-11111111-|
B |-------------------|-4444-2222-7777-11111111-| (5x)
                                     11's not 1's
End on

C#|-------------------|
G#|-------------------|
E |-------------------|
B |-44444444444444444-|
F#|-44444444444444444-|
B |-44444444444444444-|

Interlude 2
C#|------------------------------------|
G#|------------------------------------|
E |------------------------------------|
B |------------------------------------|
F#|------------------------------------|
B |-00-22-44-55-4444-2222-4444-22-4444-|
  PM....................................

Chorus (8x)

Interlude
C#|-------------|
G#|-----------5-|
E |-----------2-|
B |-22-22-2-1-0-|
F#|-22-22-2-1-0-|
B |-22-22-2-1-0-|
  PM   ........

5.BREACH BIRTH

Intro (Distorted):

C |---------------------------------------------------------------------------||
G |---------------------------------------------------------------------------||
D#|---------------------------------------------------------------------------||
A#|---------------------------------------------------------------------------||
F |---------------------------------------------------------------------------||
A#|---12p0-0-0-0-0-12p10-0-10h13p0------12p0-0-0-0-0-12p10-0-10h13p0----------||

                   Bend the 12 slowly up a half step *
C |---------------------------------------------------------------------------||
G |---------------------------------------------------------------------------||
D#|---------------------------------------------------------------------------||
A#|---------------------------------------------------------------------------||
F |---------------------------------------------------------------------------||
A#|---12p0-0-0-0-0-12p10-0-10h13p0------12p0-0-0-0-0-12-12b-b-b-b-b-----------|| x2

Pre-Verse 1 (Clean Guitar):

C |---------------------------------------------------------------------------||
G |---------------------------------------------------------------------------||
D#|---14-14-14-14-14-14----101010101010---5-5-5-5-5-5----7-7-7-7-7-7----------||
A#|---12-12-12-12-12-12----8-8-8-8-8-8----3-3-3-3-3-3----5-5-5-5-5-5----------||
F |---12-12-12-12-12-12----8-8-8-8-8-8----3-3-3-3-3-3----5-5-5-5-5-5----------||
A#|---12-12-12-12-12-12----8-8-8-8-8-8----3-3-3-3-3-3----5-5-5-5-5-5----------|| x2

Verse 1 (Distorted):

C |---------------------------------------------------------------------------||
G |---------------------------------------------------------------------------||
D#|---------------------------------------------------------------------------||
A#|---12-12-12-12-12-12----8-8-8-8-8-8----3-3-3-3-3-3----5-5-5-5-5-5----------||
F |---12-12-12-12-12-12----8-8-8-8-8-8----3-3-3-3-3-3----5-5-5-5-5-5----------||
A#|---12-12-12-12-12-12----8-8-8-8-8-8----3-3-3-3-3-3----5-5-5-5-5-5----------|| x2

Pre-Chorus 1:

C |---------------------------------------------------------------------------||
G |---------------------------------------------------------------------------||
D#|---------------------------------------------------------------------------||
A#|---0--0-0---------------3--3-3---------------0--0-0---------------3~~~-----||
F |---0--0-0---------------3--3-3---------------0--0-0---------------3~~~-----||
A#|---0--0-0--5-3-0-3-5-6--3--3-3--5-3-0-3-0-5--0--0-0--5-3-0-3-5-6--3~~~-----||
p.m.          . . . . . .          . . . . . .          . . . . . .

Chorus 1:

C |---------------------------------------------------------------------------||
G |---------------------------------------------------------------------------||
D#|---101010101010101010101010101010101010101010101010-12-12-12-12-12-12------||
A#|---8-8-8-8-8-8-8-8-8-8-8-8-8-8-8-8-8-8-8-8-8-8-8-8--10-10-10-10-10-10------||
F |---8-8-8-8-8-8-8-8-8-8-8-8-8-8-8-8-8-8-8-8-8-8-8-8--10-10-10-10-10-10------||
A#|---8-8-8-8-8-8-8-8-8-8-8-8-8-8-8-8-8-8-8-8-8-8-8-8--10-10-10-10-10-10------||

C |---------------------------------------------------------------------------||
G |---------------------------------------------------------------------------||
D#|---------------------------------------------------------------------------||
A#|---------------------------------------------------------------------------||
F |---------------------------------------------------------------------------||
A#|---12p0-0-0-0-0-12p10-0-10h13p0------12p0-0-0-0-0-12p10-0-10h13p0----------||

                           (These are 12's and 10's) *
C |---------------------------------------------------------------------------||
G |---------------------------------------------------------------------------||
D#|---------------------------------------------------------------------------||
A#|---------------------------------------------------------------------------||
F |---------------------------------------------------------------------------||
A#|---12p0-0-0-0-0-12p10-0-10h13p0------12p0-0-0-0-0-121212-101010------------||

C |---------------------------------------------------------------------------||
G |---------------------------------------------------------------------------||
D#|---101010101010101010101010101010101010101010101010-12-12-12-12-12-12------||
A#|---8-8-8-8-8-8-8-8-8-8-8-8-8-8-8-8-8-8-8-8-8-8-8-8--10-10-10-10-10-10------||
F |---8-8-8-8-8-8-8-8-8-8-8-8-8-8-8-8-8-8-8-8-8-8-8-8--10-10-10-10-10-10------||
A#|---8-8-8-8-8-8-8-8-8-8-8-8-8-8-8-8-8-8-8-8-8-8-8-8--10-10-10-10-10-10------||

C |---------------------------------------------------------------------------||
G |---------------------------------------------------------------------------||
D#|---------------------------------------------------------------------------||
A#|---------------------------------------------------------------------------||
F |---------------------------------------------------------------------------||
A#|---12p0-0-0-0-0-12p10-0-10h13p0------12p0-0-0-0-0-12p10-0-10h13p0----------||

C |---------------------------------------------------------------------------||
G |---------------------------------------------------------------------------||
D#|---------------------------------------------------------------------------||
A#|---------------------------------------------------------------------------||
F |---------------------------------------------------------------------------||
A#|---12p0-0-0-0-0-12p10-0-10h13p0------12p0-0-0-0-0-12-12b-b-b-b-b-----------||

Pre-Verse 2 (Clean Guitar):

C |---------------------------------------------------------------------------||
G |---------------------------------------------------------------------------||
D#|---14-14-14-14-14-14----101010101010---5-5-5-5-5-5----7-7-7-7-7-7----------||
A#|---12-12-12-12-12-12----8-8-8-8-8-8----3-3-3-3-3-3----5-5-5-5-5-5----------||
F |---12-12-12-12-12-12----8-8-8-8-8-8----3-3-3-3-3-3----5-5-5-5-5-5----------||
A#|---12-12-12-12-12-12----8-8-8-8-8-8----3-3-3-3-3-3----5-5-5-5-5-5----------|| x2

Verse 2 (Distorted again):

C |---------------------------------------------------------------------------||
G |---------------------------------------------------------------------------||
D#|---------------------------------------------------------------------------||
A#|---12-12-12-12-12-12----8-8-8-8-8-8----3-3-3-3-3-3----5-5-5-5-5-5----------||
F |---12-12-12-12-12-12----8-8-8-8-8-8----3-3-3-3-3-3----5-5-5-5-5-5----------||
A#|---12-12-12-12-12-12----8-8-8-8-8-8----3-3-3-3-3-3----5-5-5-5-5-5----------|| x2

Pre-Chorus 2 (Molds!!):

C |---------------------------------------------------------------------------||
G |---------------------------------------------------------------------------||
D#|---------------------------------------------------------------------------||
A#|---0--0-0---------------3--3-3---------------0--0-0---------------3~~~-----||
F |---0--0-0---------------3--3-3---------------0--0-0---------------3~~~-----||
A#|---0--0-0--5-3-0-3-5-6--3--3-3--5-3-0-3-0-5--0--0-0--5-3-0-3-5-6--3~~~-----||
p.m.          . . . . . .          . . . . . .          . . . . . .

Chorus 2:

C |---------------------------------------------------------------------------||
G |---------------------------------------------------------------------------||
D#|---101010101010101010101010101010101010101010101010-12-12-12-12-12-12------||
A#|---8-8-8-8-8-8-8-8-8-8-8-8-8-8-8-8-8-8-8-8-8-8-8-8--10-10-10-10-10-10------||
F |---8-8-8-8-8-8-8-8-8-8-8-8-8-8-8-8-8-8-8-8-8-8-8-8--10-10-10-10-10-10------||
A#|---8-8-8-8-8-8-8-8-8-8-8-8-8-8-8-8-8-8-8-8-8-8-8-8--10-10-10-10-10-10------||

C |---------------------------------------------------------------------------||
G |---------------------------------------------------------------------------||
D#|---------------------------------------------------------------------------||
A#|---------------------------------------------------------------------------||
F |---------------------------------------------------------------------------||
A#|---12p0-0-0-0-0-12p10-0-10h13p0------12p0-0-0-0-0-12p10-0-10h13p0----------||

                           (These are 12's and 10's) *
C |---------------------------------------------------------------------------||
G |---------------------------------------------------------------------------||
D#|---------------------------------------------------------------------------||
A#|---------------------------------------------------------------------------||
F |---------------------------------------------------------------------------||
A#|---12p0-0-0-0-0-12p10-0-10h13p0------12p0-0-0-0-0-121212-101010------------||

C |---------------------------------------------------------------------------||
G |---------------------------------------------------------------------------||
D#|---101010101010101010101010101010101010101010101010-12-12-12-12-12-12------||
A#|---8-8-8-8-8-8-8-8-8-8-8-8-8-8-8-8-8-8-8-8-8-8-8-8--10-10-10-10-10-10------||
F |---8-8-8-8-8-8-8-8-8-8-8-8-8-8-8-8-8-8-8-8-8-8-8-8--10-10-10-10-10-10------||
A#|---8-8-8-8-8-8-8-8-8-8-8-8-8-8-8-8-8-8-8-8-8-8-8-8--10-10-10-10-10-10------||

C |---------------------------------------------------------------------------||
G |---------------------------------------------------------------------------||
D#|---------------------------------------------------------------------------||
A#|---------------------------------------------------------------------------||
F |---------------------------------------------------------------------------||
A#|---12p0-0-0-0-0-12p10-0-10h13p0------12p0-0-0-0-0-12p10-0-10h13p0----------||

C |---------------------------------------------------------------------------||
G |---------------------------------------------------------------------------||
D#|---------------------------------------------------------------------------||
A#|---------------------------------------------------------------------------||
F |---------------------------------------------------------------------------||
A#|---12p0-0-0-0-0-12p10-0-10h13p0------12p0-0-0-0-0-12-12b-b-b-b-b-----------||

Breakdown (with Wah Pedal):

C |---------------------------------------------------------------------------||
G |---------------------------------------------------------------------------||
D#|---7-7-7-7-7-7--9-9-9-9-9-9--101010101010--1212121212121212121212----------||
A#|---x-x-x-x-x-x--x-x-x-x-x-x--x-x-x-x-x-x---x-x-x-x-x-x-x-x-x-x-x-----------||
F |---5-5-5-5-5-5--7-7-7-7-7-7--8-8-8-8-8-8---1010101010101010101010----------||
A#|---------------------------------------------------------------------------||

Chorus 3:

C |---------------------------------------------------------------------------||
G |---------------------------------------------------------------------------||
D#|---101010101010101010101010101010101010101010101010-12-12-12-12-12-12------||
A#|---8-8-8-8-8-8-8-8-8-8-8-8-8-8-8-8-8-8-8-8-8-8-8-8--10-10-10-10-10-10------||
F |---8-8-8-8-8-8-8-8-8-8-8-8-8-8-8-8-8-8-8-8-8-8-8-8--10-10-10-10-10-10------||
A#|---8-8-8-8-8-8-8-8-8-8-8-8-8-8-8-8-8-8-8-8-8-8-8-8--10-10-10-10-10-10------||

C |---------------------------------------------------------------------------||
G |---------------------------------------------------------------------------||
D#|---------------------------------------------------------------------------||
A#|---------------------------------------------------------------------------||
F |---------------------------------------------------------------------------||
A#|---12p0-0-0-0-0-12p10-0-10h13p0------12p0-0-0-0-0-12p10-0-10h13p0----------||

                           (These are 12's and 10's) *
C |---------------------------------------------------------------------------||
G |---------------------------------------------------------------------------||
D#|---------------------------------------------------------------------------||
A#|---------------------------------------------------------------------------||
F |---------------------------------------------------------------------------||
A#|---12p0-0-0-0-0-12p10-0-10h13p0------12p0-0-0-0-0-121212-101010------------||

C |---------------------------------------------------------------------------||
G |---------------------------------------------------------------------------||
D#|---101010101010101010101010101010101010101010101010-12-12-12-12-12-12------||
A#|---8-8-8-8-8-8-8-8-8-8-8-8-8-8-8-8-8-8-8-8-8-8-8-8--10-10-10-10-10-10------||
F |---8-8-8-8-8-8-8-8-8-8-8-8-8-8-8-8-8-8-8-8-8-8-8-8--10-10-10-10-10-10------||
A#|---8-8-8-8-8-8-8-8-8-8-8-8-8-8-8-8-8-8-8-8-8-8-8-8--10-10-10-10-10-10------||

C |---------------------------------------------------------------------------||
G |---------------------------------------------------------------------------||
D#|---------------------------------------------------------------------------||
A#|---------------------------------------------------------------------------||
F |---------------------------------------------------------------------------||
A#|---12p0-0-0-0-0-12p10-0-10h13p0------12p0-0-0-0-0-12p10-0-10h13p0----------||

C |---------------------------------------------------------------------------||
G |---------------------------------------------------------------------------||
D#|---------------------------------------------------------------------------||
A#|---------------------------------------------------------------------------||
F |---------------------------------------------------------------------------||
A#|---12p0-0-0-0-0-12p10-0-10h13p0------12p0-0-0-0-0-12-12b-b-b-b-b-----------||

Outro (Clean Guitar):

C |---------------------------------------------------------------------------||
G |---------------------------------------------------------------------------||
D#|---14-14-14-14-14-14----101010101010---5-5-5-5-5-5----7-7-7-7-7-7----------||
A#|---12-12-12-12-12-12----8-8-8-8-8-8----3-3-3-3-3-3----5-5-5-5-5-5----------||
F |---12-12-12-12-12-12----8-8-8-8-8-8----3-3-3-3-3-3----5-5-5-5-5-5----------||
A#|---12-12-12-12-12-12----8-8-8-8-8-8----3-3-3-3-3-3----5-5-5-5-5-5----------|| Fades Out

6.PANIC PRONE

Intro (Clean guitar - requires syncopation.  Play along with the song!):

          * hit ghost notes after every 2nd zero
C |-----------------------------------------------------------------------------||
G |-----------------------------------------------------------------------------||
D#|-----------------------------------------------------------------------------||
A#|----0-0-0-0--0-0-0-0--0-0-0-0--0-0-0-0--0-0-0-0--0-0-0-0--0-0-0-0--0-0-0-0---||
F |---2--(2)---2--(2)---------------------2--(2)---2--(2)-----------------------||
A#|---------------------5--(5)---5--(5)---------------------5--(5)---5--(5)-----|| x2

Verse 1:

C |-----------------------------------------------------------------------------||
G |-----------------------------------------------------------------------------||
D#|-----------------------------------------------------------------------------||
A#|----0-0-0-0--0-0-0-0--0-0-0-0--0-0-0-0--0-0-0-0--0-0-0-0--0-0-0-0--0-0-0-0---||
F |---2--(2)---2--(2)---------------------2--(2)---2--(2)-----------------------||
A#|---------------------5--(5)---5--(5)---------------------5--(5)---5--(5)-----||

2nd time through, play this:

C |-----------------------------------------------------------------------------||
G |-----------------------------------------------------------------------------||
D#|-----------------------------------------------------------------------------||
A#|----0-0-0-0--0-0-0-0--0-0-0-0--0-0-0-0--0-0-0-0--0-0-0-0--0-0-0-0--0-0-0-0---||
F |---2--(2)---2--(2)---------------------2--(2)---2--(2)-----------------------||
A#|---------------------5--(5)---7--(7)---------------------5--(5)---5--(5)-----||

Chorus 1:

C |-----------------------------------------------------------------------------||
G |-----------------------------------------------------------------------------||
D#|-----------------------------------------------------------------------------||
A#|----0-0-0-0--0-0-0-0--0-0-0-0--0-0-0-0--9-9-9-9--9-9-9-9--9-9-9-9--7-7-7-7---||
F |-----------------------------------------------------------------------------||
A#|---0--(0)---0--(0)---0--(0)---0--(0)---9--(9)---9--(9)---9--(9)---7--(7)-----||

C |-----------------------------------------------------------------------------||
G |-----------------------------------------------------------------------------||
D#|-----------------------------------------------------------------------------||
A#|----5-5-5-5--5-5-5-5--5-5-5-5--5-5-5-5--7-7-7-7--7-7-7-7--7-7-7-7--8-8-8-8---||
F |-----------------------------------------------------------------------------||
A#|---5--(5)---5--(5)---5--(5)---5--(5)---7--(7)---7--(7)---7--(7)---8--(8)-----||

Verse 2:

C |-----------------------------------------------------------------------------||
G |-----------------------------------------------------------------------------||
D#|-----------------------------------------------------------------------------||
A#|----0-0-0-0--0-0-0-0--0-0-0-0--0-0-0-0--0-0-0-0--0-0-0-0--0-0-0-0--0-0-0-0---||
F |---2--(2)---2--(2)---------------------2--(2)---2--(2)-----------------------||
A#|---------------------5--(5)---5--(5)---------------------5--(5)---5--(5)-----||

C |-----------------------------------------------------------------------------||
G |-----------------------------------------------------------------------------||
D#|-----------------------------------------------------------------------------||
A#|----0-0-0-0--0-0-0-0--0-0-0-0--0-0-0-0--0-0-0-0--0-0-0-0--0-0-0-0--0-0-0-0---||
F |---2--(2)---2--(2)---------------------2--(2)---2--(2)-----------------------||
A#|---------------------5--(5)---7--(7)---------------------5--(5)---5--(5)-----|| x2

Chorus 2:

C |-----------------------------------------------------------------------------||
G |-----------------------------------------------------------------------------||
D#|-----------------------------------------------------------------------------||
A#|----0-0-0-0--0-0-0-0--0-0-0-0--0-0-0-0--9-9-9-9--9-9-9-9--9-9-9-9--7-7-7-7---||
F |-----------------------------------------------------------------------------||
A#|---0--(0)---0--(0)---0--(0)---0--(0)---9--(9)---9--(9)---9--(9)---7--(7)-----||

C |-----------------------------------------------------------------------------||
G |-----------------------------------------------------------------------------||
D#|-----------------------------------------------------------------------------||
A#|----5-5-5-5--5-5-5-5--5-5-5-5--5-5-5-5--9-9-9-9--9-9-9-9--9-9-9-9--7-7-7-7---||
F |-----------------------------------------------------------------------------||
A#|---5--(5)---5--(5)---5--(5)---5--(5)---9--(9)---9--(9)---9--(9)---7--(7)-----||

2nd time through play this:
                                                    (These are 12's) *
C |-----------------------------------------------------------------------------||
G |-----------------------------------------------------------------------------||
D#|-----------------------------------------------------------------------------||
A#|----0-0-0-0--0-0-0-0--0-0-0-0--0-0-0-0--9-9-9-9--9-9-9-9--9-9-9-9--12121212--||
F |-----------------------------------------------------------------------------||
A#|---0--(0)---0--(0)---0--(0)---0--(0)---9--(9)---9--(9)---9--(9)---12-(12)----||

C |-----------------------------------------------------------------------------||
G |-----------------------------------------------------------------------------||
D#|-----------------------------------------------------------------------------||
A#|----5-5-5-5--5-5-5-5--5-5-5-5--5-5-5-5--7-7-7-7--7-7-7-7--7-7-7-7--8-8-8-8---||
F |-----------------------------------------------------------------------------||
A#|---5--(5)---5--(5)---5--(5)---5--(5)---7--(7)---7--(7)---7--(7)---8--(8)-----||

Breakdown (Distorted):

C |-----------------------------------------------------------------------------||
G |-----------------------------------------------------------------------------||
D#|--------------11~~------------------11~~----------------7~~----------7~~-----||
A#|---7h9-9-9-0--9----------7h9-9-9-0--9----------5--5-5-5-5---5--5-5-5-5-------||
F |---7h9-9-9-0--9----------7h9-9-9-0--9----------5--5-5-5-5---5--5-5-5-5-------||
A#|---7h9-9-9-0--9----------7h9-9-9-0--9----------5--5-5-5-5---5--5-5-5-5-------|| x4

Chorus 3 (Distorted Guitar with Acoustic Oversample.  Acoustic plays same chords):

C |-----------------------------------------------------------------------------||
G |-----------------------------------------------------------------------------||
D#|-----------------------------------------------------------------------------||
A#|---0-0-0-0-0-0-0-0-0-0-0-0-0-0-0-0-0---9-9-9-9-9-9-9-9-9-9-9-9--7-7-7-7-7----||
F |---0-0-0-0-0-0-0-0-0-0-0-0-0-0-0-0-0---9-9-9-9-9-9-9-9-9-9-9-9--7-7-7-7-7----||
A#|---0-0-0-0-0-0-0-0-0-0-0-0-0-0-0-0-0---9-9-9-9-9-9-9-9-9-9-9-9--7-7-7-7-7----||

C |-----------------------------------------------------------------------------||
G |-----------------------------------------------------------------------------||
D#|-----------------------------------------------------------------------------||
A#|---5-5-5-5-5-5-5-5-5-5-5-5-5-5-5-5-5---9-9-9-9-9-9-9-9-9-9-9-9--7-7-7-7-7----||
F |---5-5-5-5-5-5-5-5-5-5-5-5-5-5-5-5-5---9-9-9-9-9-9-9-9-9-9-9-9--7-7-7-7-7----||
A#|---5-5-5-5-5-5-5-5-5-5-5-5-5-5-5-5-5---9-9-9-9-9-9-9-9-9-9-9-9--7-7-7-7-7----||

2nd time through play this:

C |-----------------------------------------------------------------------------||
G |-----------------------------------------------------------------------------||
D#|-----------------------------------------------------------------------------||
A#|---0-0-0-0-0-0-0-0-0-0-0-0-0-0-0-0-0---9-9-9-9-9-9-9-9-9-9-9-9--7-7-7-7-7----||
F |---0-0-0-0-0-0-0-0-0-0-0-0-0-0-0-0-0---9-9-9-9-9-9-9-9-9-9-9-9--7-7-7-7-7----||
A#|---0-0-0-0-0-0-0-0-0-0-0-0-0-0-0-0-0---9-9-9-9-9-9-9-9-9-9-9-9--7-7-7-7-7----||

C |-----------------------------------------------------------------------------||
G |-----------------------------------------------------------------------------||
D#|-----------------------------------------------------------------------------||
A#|---5-5-5-5-5-5-5-5-5-5-5-5-5-5-5-5-5---7-7-7-7-7-7-7-7-7-7-7-7--8-8-8-8-8----||
F |---5-5-5-5-5-5-5-5-5-5-5-5-5-5-5-5-5---7-7-7-7-7-7-7-7-7-7-7-7--8-8-8-8-8----||
A#|---5-5-5-5-5-5-5-5-5-5-5-5-5-5-5-5-5---7-7-7-7-7-7-7-7-7-7-7-7--8-8-8-8-8----||

Outro (Let the chord ring and the rest is all harmonic feedback):

C |-----------------------------------------------------------------------------||
G |-----------------------------------------------------------------------------||
D#|-----------------------------------------------------------------------------||
A#|---9~~~~~--------------------------------------------------------------------||
F |---9~~~~~--------------------------------------------------------------------||
A#|---9~~~~~--------------------------------------------------------------------||

7.ANOTHER KNOW IT ALL

C#------------------------------------------------------------------------|
G#------------------------------------------------------------------------|
E-------------------------------------------------------------------------|
B---12-12-12-12-12-12-12-12-12-12-12-12-3-3-3-3-3-3-3-3-5-5-5-5-3-3-0-0-0-|
F#--12-12-12-12-12-12-12-12-12-12-12-12-3-3-3-3-3-3-3-3-5-5-5-5-3-3-0-0-0-|
B---12-12-12-12-12-12-12-12-12-12-12-12-3-3-3-3-3-3-3-3-5-5-5-5-3-3-0-0-0-|

C#------------------------------------------------------------------------|
G#------------------------------------------------------------------------|
E-------------------------------------------------------------------------|
B---12-12-12-12-12-12-12-12-12-12-12-12-3-3-3-3-3-3-3-3-5-5-5-5-3-3-0-0-0-|
F#--12-12-12-12-12-12-12-12-12-12-12-12-3-3-3-3-3-3-3-3-5-5-5-5-3-3-0-0-0-|
B---12-12-12-12-12-12-12-12-12-12-12-12-3-3-3-3-3-3-3-3-5-5-5-5-3-3-0-0-0-|

C#------------------------------------------------------------------------|
G#------------------------------------------------------------------------|
E-------------------------------------------------------------------------|
B---12-12-12-12-12-12-12-12-12-12-12-12-3-3-3-3-3-3-3-3-5-5-5-5-3-3-0-0-0-|
F#--12-12-12-12-12-12-12-12-12-12-12-12-3-3-3-3-3-3-3-3-5-5-5-5-3-3-0-0-0-|
B---12-12-12-12-12-12-12-12-12-12-12-12-3-3-3-3-3-3-3-3-5-5-5-5-3-3-0-0-0-|

C#----------------------------------------------------------------------|
G#----------------------------------------------------------------------|
E-----------------------------------------------------------------------|
B---12-12-12-12-12-12-12-12-12-12-12-12-3-3-3-3-3-3-3-3-3-3-2-2-2-2-2-2-|
F#--12-12-12-12-12-12-12-12-12-12-12-12-3-3-3-3-3-3-3-3-3-3-2-2-2-2-2-2-|
B---12-12-12-12-12-12-12-12-12-12-12-12-3-3-3-3-3-3-3-3-3-3-2-2-2-2-2-2-|

C#-------------------------------------------------|
G#-------------------------------------------------|
E--------------------------------------------------|
B---3h5-0---0--3h5-0---0--3h5-0---0--3h5-0--2h3-0--|
F#--3h5-0---0--3h5-0---0--3h5-0---0--3h5-0--2h3-0--|
B---3h5-0---0--3h5-0---0--3h5-0---0--3h5-0--2h3-0--|

C#-------------------------------------------------|
G#-------------------------------------------------|
E--------------------------------------------------|
B---3h5-0---0--3h5-0---0--3h5-0---0--3h5-0--2h3-0--|
F#--3h5-0---0--3h5-0---0--3h5-0---0--3h5-0--2h3-0--|
B---3h5-0---0--3h5-0---0--3h5-0---0--3h5-0--2h3-0--|

C#-------------------------------------------------|
G#-------------------------------------------------|
E--------------------------------------------------|
B-------8*----------------------8*-----------------|
F#------8*----------------------8*-----------------|
B-------8*----------------------8*-----------------|

C#-------------------------------------------------|
G#-------------------------------------------------|
E--------------------------------------------------|
B---3h5-0---0--3h5-0---0--3h5-0---0--3h5-0--2h3-0--|
F#--3h5-0---0--3h5-0---0--3h5-0---0--3h5-0--2h3-0--|
B---3h5-0---0--3h5-0---0--3h5-0---0--3h5-0--2h3-0--|

C#-------------------------------------------------|
G#-------------------------------------------------|
E--------------------------------------------------|
B---3h5-0---0--3h5-0---0--3h5-0---0--3h5-0--2h3-0--|
F#--3h5-0---0--3h5-0---0--3h5-0---0--3h5-0--2h3-0--|
B---3h5-0---0--3h5-0---0--3h5-0---0--3h5-0--2h3-0--|

C#-------------------------------------------------|
G#-------------------------------------------------|
E--------------------------------------------------|
B---3h5-0---0--3h5-0---0--3h5-0---0--3h5-0--2h3-0--|
F#--3h5-0---0--3h5-0---0--3h5-0---0--3h5-0--2h3-0--|
B---3h5-0---0--3h5-0---0--3h5-0---0--3h5-0--2h3-0--|

C#-------------------------------------------------|
G#-------------------------------------------------|
E--------------------------------------------------|
B---3h5-0---0--3h5-0---0--3h5-0---0--3h5-0--2h3-0--|
F#--3h5-0---0--3h5-0---0--3h5-0---0--3h5-0--2h3-0--|
B---3h5-0---0--3h5-0---0--3h5-0---0--3h5-0--2h3-0--|

C#------------------------------------------------------------------------|
G#------------------------------------------------------------------------|
E-------------------------------------------------------------------------|
B---12-12-12-12-12-12-12-12-12-12-12-12-3-3-3-3-3-3-3-3-5-5-5-5-3-3-0-0-0-|
F#--12-12-12-12-12-12-12-12-12-12-12-12-3-3-3-3-3-3-3-3-5-5-5-5-3-3-0-0-0-|
B---12-12-12-12-12-12-12-12-12-12-12-12-3-3-3-3-3-3-3-3-5-5-5-5-3-3-0-0-0-|

C#------------------------------------------------------------------------|
G#------------------------------------------------------------------------|
E-------------------------------------------------------------------------|
B---12-12-12-12-12-12-12-12-12-12-12-12-3-3-3-3-3-3-3-3-5-5-5-5-3-3-0-0-0-|
F#--12-12-12-12-12-12-12-12-12-12-12-12-3-3-3-3-3-3-3-3-5-5-5-5-3-3-0-0-0-|
B---12-12-12-12-12-12-12-12-12-12-12-12-3-3-3-3-3-3-3-3-5-5-5-5-3-3-0-0-0-|

C#------------------------------------------------------------------------|
G#------------------------------------------------------------------------|
E-------------------------------------------------------------------------|
B---12-12-12-12-12-12-12-12-12-12-12-12-3-3-3-3-3-3-3-3-5-5-5-5-3-3-0-0-0-|
F#--12-12-12-12-12-12-12-12-12-12-12-12-3-3-3-3-3-3-3-3-5-5-5-5-3-3-0-0-0-|
B---12-12-12-12-12-12-12-12-12-12-12-12-3-3-3-3-3-3-3-3-5-5-5-5-3-3-0-0-0-|

C#----------------------------------------------------------------------|
G#----------------------------------------------------------------------|
E-----------------------------------------------------------------------|
B---12-12-12-12-12-12-12-12-12-12-12-12-3-3-3-3-3-3-3-3-3-3-2-2-2-2-2-2-|
F#--12-12-12-12-12-12-12-12-12-12-12-12-3-3-3-3-3-3-3-3-3-3-2-2-2-2-2-2-|
B---12-12-12-12-12-12-12-12-12-12-12-12-3-3-3-3-3-3-3-3-3-3-2-2-2-2-2-2-|

C#-------------------------------------------------|
G#-------------------------------------------------|
E--------------------------------------------------|
B---3h5-0---0--3h5-0---0--3h5-0---0--3h5-0--2h3-0--|
F#--3h5-0---0--3h5-0---0--3h5-0---0--3h5-0--2h3-0--|
B---3h5-0---0--3h5-0---0--3h5-0---0--3h5-0--2h3-0--|

C#-------------------------------------------------|
G#-------------------------------------------------|
E--------------------------------------------------|
B---3h5-0---0--3h5-0---0--3h5-0---0--3h5-0--2h3-0--|
F#--3h5-0---0--3h5-0---0--3h5-0---0--3h5-0--2h3-0--|
B---3h5-0---0--3h5-0---0--3h5-0---0--3h5-0--2h3-0--|

C#-------------------------------------------------|
G#-------------------------------------------------|
E--------------------------------------------------|
B-------8*----------------------8*-----------------|
F#------8*----------------------8*-----------------|
B-------8*----------------------8*-----------------|

C#-------------------------------------------------|
G#-------------------------------------------------|
E--------------------------------------------------|
B---3h5-0---0--3h5-0---0--3h5-0---0--3h5-0--2h3-0--|
F#--3h5-0---0--3h5-0---0--3h5-0---0--3h5-0--2h3-0--|
B---3h5-0---0--3h5-0---0--3h5-0---0--3h5-0--2h3-0--|

C#-------------------------------------------------|
G#-------------------------------------------------|
E--------------------------------------------------|
B---3h5-0---0--3h5-0---0--3h5-0---0--3h5-0--2h3-0--|
F#--3h5-0---0--3h5-0---0--3h5-0---0--3h5-0--2h3-0--|
B---3h5-0---0--3h5-0---0--3h5-0---0--3h5-0--2h3-0--|

C#-------------------------------------------------|
G#-------------------------------------------------|
E--------------------------------------------------|
B---3h5-0---0--3h5-0---0--3h5-0---0--3h5-0--2h3-0--|
F#--3h5-0---0--3h5-0---0--3h5-0---0--3h5-0--2h3-0--|
B---3h5-0---0--3h5-0---0--3h5-0---0--3h5-0--2h3-0--|

C#-------------------------------------------------|
G#-------------------------------------------------|
E--------------------------------------------------|
B---3h5-0---0--3h5-0---0--3h5-0---0--3h5-0--2h3-0--|
F#--3h5-0---0--3h5-0---0--3h5-0---0--3h5-0--2h3-0--|
B---3h5-0---0--3h5-0---0--3h5-0---0--3h5-0--2h3-0--|

C#------------------------------------------------------------------------|
G#------------------------------------------------------------------------|
E-------------------------------------------------------------------------|
B---12-12-12-12-12-12-12-12-12-12-12-12-3-3-3-3-3-3-3-3-5-5-5-5-3-3-0-0-0-|
F#--12-12-12-12-12-12-12-12-12-12-12-12-3-3-3-3-3-3-3-3-5-5-5-5-3-3-0-0-0-|
B---12-12-12-12-12-12-12-12-12-12-12-12-3-3-3-3-3-3-3-3-5-5-5-5-3-3-0-0-0-|

C#------------------------------------------------------------------------|
G#------------------------------------------------------------------------|
E-------------------------------------------------------------------------|
B---12-12-12-12-12-12-12-12-12-12-12-12-3-3-3-3-3-3-3-3-5-5-5-5-3-3-0-0-0-|
F#--12-12-12-12-12-12-12-12-12-12-12-12-3-3-3-3-3-3-3-3-5-5-5-5-3-3-0-0-0-|
B---12-12-12-12-12-12-12-12-12-12-12-12-3-3-3-3-3-3-3-3-5-5-5-5-3-3-0-0-0-|

C#------------------------------------------------------------------------|
G#------------------------------------------------------------------------|
E-------------------------------------------------------------------------|
B---12-12-12-12-12-12-12-12-12-12-12-12-3-3-3-3-3-3-3-3-5-5-5-5-3-3-0-0-0-|
F#--12-12-12-12-12-12-12-12-12-12-12-12-3-3-3-3-3-3-3-3-5-5-5-5-3-3-0-0-0-|
B---12-12-12-12-12-12-12-12-12-12-12-12-3-3-3-3-3-3-3-3-5-5-5-5-3-3-0-0-0-|

C#----------------------------------------------------------------------|
G#----------------------------------------------------------------------|
E-----------------------------------------------------------------------|
B---12-12-12-12-12-12-12-12-12-12-12-12-3-3-3-3-3-3-3-3-3-3-2-2-2-2-2-2-|
F#--12-12-12-12-12-12-12-12-12-12-12-12-3-3-3-3-3-3-3-3-3-3-2-2-2-2-2-2-|
B---12-12-12-12-12-12-12-12-12-12-12-12-3-3-3-3-3-3-3-3-3-3-2-2-2-2-2-2-|

C#---------------------------------------------------------------------|
G#---------------------------------------------------------------------|
E--------------10-10-10-10-10-10-10-10-------------10-10-10-10-9-9-9-9-|
B---0--0--0--0--x--x--x--x--x--x--x--x--0--0--0--0--x--x--x--x-x-x-x-x-|
F#--0--0--0--0--8--8--8--8--8--8--8--8--0--0--0--0--8--8--8--8-7-7-7-7-|
B---0--0--0--0--------------------------0--0--0--0---------------------|
    .  .  .  .                          .  .  .  .
C#-------------------------------------------------------------------------|
G#-------------------------------------------------------------------------|
E--------------10-10-10-10-10-10-10-10-------------10-10-10-10-13-13-13-13-|
B---0--0--0--0--x--x--x--x--x--x--x--x--0--0--0--0--x--x--x--x--x--x--x--x-|
F#--0--0--0--0--8--8--8--8--8--8--8--8--0--0--0--0--8--8--8--8-11-11-11-11-|
B---0--0--0--0--------------------------0--0--0--0-------------------------|
    .  .  .  .                          .  .  .  .
C#---------------------------------------------------------------------|
G#---------------------------------------------------------------------|
E--------------10-10-10-10-10-10-10-10-------------10-10-10-10-9-9-9-9-|
B---0--0--0--0--x--x--x--x--x--x--x--x--0--0--0--0--x--x--x--x-x-x-x-x-|
F#--0--0--0--0--8--8--8--8--8--8--8--8--0--0--0--0--8--8--8--8-7-7-7-7-|
B---0--0--0--0--------------------------0--0--0--0---------------------|
    .  .  .  .                          .  .  .  .
C#-------------------------------------------------------------------------|
G#-------------------------------------------------------------------------|
E--------------10-10-10-10-10-10-10-10-------------10-10-10-10-13-13-13-13-|
B---0--0--0--0--x--x--x--x--x--x--x--x--0--0--0--0--x--x--x--x--x--x--x--x-|
F#--0--0--0--0--8--8--8--8--8--8--8--8--0--0--0--0--8--8--8--8-11-11-11-11-|
B---0--0--0--0--------------------------0--0--0--0-------------------------|
    .  .  .  .                          .  .  .  .
C#-----------------------------------------------------------------------------|
G#-----------------------------------------------------------------------------|
E------------------10-10-10-10-10-10-10-10-----------------10-10-10-10-9-9-9-9-|
B---0-0--0-0-0-0-0--x--x--x--x--x--x--x--x--0-0--0-0-0-0-0--x--x--x--x-x-x-x-x-|
F#--0-0--0-0-0-0-0--8--8--8--8--8--8--8--8--0-0--0-0-0-0-0--8--8--8--8-7-7-7-7-|
B---0-0--0-0-0-0-0--------------------------0-0--0-0-0-0-0---------------------|
    . .  . . . . .                          . .  . . . . .
C#---------------------------------------------------------------------------------|
G#---------------------------------------------------------------------------------|
E------------------10-10-10-10-10-10-10-10-----------------10-10-10-10-13-13-13-13-|
B---0-0--0-0-0-0-0--x--x--x--x--x--x--x--x--0-0--0-0-0-0-0--x--x--x--x--x--x--x--x-|
F#--0-0--0-0-0-0-0--8--8--8--8--8--8--8--8--0-0--0-0-0-0-0--8--8--8--8-11-11-11-11-|
B---0-0--0-0-0-0-0--------------------------0-0--0-0-0-0-0-------------------------|
    . .  . . . . .                          . .  . . . . .

C#-----------------------------------------------------------------------------|
G#-----------------------------------------------------------------------------|
E------------------10-10-10-10-10-10-10-10-----------------10-10-10-10-9-9-9-9-|
B---0-0--0-0-0-0-0--x--x--x--x--x--x--x--x--0-0--0-0-0-0-0--x--x--x--x-x-x-x-x-|
F#--0-0--0-0-0-0-0--8--8--8--8--8--8--8--8--0-0--0-0-0-0-0--8--8--8--8-7-7-7-7-|
B---0-0--0-0-0-0-0--------------------------0-0--0-0-0-0-0---------------------|
    . .  . . . . .                          . .  . . . . .
C#--------------------------------------------------------------------------|
G#--------------------------------------------------------------------------|
E------------------10-10-10-10-10-10-10-10----------------------------------|
B---0-0--0-0-0-0-0--x--x--x--x--x--x--x--x--3-3-x-x-x-x-x-x-5-5-x-x-x-x-x-x-|
F#--0-0--0-0-0-0-0--8--8--8--8--8--8--8--8--3-3-x-x-x-x-x-x-5-5-x-x-x-x-x-x-|
B---0-0--0-0-0-0-0--------------------------3-3-x-x-x-x-x-x-5-5-x-x-x-x-x-x-|
    . .  . . . . .
C#------------------------------------------------------------------------|
G#------------------------------------------------------------------------|
E-------------------------------------------------------------------------|
B---12-12-12-12-12-12-12-12-12-12-12-12-3-3-3-3-3-3-3-3-5-5-5-5-3-3-0-0-0-|
F#--12-12-12-12-12-12-12-12-12-12-12-12-3-3-3-3-3-3-3-3-5-5-5-5-3-3-0-0-0-|
B---12-12-12-12-12-12-12-12-12-12-12-12-3-3-3-3-3-3-3-3-5-5-5-5-3-3-0-0-0-|

C#------------------------------------------------------------------------|
G#------------------------------------------------------------------------|
E-------------------------------------------------------------------------|
B---12-12-12-12-12-12-12-12-12-12-12-12-3-3-3-3-3-3-3-3-5-5-5-5-3-3-0-0-0-|
F#--12-12-12-12-12-12-12-12-12-12-12-12-3-3-3-3-3-3-3-3-5-5-5-5-3-3-0-0-0-|
B---12-12-12-12-12-12-12-12-12-12-12-12-3-3-3-3-3-3-3-3-5-5-5-5-3-3-0-0-0-|

C#------------------------------------------------------------------------|
G#------------------------------------------------------------------------|
E-------------------------------------------------------------------------|
B---12-12-12-12-12-12-12-12-12-12-12-12-3-3-3-3-3-3-3-3-5-5-5-5-3-3-0-0-0-|
F#--12-12-12-12-12-12-12-12-12-12-12-12-3-3-3-3-3-3-3-3-5-5-5-5-3-3-0-0-0-|
B---12-12-12-12-12-12-12-12-12-12-12-12-3-3-3-3-3-3-3-3-5-5-5-5-3-3-0-0-0-|

C#------------------------------------------------------------------------|
G#------------------------------------------------------------------------|
E-------------------------------------------------------------------------|
B---12-12-12-12-12-12-12-12-12-12-12-12-3-3-3-3-3-3-3-3-5-5-5-5-3-3-0-0-0-|
F#--12-12-12-12-12-12-12-12-12-12-12-12-3-3-3-3-3-3-3-3-5-5-5-5-3-3-0-0-0-|
B---12-12-12-12-12-12-12-12-12-12-12-12-3-3-3-3-3-3-3-3-5-5-5-5-3-3-0-0-0-|

C#------------------------------------------------------------------------|
G#------------------------------------------------------------------------|
E-------------------------------------------------------------------------|
B---12-12-12-12-12-12-12-12-12-12-12-12-3-3-3-3-3-3-3-3-5-5-5-5-3-3-0-0-0-|
F#--12-12-12-12-12-12-12-12-12-12-12-12-3-3-3-3-3-3-3-3-5-5-5-5-3-3-0-0-0-|
B---12-12-12-12-12-12-12-12-12-12-12-12-3-3-3-3-3-3-3-3-5-5-5-5-3-3-0-0-0-|

C#------------------------------------------------------------------------|
G#------------------------------------------------------------------------|
E-------------------------------------------------------------------------|
B---12-12-12-12-12-12-12-12-12-12-12-12-3-3-3-3-3-3-3-3-5-5-5-5-3-3-0-0-0-|
F#--12-12-12-12-12-12-12-12-12-12-12-12-3-3-3-3-3-3-3-3-5-5-5-5-3-3-0-0-0-|
B---12-12-12-12-12-12-12-12-12-12-12-12-3-3-3-3-3-3-3-3-5-5-5-5-3-3-0-0-0-|

C#------------------------------------------------------------------------|
G#------------------------------------------------------------------------|
E-------------------------------------------------------------------------|
B---12-12-12-12-12-12-12-12-12-12-12-12-3-3-3-3-3-3-3-3-5-5-5-5-3-3-0-0-0-|
F#--12-12-12-12-12-12-12-12-12-12-12-12-3-3-3-3-3-3-3-3-5-5-5-5-3-3-0-0-0-|
B---12-12-12-12-12-12-12-12-12-12-12-12-3-3-3-3-3-3-3-3-5-5-5-5-3-3-0-0-0-|

C#---------------------------------------------------------------|
G#---------------------------------------------------------------|
E----------------------------------------------------------------|
B---12-12-12-12-12-12-12-12-12-12-12-12-3-3--3-3--3-3--2-2--2--2-|
F#--12-12-12-12-12-12-12-12-12-12-12-12-3-3--3-3--3-3--2-2--2--2-|
B---12-12-12-12-12-12-12-12-12-12-12-12-3-3--3-3--3-3--2-2--2--2-|

C#-------------------------------------------------|
G#-------------------------------------------------|
E--------------------------------------------------|
B---3h5-0---0--3h5-0---0--3h5-0---0--3h5-0--2h3-0--|
F#--3h5-0---0--3h5-0---0--3h5-0---0--3h5-0--2h3-0--|
B---3h5-0---0--3h5-0---0--3h5-0---0--3h5-0--2h3-0--|

C#-------------------------------------------------|
G#-------------------------------------------------|
E--------------------------------------------------|
B---3h5-0---0--3h5-0---0--3h5-0---0--3h5-0--2h3-0--|
F#--3h5-0---0--3h5-0---0--3h5-0---0--3h5-0--2h3-0--|
B---3h5-0---0--3h5-0---0--3h5-0---0--3h5-0--2h3-0--|

C#-------------------------------------------------------|
G#-------------------------------------------------------|
E--------------------------------------------------------|
B---3h5-0--xxxx--3h5-0--xxxx--3h5-0--xxxx--3h5-0--2h3-0--|
F#--3h5-0--xxxx--3h5-0--xxxx--3h5-0--xxxx--3h5-0--2h3-0--|
B---3h5-0--xxxx--3h5-0--xxxx--3h5-0--xxxx--3h5-0--2h3-0--|

C#-------------------------------------------------------|
G#-------------------------------------------------------|
E--------------------------------------------------------|
B---3h5-0--xxxx--3h5-0--xxxx--3h5-0--xxxx--3h5-0--2h3-0--|       (Fade Out)
F#--3h5-0--xxxx--3h5-0--xxxx--3h5-0--xxxx--3h5-0--2h3-0--|
B---3h5-0--xxxx--3h5-0--xxxx--3h5-0--xxxx--3h5-0--2h3-0--|

8.TUG O WAR

|---------------|---------------|---------------|---------------|
|---------------|---------------|---------------|---------------|
|---------------|---------------|---------------|---------------|
|---------------|---------------|---------------|---------------|
|---------9-8-8-|---------9-8-8-|---------9-8-8-|---------4-4-4-|
|-0-0-0-0-------|-0-0-0-0-------|-0-0-0-0-------|-0-0-0-0-------|
  * * * * * * *   * * * * * * *   * * * * * * *   * * * * * * *

|---------------|---------------|---------------|---------------|
|---------------|---------------|---------------|---------------|
|---------------|---------------|---------------|---------------|
|---------------|---------------|---------------|---------------|
|---------6-5-5-|---------6-5-5-|---------6-5-5-|---------3-3-3-|
|-0-0-0-0-------|-0-0-0-0-------|-0-0-0-0-------|-0-0-0-0-------|
  * * * * * * *   * * * * * * *   * * * * * * *   * * * * * * *

|---------------|---------------|---------------|---------------|
|---------------|---------------|---------------|---------------|
|---------------|---------------|---------------|---------------|
|---------------|---------------|---------------|---------------|
|---------9-8-8-|---------9-8-8-|---------9-8-8-|---------4-4-4-|
|-0-0-0-0-------|-0-0-0-0-------|-0-0-0-0-------|-0-0-0-0-------|
  * * * * * * *   * * * * * * *   * * * * * * *   * * * * * * *

|---------------|---------------|---------------|-----------|
|---------------|---------------|---------------|-----------|
|---------------|---------------|---------------|-----------|
|---------------|---------------|---------------|-----------|
|---------6-5-5-|---------6-5-5-|---------6-5-5-|---------3-|
|-0-0-0-0-------|-0-0-0-0-------|-0-0-0-0-------|-0-0-0-0---|
  * * * * * * *   * * * * * * *   * * * * * * *   * * * *

|--------------|--------------|--------------|-------|
|--------------|--------------|--------------|-------|
|-----11-10-10-|-----11-10-10-|-----11-10-10-|-----6-|
|-0-0-11-10-10-|-0-0-11-10-10-|-0-0-11-10-10-|-0-0-6-|
|-0-0--9--8--8-|-0-0--9--8--8-|-0-0--9--8--8-|-0-0-4-|
|-0-0----------|-0-0----------|-0-0----------|-0-0---|

|-----------|-----------|-----------|-----------|
|-----------|-----------|-----------|-----------|
|-----8-7-7-|-----8-7-7-|-----8-7-7-|-5-5-5-5---|
|-0-0-8-7-7-|-0-0-8-7-7-|-0-0-8-7-7-|-5-5-5-5-3-|
|-0-0-6-5-5-|-0-0-6-5-5-|-0-0-6-5-5-|-3-3-3-3-3-|
|-0-0-------|-0-0-------|-0-0-------|---------3-|

|---------------|---------------|---------------|---------------|
|---------------|---------------|---------------|---------------|
|---------------|---------------|---------------|---------------|
|---------------|---------------|---------------|---------------|
|---------9-8-8-|---------9-8-8-|---------9-8-8-|---------4-4-4-|
|-0-0-0-0-------|-0-0-0-0-------|-0-0-0-0-------|-0-0-0-0-------|
  * * * * * * *   * * * * * * *   * * * * * * *   * * * * * * *

|---------------|---------------|---------------|---------------|
|---------------|---------------|---------------|---------------|
|---------------|---------------|---------------|---------------|
|---------------|---------------|---------------|---------------|
|---------6-5-5-|---------6-5-5-|---------6-5-5-|---------3-3-3-|
|-0-0-0-0-------|-0-0-0-0-------|-0-0-0-0-------|-0-0-0-0-------|
  * * * * * * *   * * * * * * *   * * * * * * *   * * * * * * *

|---------------|---------------|---------------|---------------|
|---------------|---------------|---------------|---------------|
|---------------|---------------|---------------|---------------|
|---------------|---------------|---------------|---------------|
|---------9-8-8-|---------9-8-8-|---------9-8-8-|---------4-4-4-|
|-0-0-0-0-------|-0-0-0-0-------|-0-0-0-0-------|-0-0-0-0-------|
  * * * * * * *   * * * * * * *   * * * * * * *   * * * * * * *

|---------------|---------------|---------------|---------------|
|---------------|---------------|---------------|---------------|
|---------------|---------------|---------------|---------------|
|---------------|---------------|---------------|---------------|
|---------6-5-5-|---------6-5-5-|---------6-5-5-|---------3-3-3-|
|-0-0-0-0-------|-0-0-0-0-------|-0-0-0-0-------|-0-0-0-0-------|
  * * * * * * *   * * * * * * *   * * * * * * *   * * * * * * *

|---------------|---------------|---------------|---------------|
|---------------|---------------|---------------|---------------|
|---------------|---------------|---------------|---------------|
|---------------|---------------|---------------|---------------|
|-0-0-0-0-9-8-8-|-0-0-0-0-9-8-8-|-0-0-0-0-9-8-8-|-0-0-0-0-4-4-4-|
|-0-0-0-0-------|-0-0-0-0-------|-0-0-0-0-------|-0-0-0-0-------|


|---------------|---------------|---------------|---------------|
|---------------|---------------|---------------|---------------|
|---------------|---------------|---------------|---------------|
|---------------|---------------|---------------|---------------|
|-0-0-0-0-6-5-5-|-0-0-0-0-6-5-5-|-0-0-0-0-6-5-5-|-0-0-0-0-3-3-3-|
|-0-0-0-0-------|-0-0-0-0-------|-0-0-0-0-------|-0-0-0-0-------|

|---------------|---------------|---------------|---------------|
|---------------|---------------|---------------|---------------|
|---------------|---------------|---------------|---------------|
|---------------|---------------|---------------|---------------|
|-0-0-0-0-9-8-8-|-0-0-0-0-9-8-8-|-0-0-0-0-9-8-8-|-0-0-0-0-4-4-4-|
|-0-0-0-0-------|-0-0-0-0-------|-0-0-0-0-------|-0-0-0-0-------|

|---------------|---------------|---------------|-----------|
|---------------|---------------|---------------|-----------|
|---------------|---------------|---------------|-----------|
|---------------|---------------|---------------|---------3-|
|-0-0-0-0-6-5-5-|-0-0-0-0-6-5-5-|-0-0-0-0-6-5-5-|-0-0-0-0-1-|
|-0-0-0-0-------|-0-0-0-0-------|-0-0-0-0-------|-0-0-0-0---|

|-----------------|-----------------|-----------------|-----------------|
|-----------------|-----------------|-----------------|-----------------|
|-----------------|-----------------|-----------------|-----------------|
|-----------------|-----------------|-----------------|-----------------|
|-3h5-5-5-5-5-5-5-|-3h5-5-5-5-5-5-5-|-3h5-5-5-5-5-5-5-|-5h6-6-6-6-6-6-6-|
|-----------------|-----------------|-----------------|-----------------|
  * * * * * * * *   * * * * * * * *   * * * * * * * *   * * * * * * * *

|-----------------|-----------------|-----------------|-------|
|-----------------|-----------------|-----------------|-------|
|-----------------|-----------------|-----------------|-8-3-3-|
|-----------------|-----------------|-----------------|-8-3-3-|
|-3h5-5-5-5-5-5-5-|-3h5-5-5-5-5-5-5-|-3h5-5-5-5-5-5-5-|-6-1-1-|
|-----------------|-----------------|-----------------|-------|
  * * * * * * * *   * * * * * * * *   * * * * * * * *

|-----------------------------------|-----------------------------------|
|-----------------------------------|-----------------------------------|
|-2-2-2-2--2-2-2-2------------------|-2-2-2-2--2-2-2-2------------------|
|-2-2-2-2--2-2-2-2-3-3-3-3--3-3-3-3-|-2-2-2-2--2-2-2-2-3-3-3-3--3-3-3-3-|
|-0-0-0-0--0-0-0-0-3-3-3-3--3-3-3-3-|-0-0-0-0--0-0-0-0-3-3-3-3--3-3-3-3-|
|------------------3-3-3-3--3-3-3-3-|------------------3-3-3-3--3-3-3-3-|

|-------------|-------------|-----------------|
|-------------|-------------|-----------------|
|-------------|-------------|-----------------|
|-0-0-0-0-----|-0-0-0-0-----|-----------------|
|-0-0-0-0-9p8-|-0-0-0-0-9p8-|-9p8-9p8-9p8-9p8-|
|-0-0-0-0-----|-0-0-0-0-----|-----------------|

|--------------|--------------|--------------|-------|
|--------------|--------------|--------------|-------|
|-----11-10-10-|-----11-10-10-|-----11-10-10-|-----6-|
|-0-0-11-10-10-|-0-0-11-10-10-|-0-0-11-10-10-|-0-0-6-|
|-0-0--9--8--8-|-0-0--9--8--8-|-0-0--9--8--8-|-0-0-4-|
|-0-0----------|-0-0----------|-0-0----------|-0-0---|

|-----------|-----------|-----------|-----------|
|-----------|-----------|-----------|-----------|
|-----8-7-7-|-----8-7-7-|-----8-7-7-|-5-5-5-5---|
|-0-0-8-7-7-|-0-0-8-7-7-|-0-0-8-7-7-|-5-5-5-5-3-|
|-0-0-6-5-5-|-0-0-6-5-5-|-0-0-6-5-5-|-3-3-3-3-3-|
|-0-0-------|-0-0-------|-0-0-------|---------3-|

|---------------|---------------|---------------|---------------|
|---------------|---------------|---------------|---------------|
|---------------|---------------|---------------|---------------|
|---------------|---------------|---------------|---------------|
|---------9-8-8-|---------9-8-8-|---------9-8-8-|---------4-4-4-|
|-0-0-0-0-------|-0-0-0-0-------|-0-0-0-0-------|-0-0-0-0-------|
  * * * * * * *   * * * * * * *   * * * * * * *   * * * * * * *

|---------------|---------------|---------------|---------------|
|---------------|---------------|---------------|---------------|
|---------------|---------------|---------------|---------------|
|---------------|---------------|---------------|---------------|
|---------6-5-5-|---------6-5-5-|---------6-5-5-|---------3-3-3-|
|-0-0-0-0-------|-0-0-0-0-------|-0-0-0-0-------|-0-0-0-0-------|
  * * * * * * *   * * * * * * *   * * * * * * *   * * * * * * *

|---------------|---------------|---------------|---------------|
|---------------|---------------|---------------|---------------|
|---------------|---------------|---------------|---------------|
|---------------|---------------|---------------|---------------|
|---------9-8-8-|---------9-8-8-|---------9-8-8-|---------4-4-4-|
|-0-0-0-0-------|-0-0-0-0-------|-0-0-0-0-------|-0-0-0-0-------|
  * * * * * * *   * * * * * * *   * * * * * * *   * * * * * * *

|---------------|---------------|---------------|---------------|
|---------------|---------------|---------------|---------------|
|---------------|---------------|---------------|---------------|
|---------------|---------------|---------------|---------------|
|---------6-5-5-|---------6-5-5-|---------6-5-5-|---------3-3-3-|
|-0-0-0-0-------|-0-0-0-0-------|-0-0-0-0-------|-0-0-0-0-------|
  * * * * * * *   * * * * * * *   * * * * * * *   * * * * * * *

|---------------|---------------|---------------|---------------|
|---------------|---------------|---------------|---------------|
|---------------|---------------|---------------|---------------|
|---------------|---------------|---------------|---------------|
|-0-0-0-0-9-8-8-|-0-0-0-0-9-8-8-|-0-0-0-0-9-8-8-|-0-0-0-0-4-4-4-|
|-0-0-0-0-------|-0-0-0-0-------|-0-0-0-0-------|-0-0-0-0-------|


|---------------|---------------|---------------|---------------|
|---------------|---------------|---------------|---------------|
|---------------|---------------|---------------|---------------|
|---------------|---------------|---------------|---------------|
|-0-0-0-0-6-5-5-|-0-0-0-0-6-5-5-|-0-0-0-0-6-5-5-|-0-0-0-0-3-3-3-|
|-0-0-0-0-------|-0-0-0-0-------|-0-0-0-0-------|-0-0-0-0-------|

|---------------|---------------|---------------|---------------|
|---------------|---------------|---------------|---------------|
|---------------|---------------|---------------|---------------|
|---------------|---------------|---------------|---------------|
|-0-0-0-0-9-8-8-|-0-0-0-0-9-8-8-|-0-0-0-0-9-8-8-|-0-0-0-0-4-4-4-|
|-0-0-0-0-------|-0-0-0-0-------|-0-0-0-0-------|-0-0-0-0-------|


|---------------|---------------|---------------|-----------|
|---------------|---------------|---------------|-----------|
|---------------|---------------|---------------|-----------|
|---------------|---------------|---------------|---------3-|
|-0-0-0-0-6-5-5-|-0-0-0-0-6-5-5-|-0-0-0-0-6-5-5-|-0-0-0-0-1-|
|-0-0-0-0-------|-0-0-0-0-------|-0-0-0-0-------|-0-0-0-0---|

|-----------------|-----------------|-----------------|-----------------|
|-----------------|-----------------|-----------------|-----------------|
|-----------------|-----------------|-----------------|-----------------|
|-----------------|-----------------|-----------------|-----------------|
|-3h5-5-5-5-5-5-5-|-3h5-5-5-5-5-5-5-|-3h5-5-5-5-5-5-5-|-5h6-6-6-6-6-6-6-|
|-----------------|-----------------|-----------------|-----------------|
  * * * * * * * *   * * * * * * * *   * * * * * * * *   * * * * * * * *

|-----------------|-----------------|-----------------|-------|
|-----------------|-----------------|-----------------|-------|
|-----------------|-----------------|-----------------|-8-3-3-|
|-----------------|-----------------|-----------------|-8-3-3-|
|-3h5-5-5-5-5-5-5-|-3h5-5-5-5-5-5-5-|-3h5-5-5-5-5-5-5-|-6-1-1-|
|-----------------|-----------------|-----------------|-------|
   * * * * * * * *  * * * * * * * *   * * * * * * * *

|-----------------------------------|-----------------------------------|
|-----------------------------------|-----------------------------------|
|-2-2-2-2--2-2-2-2------------------|-2-2-2-2--2-2-2-2------------------|
|-2-2-2-2--2-2-2-2-3-3-3-3--3-3-3-3-|-2-2-2-2--2-2-2-2-3-3-3-3--3-3-3-3-|
|-0-0-0-0--0-0-0-0-3-3-3-3--3-3-3-3-|-0-0-0-0--0-0-0-0-3-3-3-3--3-3-3-3-|
|------------------3-3-3-3--3-3-3-3-|------------------3-3-3-3--3-3-3-3-|

|-0-0-0-0-0-0-0-0-0-0-0-0-|-0-0-0-0-0-0-0-0-0-0-0-0-|
|-5-5-5-5-5-5-5-5-5-5-5-5-|-5-5-5-5-5-5-5-5-5-5-5-5-|
|-2-2-2-2-2-2-2-3-x-x-x-x-|-2-2-2-2-2-2-2-3-x-x-x-x-|
|-0-0-0-0---------3-3-3-3-|-0-0-0-0---------3-3-3-3-|
|-0-0-0-0---------3-3-3-3-|-0-0-0-0---------3-3-3-3-|
|-----------------3-3-3-3-|-----------------3-3-3-3-|

|-0-0-0-0-0-0-0-0-0-0-0-0-|-0-0-0-0-0-0-0-0-0-0-0-0-|
|-5-5-5-5-5-5-5-5-5-5-5-5-|-5-5-5-5-5-5-5-5-5-5-5-5-|
|-2-2-2-2-2-2-2-3-x-x-x-x-|-2-2-2-2-2-2-2-3-x-x-x-x-|
|-0-0-0-0---------3-3-3-3-|-0-0-0-0---------3-3-3-3-|
|-0-0-0-0---------3-3-3-3-|-0-0-0-0---------3-3-3-3-|
|-----------------3-3-3-3-|-----------------3-3-3-3-|


|-----------------------------------|-----------------------------------|
|-----------------------------------|-----------------------------------|
|-2-2-2-2--2-2-2-2------------------|-2-2-2-2--2-2-2-2------------------|
|-2-2-2-2--2-2-2-2-3-3-3-3--3-3-3-3-|-2-2-2-2--2-2-2-2-3-3-3-3--3-3-3-3-|
|-0-0-0-0--0-0-0-0-3-3-3-3--3-3-3-3-|-0-0-0-0--0-0-0-0-3-3-3-3--3-3-3-3-|
|------------------3-3-3-3--3-3-3-3-|------------------3-3-3-3--3-3-3-3-|

|-----------------------------------|-----------------------------------|
|-----------------------------------|-----------------------------------|
|-2-2-2-2--2-2-2-2------------------|-2-2-2-2--2-2-2-2------------------|
|-2-2-2-2--2-2-2-2-3-3-3-3--3-3-3-3-|-2-2-2-2--2-2-2-2-3-3-3-3--3-3-3-3-|
|-0-0-0-0--0-0-0-0-3-3-3-3--3-3-3-3-|-0-0-0-0--0-0-0-0-3-3-3-3--3-3-3-3-|
|------------------3-3-3-3--3-3-3-3-|------------------3-3-3-3--3-3-3-3-|

|-------------------------------------------------------------------------|
|-------------------------------------------------------------------------|
|-------------------------------------------------------------------------|
|-------------------------------------------------------------------------|
|-3h5-5-5-5-5-5-5-5-5-5-5-5-5-5-5-5-3h5-5-5-5-5-5-5-5-5-6-6-6-6-6-6-6-6-6-|
|-------------------------------------------------------------------------|
  * * * * * * * * * * * * * * * * * * * * * * * * * * * * * * * * * * * *

|-----------------------------------------------------------|
|-----------------------------------------------------------|
|-----------------------------------------------------8-3-3-|
|-----------------------------------------------------8-3-3-|
|-3h5-5-5-5-5-5-5-5-5-5-5-5-5-5-5-5-3h5-5-5-5-5-5-5-5-6-1-1-|
|-----------------------------------------------------------|
  * * * * * * * * * * * * * * * * * * * * * * * * * *

|-----------------|-----------------|-----------------|-----------------|
|-----------------|-----------------|-----------------|-----------------|
|-5/7-7-7-7-7-7-7-|-5/7-7-7-7-7-7-7-|-5/7-7-7-7-7-7-7-|-8-8-8-8-8-8-8-8-|
|-5/7-7-7-7-7-7-7-|-5/7-7-7-7-7-7-7-|-5/7-7-7-7-7-7-7-|-8-8-8-8-8-8-8-8-|
|-3/5-5-5-5-5-5-5-|-3/5-5-5-5-5-5-5-|-3/5-5-5-5-5-5-5-|-6-6-6-6-6-6-6-6-|
|-----------------|-----------------|-----------------|-----------------|

|-----------------|-----------------|-----------------|-------|
|-----------------|-----------------|-----------------|-------|
|-5/7-7-7-7-7-7-7-|-5/7-7-7-7-7-7-7-|-5/7-7-7-7-7-7-7-|-8-3-3-|
|-5/7-7-7-7-7-7-7-|-5/7-7-7-7-7-7-7-|-5/7-7-7-7-7-7-7-|-8-3-3-|
|-3/5-5-5-5-5-5-5-|-3/5-5-5-5-5-5-5-|-3/5-5-5-5-5-5-5-|-6-1-1-|
|-----------------|-----------------|-----------------|-------|

|-----------------|-----------------|-----------------|-----------------|
|-----------------|-----------------|-----------------|-----------------|
|-5/7-7-7-7-7-7-7-|-5/7-7-7-7-7-7-7-|-5/7-7-7-7-7-7-7-|-8-8-8-8-8-8-8-8-|
|-5/7-7-7-7-7-7-7-|-5/7-7-7-7-7-7-7-|-5/7-7-7-7-7-7-7-|-8-8-8-8-8-8-8-8-|
|-3/5-5-5-5-5-5-5-|-3/5-5-5-5-5-5-5-|-3/5-5-5-5-5-5-5-|-6-6-6-6-6-6-6-6-|
|-----------------|-----------------|-----------------|-----------------|

|-----------------|-----------------|-----------------|-------|
|-----------------|-----------------|-----------------|-------|
|-5/7-7-7-7-7-7-7-|-5/7-7-7-7-7-7-7-|-5/7-7-7-7-7-7-7-|-8-3-3-|
|-5/7-7-7-7-7-7-7-|-5/7-7-7-7-7-7-7-|-5/7-7-7-7-7-7-7-|-8-3-3-|
|-3/5-5-5-5-5-5-5-|-3/5-5-5-5-5-5-5-|-3/5-5-5-5-5-5-5-|-6-1-1-|
|-----------------|-----------------|-----------------|-------|

|----|
|----|
|-2~-|
|-2~-|
|-0~-|
|----|

9.TO RETURN

Don't Know

10.EMOTIONAL DROUGHT

A# F A# D# G C


1x
------------------------------------------------------|
------------------------------------------------------|
----------------------------------------------------5-|
----------------------------------------5-x-5-x-3-x-5-|
------0353530------0353530------0353530-5-x-5-x-3-x-3-|
-0000---------0000---------0000---------5-x-5-x-3-x---|

3x
----------------------------------|
----------------------------------|
--------------------------------5-|
-0-0-0-0-10-12-10-12-10-5-x-3-x-5-|
-0-0-0-0-10-12-10-12-10-5-x-3-x-3-|
-0-0-0-0-10-12-10-12-10-5-x-3-x---|

1x
--------------------------------------|
--------------------------------------|
------------------------------------5-|
-0-0-0-0-10-12-10-12-10-5-x-5-x-3-x-5-|
-0-0-0-0-10-12-10-12-10-5-x-5-x-3-x-3-|
-0-0-0-0-10-12-10-12-10-5-x-5-x-3-x---|

2x
-----------------|
-----------------|
-----------------|
-----------------|
-------555333331-|
-000000----------|

8x
-----------------|
-----------------|
-----------------|
-----------------|
-------555333331-|
-000000----------|
 ***************

1x
------------------------------------------------------|
------------------------------------------------------|
----------------------------------------------------5-|
----------------------------------------5-x-5-x-3-x-5-|
------0353530------0353530------0353530-5-x-5-x-3-x-3-|
-0000---------0000---------0000---------5-x-5-x-3-x---|

3x
----------------------------------|
----------------------------------|
--------------------------------5-|
-0-0-0-0-10-12-10-12-10-5-x-3-x-5-|
-0-0-0-0-10-12-10-12-10-5-x-3-x-3-|
-0-0-0-0-10-12-10-12-10-5-x-3-x---|

1x
--------------------------------------|
--------------------------------------|
------------------------------------5-|
-0-0-0-0-10-12-10-12-10-5-x-5-x-3-x-5-|
-0-0-0-0-10-12-10-12-10-5-x-5-x-3-x-3-|
-0-0-0-0-10-12-10-12-10-5-x-5-x-3-x---|

2x
-----------------|
-----------------|
-----------------|
-----------------|
-------555333331-|
-000000----------|

8x
-----------------|
-----------------|
-----------------|
-----------------|
-------555333331-|
-000000----------|
 ***************

1x
------------------------------------------------------|
------------------------------------------------------|
----------------------------------------------------5-|
----------------------------------------5-x-5-x-3-x-5-|
------0353530------0353530------0353530-5-x-5-x-3-x-3-|
-0000---------0000---------0000---------5-x-5-x-3-x---|

3x
----------------------------------|
----------------------------------|
--------------------------------5-|
-0-0-0-0-10-12-10-12-10-5-x-3-x-5-|
-0-0-0-0-10-12-10-12-10-5-x-3-x-3-|
-0-0-0-0-10-12-10-12-10-5-x-3-x---|

1x
--------------------------------------|
--------------------------------------|
------------------------------------5-|
-0-0-0-0-10-12-10-12-10-5-x-5-x-3-x-5-|
-0-0-0-0-10-12-10-12-10-5-x-5-x-3-x-3-|
-0-0-0-0-10-12-10-12-10-5-x-5-x-3-x---|

1x
----------------------------------------|
----------------------------------------|
----9~----9~-(9999999)----9~----9~------|
-0~-9~-0~-9~------------0~-9~-0~-9~-0~--|
-0~-0~-0~-0~------------0~-0~-0~-0~-0~--|
-0~----0~---------------0~----0~----0~--|

8x
--------------------------|
---5-6-5-6-5----5-6-5-6-5-|
-7------------7-----------|
--------------------------|
--------------------------|
--------------------------|
 * * * * * *  * * * * * *

4x
--------------------------------|
--------------------------------|
-5-x-----5-x-9-x-5-x-----5-7s87-|
-5-x-7-x-5-x-9-x-5-x-7-x-5-7s87-|
-3-x-7-x-3-x-7-x-3-x-7-x-3-5s65-|
-----7-x-------------7-x--------|

4x
----------------------------------|
----------------------------------|
-5s22222-5s22222-5s22222-5s22-----|
-5s22222-5s22222-5s22222-5s22-555-|
-3s00000-3s00000-3s00000-3s00-555-|
------------------------------555-|


1x (Feedback or pedal, not sure, but it\'s awesome)
------------------------------------------------------|
------------------------------------------------------|
----------------------------------------------------5-|
----------------------------------------5-x-5-x-3-x-5-|
------0353530------0353530------0353530-5-x-5-x-3-x-3-|
-0000---------0000---------0000---------5-x-5-x-3-x---|

3x
----------------------------------|
----------------------------------|
--------------------------------5-|
-0-0-0-0-10-12-10-12-10-5-x-3-x-5-|
-0-0-0-0-10-12-10-12-10-5-x-3-x-3-|
-0-0-0-0-10-12-10-12-10-5-x-3-x---|

1x
--------------------------------------|
--------------------------------------|
------------------------------------5-|
-0-0-0-0-10-12-10-12-10-5-x-5-x-3-x-5-|
-0-0-0-0-10-12-10-12-10-5-x-5-x-3-x-3-|
-0-0-0-0-10-12-10-12-10-5-x-5-x-3-x---|

3x
----------------------------------|
----------------------------------|
--------------------------------5-|
-0-0-0-0-10-12-10-12-10-5-x-3-x-5-|
-0-0-0-0-10-12-10-12-10-5-x-3-x-3-|
-0-0-0-0-10-12-10-12-10-5-x-3-x---|

1x
--------------------------------------|
--------------------------------------|
------------------------------------5-|
-0-0-0-0-10-12-10-12-10-5-x-5-x-3-x-5-|
-0-0-0-0-10-12-10-12-10-5-x-5-x-3-x-3-|
-0-0-0-0-10-12-10-12-10-5-x-5-x-3-x---|

end on
----
----
----
-0~-
-0~-
-0~-

11.BEND THE BRACKET

Intro

----------------------------------------|
------------------------------------0---|
-8------------------0---------0---------|
-8-Strum-It---8---8-----8---8-----8---8-|
-6--------------------------------------|
-6----------7---7-----7---7-----7-------|

--------------------------------|
--------------------0---------0-|
-8------------------------------|
-8-Strum-It---8---8-----8---8---|
-6------------------------------|
-6----------7---7-----7---7-----|

Verse

---------------------------|
---------------------------|
-8----------/11------------|
-8-Strum-It-/11-9-Strum It-| 4x
-6----------/9--9----------|
-6----------/9--7----------|

Chorus

--------------------------------------------|
--------------------------------------------|
-9----------6----------4---------6----------|
-9-Strum-It-6-Strum-It-4-Stum It-6-Strum-It-|
-7----------4----------2---------4----------|
-7----------4--------------------4----------|

------------------------------------|
------------------------------------|
-9----------6----------4----------6-|
-9-Strum-It-6-Strum-It-4-Strum-It-6-|
-7----------4----------2----------4-|
-7----------4---------------------4-|

Intro
Verse
Chorus

Break Down

----------------------------------------|
----------------------------------------|
-8------------------0---------0-----0---|
-8-Strum-It---8---8-----8---8-----8---8-|
-6--------------------------------------|
-6----------7---7-----7---7-----7-------|
                                          4x
-----------------------------------|
-----------------------------------|
-6----------4----------3-3-3-------|
-6-Strum-It-4-Strum-It-3-3-3-3-3-3-|
-4----------2----------0-0-0-3-3-3-|
-4---------------------------0-0-0-|

Verse 4x
Chorus 2x

Fade out with Intro
comments
print report bad tab
5 comments total. Showing first comments.
0 reply
My-Own-Summer wrote on February 9 2005, 12:00 am

Very nice job... i bet that took a long time! Lots of props man!

0 reply
BlinkMM182 wrote on September 15 2005, 12:00 am

awesome tab...though some songs are missing tunings.

0 reply
nolifemusician wrote on April 14 2006, 06:37 pm

im just wondering,
why is your album tab diffrent from your seprate tabs

I want to post or [tab]
guest
You may want to rate the tab now too:
select rating
Please do not post tabs as comments. Select "correction" instead!