Oops, an error
Loading. Please wait.

Wonder Whats Next Tab

ver1
ver1

Album

Whole song

Interactive

More versions @911Tabs.com
12,227 views 9 this week
1 commentread comment
1 2 3 4 5
accurate
x 2
Autoscroll
+/-
esc
set tempo
stop
Contributor
Hey! There's an official Ultimate Guitar app which is ideal
for learning songs when you're away from computer. Get the app
WARNING: You are trying to view
                                    content from Ultimate-Guitar.com
                                    in an unauthorized application,
                                    which is prohibited.

                                    Please use an official Ultimate
                                    Guitar Tabs application for iPhone,
                                    iPad or Android to access legitimate
                                    chords, guitar, bass, and drum tabs
                                    from Ultimate-Guitar.com database.

                                    Type "ultimate guitar tabs" in Apple
                                    App Store's or Android Market's
                                    search to find the application.
Band- Chevelle
Album- Wonder What's Next

1.FAMILY SYSTEM

Intro:
|---------------------------------------------------------0-|
|--------0-------------0---------------0--------------------|
|--4-4-4---4-4-4--4-4-4----4-4-4-4-4-4-----4-4-4--4-4-5-5---|
|-----------------------------------------------------------|X2
|-----------------------------------------------------------|
|-----------------------------------------------------------|


|-------------------------------------------------0--|
|-------0---0-------0---0--------0---0--------0------|
|-4-4-4---5----4-4-4--5----4-4-4---5----4-4-4---5----|
|----------------------------------------------------|x2
|----------------------------------------------------|
|----------------------------------------------------|

Riff 1
|-------------------------------------------------------|
|-------------------------------------------------------|
|-------------------------------------------------------|
|-0-0----------------------0-0-------------------0-0-0--|
|-0-0----------------------0-0-------------------0-0-0--|
|-0-0--0-7-3-0-6-3-0-3-6-000-0-(0)-7-3-0-6p3-0h3-0-0-0--|
       . . . . . . . . . ..

------------------------------------------------|
------------------------------------------------|
------------------------------------------------|
---------------------0-0------------------------|
---------------------0-0------------(ding-ding)-|
-0-7-3-0-6-3-0-3-6-000-0-0-7-3-0-6--------------|
 . . . . . . . . . ..


Riff 2 (sounds best if the x's are muted around the 4th fret)
|---------------------------|----------------x-x-x-x-|
|---------------------------|----------------x-x-x-x-|
|---------------------------|----------------x-x-x-x-|
|-7-3-0-7-3-0-6-3-0-3-6-0---|-7-3-0-7-3-0-6--x-x-x-x-|
|-7-3-0-7-3-0-6-3-0-3-6-0---|-7-3-0-7-3-0-6----------|
|-7-3-0-7-3-0-6-3-0-3-6-0---|-7-3-0-7-3-0-6----------|


Riff 3a: Verse 1

|--------x-x-x-x---------------------x-x-x-x-|
|--------x-x-x-x---------------------x-x-x-x-|
|--------x-x-x-x---------------------x-x-x-x-|
|-3-3-33-x-x-x-x-3-3-3\5-5555-0-0-00-x-x-x-x-|
|-3-3-33-x-x-x-x-3-3-3\5-5555-0-0-00-x-x-x-x-|
|-3-3-33-x-x-x-x-3-3-3\5-5555-0-0-00-x-x-x-x-|

--------------------x-x-x-x--------------|
--------------------x-x-x-x--------------|
--------------------x-x-x-x--------------|
-0-0-05-5555-3-3-33-x-x-x-x-3-3-3\5-5555-|
-0-0-05-5555-3-3-33-x-x-x-x-3-3-3\5-5555-|
-0-0-05-5555-3-3-33-x-x-x-x-3-3-3\5-5555-|


|----------------------------|----------------xxxx-|
|----------------------------|----------------xxxx-|
|----------------------------|----------------xxxx-|
|----------------------------|----------------xxxx-|
|----------------------------|---------------------|
|-7-3-0-7-3-0-*6-3-0-3-6-000-|-7-3-0-7-3-0-6*------|
  . . . . . .                  . . . . . .

Riff 3b Verse 2
|--------x-x-x---------------------x-x-x-|
|--------x-x-x---------------------x-x-x-|
|--------x-x-x---------------------x-x-x-|
|-3-3-33-x-x-x-3-3-3\5-5555-0-0-00-x-x-x-|
|-3-3-33-x-x-x-3-3-3\5-5555-0-0-00-x-x-x-|
|-3-3-33-x-x-x-3-3-3\5-5555-0-0-00-x-x-x-|


-------------------x-x-x-x--------------|
-------------------x-x-x-x--------------|
-------------------x-x-x-x--------------|
0-0-05-5555-3-3-33-x-x-x-x-3-3-3\5-5555-|
0-0-05-5555-3-3-33-x-x-x-x-3-3-3\5-5555-|
0-0-05-5555-3-3-33-x-x-x-x-3-3-3\5-5555-|


|--------------------------------------------------|
|---0---0---0------0---0--0----------0---0---0-----|
|-5---4---4------5---4--4----------5---4---4-------|
|-------------0---------------------------------0--|
|-------------0---------------------------------0--|
|-------------0--------------0-0-0--------------0--|
                             . . .

-------------------------------------------------------------------|
---0---0---0----------0---0---0------0---0---0-----------0---0---0-|
-5---4---4----------5---4---4------5---4---4-----------5---4---4---|
--------------0-0-0------------------------------------------------|
--------------0-0-0------------------------------------------------|
--------------0-0-0--------------0~-------------0-0-0~-------------|
               . . .

----------------------------|
------0---0---0---0---0---0-|
----5---4---4---5---4---4---|
----------------------------|
----------------------------|
-0~-------------------------|

Riff 5

|---------------------------------------------------------------|
|---------------------0---0---0-----------------------0---0---0-|
|-------------------5---4---4-----------------------5---4---4---|
|-3-3-33-3-3-33-3-3--------------0-0-00-0-0-00-0-0--------------|
|-3-3-33-3-3-33-3-3--------------0-0-00-0-0-00-0-0--------------|
|-3-3-33-3-3-33-3-3--------------0-0-00-0-0-00-0-0--------------|


Play the intro and then riff 1. and end with pick scrapes.
play riff 2 then to riff 6

Riff 6
|-0---------0---------0---------0-----------------|
|-3---------3---------3---------3---0-0-0-0-0-0-0-|
|-2---------2---------2---------2-----------------|
|-0--0-0-0--0--0-0-0--0--0-0-0--0-----------------|
|-0--0-0-0--0--0-0-0--0--0-0-0--0-----------------|
|-0--0-0-0--0--0-0-0--0--0-0-0--0-----------------|

Ending Riff
|----------x-x-x-x-----------------|
|----------x-x-x-x-----------------|
|----------x-x-x-x-----------------|
|-3-3-33-3-x-x-x-x-3-3-33\5-5555-0-|
|-3-3-33-3-x-x-x-x-3-3-33\5-5555-0-|
|-3-3-33-3-x-x-x-x-3-3-33\5-5555-0-|
                            ....
intro riff is the outro

2.COMFORTABLE LIAR

Tuning: C Sharp (C# F# B E G# C#)

Intro
						        1+3+4  2nd time
|------|-----------------------------------------------|------|--------|
|------|-----------------------------------------------|------|--------|
|------|-----------------------------------------------|------|--------|
|-X\\\-|-6--6-6----6-6-6-6-2--2-2-2--6--6-6----6-6-6-6-|----2-|----x-x-|
|-X\\\-|-6--6-6-7--6-6-6-6-2--2-2-2--6--6-6-7--6-6-6-6-|-2--2-|-2--x-x-|
|------|-4--4-4-0--4-4-4-4-0--0-0-0--4--4-4-0--4-4-4-4-|-0--0-|-0--x-x-|
  ^Pick Scrap					        PM     PM

Verse
|-----|----------------------------|
|-----|----------------------------|
|-----|----------------------------|
|-X\\-|-6--6-6----6-6-6-6-2--2-2-2-|
|-X\\-|-6--6-6-7--6-6-6-6-2--2-2-2-|
|-----|-4--4-4-0--4-4-4-4-0--0-0-0-|x7

|--------------------------|----------------------------|
|--------------------------|----------------------------|
|--------------------------|----------------------------|
|-6--6-6----6-6-6-6----x-x-|-6--6-6----6-6-6-6-2--2-2-2-|
|-6--6-6-7--6-6-6-6-2--x-x-|-6--6-6-7--6-6-6-6-2--2-2-2-|
|-4--4-4-0--4-4-4-4-0--x-x-|-4--4-4-0--4-4-4-4-0--0-0-0-|x4
		    PM

1st Chorus
|-------------|
|-------------|
|-------------|
|-2~~~~-6~~~~-|
|-2~~~~-6~~~~-|
|-0~~~~-4~~~~-|x2

Repeat Verse same way

2nd Chorus
|-------------------------------------------------|
|-------------------------------------------------|
|-------------------------------------------------|
|-2-----2-----2-----2-----2-----2-----2-----2-----|
|-2-----2-----2-----2-----2-----2-----2-----2-----|
|-0-0-0-0-0-0-0-0-0-0-0-0-0-0-0-0-0-0-0-0-0-0-0-0-|
    PM-   ---   ---   ---   ---   ---   ---   ---|

|-------------------------------------------------|
|-------------------------------------------------|
|-------------------------------------------------|
|-6-----6-----6-----6-----6-----6-----6-----6-----|
|-6-----6-----6-----6-----6-----6-----6-----6-----|
|-4-0-0-4-0-0-4-0-0-4-0-0-4-0-0-4-0-0-4-0-0-4-0-0-|
    PM-   ---   ---   ---   ---   ---   ---   ---|
Play both riffs 2 times total.

Bridge
	    x3
|-------------|--------|
|-------------|-----5b-|
|-------------|--------|
|-2~~~~-6~~~~-|-2~~~---|
|-2~~~~-6~~~~-|-2~~~---|
|-0~~~~-4~~~~-|-0~~~---|

			  x7
|----------------------------|---------------------|
|----------------------------|---------------------|
|----------------------------|---------------------|
|-6--6-6----6-6-6-6-2--2-2-2-|-6--6-6----6-6-6-6-2-|
|-6--6-6-7--6-6-6-6-2--2-2-2-|-6--6-6-7--6-6-6-6-2-|
|-4--4-4-0--4-4-4-4-0--0-0-0-|-4--4-4-0--4-4-4-4-0-|

Outro
|-------------------------------------------------|
|-------------------------------------------------|
|-------------------------------------------------|
|-2-----2-----2-----2-----2-----2-----2-----2-----|
|-2-----2-----2-----2-----2-----2-----2-----2-----|
|-0-0-0-0-0-0-0-0-0-0-0-0-0-0-0-0-0-0-0-0-0-0-0-0-|x4
    PM-   ---   ---   ---   ---   ---   ---   ---|

|----|
|----|
|----|
|-6/-|
|-6/-|
|-4/-|

3.SEND THE PAIN BELOW

Intro (0:00)
GTr.1 w/ Dist.
Rhy.Fig.1
C#----------------------------------------------------------------------------------|
G#----------------------Listn-For-Struming-Pattern----------------------------------|
E-----14------------11-----------------11--------------7----------------------------|
B-----X-------------9------------------X---------------5----------------------------|
F#----12------------9------------------9---------------5----------------------------|
B-----0-------I-----9------------------0---------------5----------------------------|

Verse Part A
Gtr.1 w/ Dist.
Rhy.Fig.2
(0:11)                                 (0:19)
C#--------------I--------------------I---0----------------I-------------------------|
G#--------------I--------------------I---0----------------I-------------------------|
E---11----------I--------------------I---0--Strum-Behind--I-------------------------|
B---X-----------I--------------------I---------Nut-With---I-------------------------|
F#--9-----------I--------------------I--------Feedback----I-------------------------|
B---0-----------I--------------------I--------------------I-------------------------|
                                      Feed Back Used Here
Verse Part B   (0:31),(1:34)
Gtr.1 w/o Dist.
Riff A
C#----------------------------------------------------------------------------------|
G#---------------------------Listen-For-Struming-Pattern----------------------------|
E----11-----------------------------------9-----------------------------------------|
B----X------------------------------------X-----------------------------------------|
F#---9------------------------------------7-----------------------------------------|
B-----------------------------------------------------------------------------------|

Pre-Chorus     (0:52),(1:54)
Gtr.1 w/o Dist.
Rhy.Fig.1
C#----------------------------------------------------------------------------------|
G#----------------------Listn-For-Struming-Pattern----------------------------------|
E-----14------------11-----------------11--------------7----------------------------|
B-----X-------------9------------------X---------------5----------------------------|
F#----12------------9------------------9---------------5----------------------------|
B-----0-------------9------------------0---------------5----------------------------|

Chorus        (1:13),(2:15)
Gtr.1 w/ Dist.
Rhy.Fig.1
C#----------------------------------------------------------------------------------|
G#----------------------Listn-For-Struming-Pattern----------------------------------|
E-----14------------11-----------------11--------------7----------------------------|
B-----X-------------9------------------X---------------5----------------------------|
F#----12------------9------------------9---------------5----------------------------|
B-----0-------------9------------------0---------------5----------------------------|

Bridge          (2:37)
Gtr.1 w/o Dist
Rhy.Fig.3
C#--------------------------------------------I-------------------------------------|
G#--------------------------------------------I-------------------------------------|
E---------------------------------------------I-------------------------------------|
B---0H2--2--2--2P0----0--0H5--5--5--5P0--0--0-I-------------------------------------|
F#--0H2--2--2--2P0----0--0H5--5--5--5P0--0--0-I-------------------------------------|
B---0H2--2--2--2P0----0--0H5--5--5--5P0--0--0-I-------------------------------------|

C#--------------------------------------------I-------------------------------------|
G#--------------------------------------------I-------------------------------------|
E---------------------------------------------I-------------------------------------|
B---0H2--2--2--2P0----0--0H5--5--5--5----4----I-------------------------------------|
F#--0H2--2--2--2P0----0--0H5--5--5--5----4----I-------------------------------------|
B---0H2--2--2--2P0----0--0H5--5--5--5----4----I-------------------------------------|

Gtr.1 w/ Dist  (2:41)
C#--------------------------------------------I-------------------------------------|
G#--------------------------------------------I-------------------------------------|
E---------------------------------------------I-------------------------------------|
B---0H2--2--2--2P0----0--0H5--5--5--5P0--0--0-I-------------------------------------|
F#--0H2--2--2--2P0----0--0H5--5--5--5P0--0--0-I-------------------------------------|
B---0H2--2--2--2P0----0--0H5--5--5--5P0--0--0-I-------------------------------------|

C#--------------------------------------------I-------------------------------------|
G#--------------------------------------------I-------------------------------------|
E---------------------------------------------I-------------------------------------|
B---0H2--2--2--2P0----0--0H5--5--5--5----4----I-------------------------------------|
F#--0H2--2--2--2P0----0--0H5--5--5--5----4----I-------------------------------------|
B---0H2--2--2--2P0----0--0H5--5--5--5----4----I-------------------------------------|

Fill.1        (2:47)
Gtr.1 w/ Dist.
C#---------------------------------------------|I
G#----Slowly-Bend-To-1/4-----------------------|I
E----------------------------------------------|I
B----------------------------------------------|I
F#---------------------------------------------|I
B-----2----------------------------------------|I

Gtr.1 w/ Dist   (2:48)
C#--------------------------------------------I-------------------------------------|
G#--------------------------------------------I-------------------------------------|
E---------------------------------------------I-------------------------------------|
B---0H2--2--2--2P0----0--0H5--5--5--5P0--0--0-I-------------------------------------|
F#--0H2--2--2--2P0----0--0H5--5--5--5P0--0--0-I-------------------------------------|
B---0H2--2--2--2P0----0--0H5--5--5--5P0--0--0-I-------------------------------------|

C#--------------------------------------------I-------------------------------------|
G#--------------------------------------------I-------------------------------------|
E---------------------------------------------I-------------------------------------|
B---0H2--2--2--2P0----0--0H5--5--5--5----4----I-------------------------------------|
F#--0H2--2--2--2P0----0--0H5--5--5--5----4----I-------------------------------------|
B---0H2--2--2--2P0----0--0H5--5--5--5----4----I-------------------------------------|

C#--------------------------------------------I-------------------------------------|
G#--------------------------------------------I-------------------------------------|
E---------------------------------------------I-------------------------------------|
B---0H2--2--2--2P0----0--0H5--5--5--5P0--0--0-I-------------------------------------|
F#--0H2--2--2--2P0----0--0H5--5--5--5P0--0--0-I-------------------------------------|
B---0H2--2--2--2P0----0--0H5--5--5--5P0--0--0-I-------------------------------------|

C#--------------------------------------------I-------------------------------------|
G#--------------------------------------------I-------------------------------------|
E---------------------------------------------I-------------------------------------|
B---0H2--2--2--2P0----0--0H5--5--5--5----4----I-------------------------------------|
F#--0H2--2--2--2P0----0--0H5--5--5--5----4----I-------------------------------------|
B---0H2--2--2--2P0----0--0H5--5--5--5----4----I-------------------------------------|

C#--------------------------------------------I-------------------------------------|
G#--------------------------------------------I-------------------------------------|
E---------------------------------------------I-------------------------------------|
B---0H2--2--2--2P0----0--0H5--5--5--5P0--0--0-I-------------------------------------|
F#--0H2--2--2--2P0----0--0H5--5--5--5P0--0--0-I-------------------------------------|
B---0H2--2--2--2P0----0--0H5--5--5--5P0--0--0-I-------------------------------------|

C#--------------------------------------------I-------------------------------------|
G#--------------------------------------------I-------------------------------------|
E---------------------------------------------I-------------------------------------|
B---0H2--2--2--2P0----0--0H5--5--5--5----4----I-------------------------------------|
F#--0H2--2--2--2P0----0--0H5--5--5--5----4----I-------------------------------------|
B---0H2--2--2--2P0----0--0H5--5--5--5----4----I-------------------------------------|

C#--------------------------------------------I-------------------------------------|
G#--------------------------------------------I-------------------------------------|
E---------------------------------------------I-------------------------------------|
B---0H2--2--2--2P0----0--0H5--5--5--5P0--0--0-I-------------------------------------|
F#--0H2--2--2--2P0----0--0H5--5--5--5P0--0--0-I-------------------------------------|
B---0H2--2--2--2P0----0--0H5--5--5--5P0--0--0-I-------------------------------------|
                                                Fill.1
C#--------------------------------------------I-------------------------------------|
G#--------------------------------------------I-------------------------------------|
E---------------------------------------------I----Slowly-Slide---------------------|
B---0H2--2--2--2P0----0--0H5--5--5--5----4----I-------------------------------------|
F#--0H2--2--2--2P0----0--0H5--5--5--5----4----I-------------------------------------|
B---0H2--2--2--2P0----0--0H5--5--5--5----4----I--2----------------------------------|

Outro-Chorus     (3:14)
Gtr.1 w/ Dist
Rhy.Fig.1
C#----------------------------------------------------------------------------------|
G#----------------------Listn-For-Struming-Pattern----------------------------------|
E-----14------------11-----------------11--------------7----------(11)--------------|
B-----X-------------9------------------X---------------5----------(X)---------------|
F#----12------------9------------------9---------------5----------(9)---------------|
B-----0-------------9------------------0---------------5----------------------------|

4.CLOSURE

 intro [play 2x]
|---------------------------------------------------------|
|---------------------------------------------------------|
|---7--x-x-x-x-10--x-x-x-x--9--x-x-x-x-10--9/10-----------|
|---x--x-x-x-x--x--x-x-x-x--x--x-x-x-x--x--x--x----0--0---|
|---5--x-x-x-x--8--x-x-x-x--7--x-x-x-x--8--7/-8----0--0---|
|---0--x-x-x-x--0--x-x-x-x--0--x-x-x-x--0--0--0----0--0---|


 verse 1 [play 4x]
|---------------------------------------------------------|
|---------------------------------------------------------|
|---7--x-x-x-x-10--x-x-x-x--9--x-x-x-x-10--9/10-----------|
|---x--x-x-x-x--x--x-x-x-x--x--x-x-x-x--x--x--x----0--0---|
|---5--x-x-x-x--8--x-x-x-x--7--x-x-x-x--8--7/-8----0--0---|
|---0--x-x-x-x--0--x-x-x-x--0--x-x-x-x--0--0--0----0--0---|

    breathe..   trust..     bless..
                climb..     hard..
	   closed..    off..
	   just..      bless..


 prechorus [play 3x]
|----------------------------------------------------------------|
|----------------------------------------------------------------|
|----------------------------------------------------------------|
|---3--3--5--3--0--3--3--5--3--0--5--5--7--5--0--5--5--7--5--0---|
|---3--3--5--3--0--3--3--5--3--0--5--5--7--5--0--5--5--7--5--0---|
|---3--3--5--3--0--3--3--5--3--0--5--5--7--5--0--5--5--7--5--0---|

  ..meeee          two sided time..


 chorus [play 4x]

 [note: strum the first chord a bunch of times, then play
  the middle transition once (as he's saying "closure has.."),
  then go into strumming the second chord a bunch of times]

|----------------------------------------------|
|----------------------------------------------|
|---10-10-10-10----10--9----10----10-10-10-10--|
|----x--x--x--x-----x--x--0--8----8--8--8--8---|
|----8--8--8--8-----8--7--0--8----8--8--8--8---|
|----0--0--0--0-----0--0--0--8----8--8--8--8---|

   ..the pain     closure has come..

 [note: cut distortion on here and leave it on for the rest of the song]

|----------------|
|----------------|
|----------------|
|---5--3--5--3---|
|---5--3--5--3---|
|---5--3--5--3---|
    m     m

  ..to meeee


 verse 2 [play 4x]
|---------------------------------------------------------|
|---------------------------------------------------------|
|---7--x-x-x-x-10--x-x-x-x--9--x-x-x-x-10--9/10-----------|
|---x--x-x-x-x--x--x-x-x-x--x--x-x-x-x--x--x--x----0--0---|
|---5--x-x-x-x--8--x-x-x-x--7--x-x-x-x--8--7/-8----0--0---|
|---0--x-x-x-x--0--x-x-x-x--0--x-x-x-x--0--0--0----0--0---|

  ..turn        lay..       down..
                phase..     out..
                go..        on..
                hold..      breath..


 prechorus [play 3x]
|----------------------------------------------------------------|
|----------------------------------------------------------------|
|----------------------------------------------------------------|
|---3--3--5--3--0--3--3--5--3--0--5--5--7--5--0--5--5--7--5--0---|
|---3--3--5--3--0--3--3--5--3--0--5--5--7--5--0--5--5--7--5--0---|
|---3--3--5--3--0--3--3--5--3--0--5--5--7--5--0--5--5--7--5--0---|

  ..ruptuuuure     three days aside..


 chorus [play 4x]
|---------------------------------------------|
|---------------------------------------------|
|---10-10-10-10----10--9----10---10-10-10-10--|
|----x--x--x--x-----x--x--0--8---8--8--8--8---|
|----8--8--8--8-----8--7--0--8---8--8--8--8---|
|----0--0--0--0-----0--0--0--8---8--8--8--8---|

   ..pride        closure has come..

|----------------|
|----------------|
|----------------|
|---5--3--5--3---|
|---5--3--5--3---|
|---5--3--5--3---|
    m     m

  ..to meeee


 verse 3 [play 1x]
 he changes the guitar on the second line in this verse
 why only in this verse? i dunno. he wanted to i guess.
|---------------------------------------------------------|
|---------------------------------------------------------|
|---7--x-x-x-x-10--x-x-x-x--9--x-x-x-x-10--9/10-----------|
|---x--x-x-x-x--x--x-x-x-x--x--x-x-x-x--x--x--x----0--0---|
|---5--x-x-x-x--8--x-x-x-x--7--x-x-x-x--8--7/-8----0--0---|
|---0--x-x-x-x--0--x-x-x-x--0--x-x-x-x--0--0--0----0--0---|

  ..leech       hold..      on..

|--------------------------------------------------------|
|--------------------------------------------------------|
|---7--x-x-x-x-10--x-x-x-x--9--x-x-x-x-12--12-12-12-12---|
|---x--x-x-x-x--x--x-x-x-x--x--x-x-x-x--x---x--x--x--x---|
|---5--x-x-x-x--8--x-x-x-x--7--x-x-x-x-10--10-10-10-10---|
|---0--x-x-x-x--0--x-x-x-x--0--x-x-x-x--0---0--0--0--0---|

                to..        some..

|---------------------------------------------------------|
|---------------------------------------------------------|
|---7--x-x-x-x-10--x-x-x-x--9--x-x-x-x-10--9/10-----------|
|---x--x-x-x-x--x--x-x-x-x--x--x-x-x-x--x--x--x----0--0---|
|---5--x-x-x-x--8--x-x-x-x--7--x-x-x-x--8--7/-8----0--0---|
|---0--x-x-x-x--0--x-x-x-x--0--x-x-x-x--0--0--0----0--0---|

	   cast..      off..

|---------------------------------------------------------|
|---------------------------------------------------------|
|---7--x-x-x-x-10--x-x-x-x--9--x-x-x-x-10--9/10-----------|
|---x--x-x-x-x--x--x-x-x-x--x--x-x-x-x--x--x--x----0--0---|
|---5--x-x-x-x--8--x-x-x-x--7--x-x-x-x--8--7/-8----0--0---|
|---0--x-x-x-x--0--x-x-x-x--0--x-x-x-x--0--0--0----0--0---|

	   now..       fail..


 prechorus [play 3x]
|----------------------------------------------------------------|
|----------------------------------------------------------------|
|----------------------------------------------------------------|
|---3--3--5--3--0--3--3--5--3--0--5--5--7--5--0--5--5--7--5--0---|
|---3--3--5--3--0--3--3--5--3--0--5--5--7--5--0--5--5--7--5--0---|
|---3--3--5--3--0--3--3--5--3--0--5--5--7--5--0--5--5--7--5--0---|

  ..meeee          forget closure..


 chorus [play 2x]
|---------------------------------------------|
|---------------------------------------------|
|---10-10-10-10----10--9----10---10-10-10-10--|
|----x--x--x--x-----x--x--0--8---8--8--8--8---|
|----8--8--8--8-----8--7--0--8---8--8--8--8---|
|----0--0--0--0-----0--0--0--8---8--8--8--8---|

   ..closuuure    closure has come..

|----------------|
|----------------|
|----------------|
|---5--3--5--3---|
|---5--3--5--3---|
|---5--3--5--3---|
    m     m

  ..to meeee


 chorus [play 2x]
|---------------------------------------------|
|---------------------------------------------|
|---10-10-10-10----10-10----10---10-10-10-10--|
|----x--x--x--x-----x--x--0--8---8--8--8--8---|
|----8--8--8--8-----8--7--0--8---8--8--8--8---|
|----0--0--0--0-----0--0--0--8---8--8--8--8---|

                  closure has come..

|----------------|
|----------------|
|----------------|
|---5--3--5--3---|
|---5--3--5--3---|
|---5--3--5--3---|
    m     m

  ..to meeee


 outro [play 1x]
|---------------------------------------------------------|
|---------------------------------------------------------|
|---10-10-10--9--9--9-------------------------------------|
|----x--x--x--x--x--x--x--7-7-7-7--7-3-3-3-3--------------|
|----8--8--8--7--7--7--x--7-7-7-7--7-3-3-3-3--------------|
|----0--0--0--0--0--0--x--7-7-7-7--7-3-3-3-3--3-0-0-0-0---|

     so breathe!

|----------------------------------------------------------|
|----------------------------------------------------------|
|---10-10-10--9--9--9--------------------------------------|
|----x--x--x--x--x--x--x--7-7-7-7--7-3-3-3-3--3-0-0-0--0---|
|----8--8--8--7--7--7--x--7-7-7-7--7-3-3-3-3--3-0-0-0--0---|
|----0--0--0--0--0--0--x--7-7-7-7--7-3-3-3-3--3-0-0-0--0---|
                                              m m m m
|---------------------------------------------------------|
|---------------------------------------------------------|
|---10-10-10--9--9--9-------------------------------------|
|----x--x--x--x--x--x--x--7-7-7-7--7-3-3-3-3--------------|
|----8--8--8--7--7--7--x--7-7-7-7--7-3-3-3-3--------------|
|----0--0--0--0--0--0--x--7-7-7-7--7-3-3-3-3--3-0-0-0-0---|

|---------------------------------------------------------|
|---------------------------------------------------------|
|---10-10-10--9--9--9-------------------------------------|
|----x--x--x--x--x--x--x--7-7-7-7--7-3-3-3-3--------------|
|----8--8--8--7--7--7--x--7-7-7-7--7-3-3-3-3--------------|
|----0--0--0--0--0--0--x--7-7-7-7--7-3-3-3-3--3-0-0-0-0---|

|---------------------------------------------------------|
|---------------------------------------------------------|
|---10-10-10--9--9--9-------------------------------------|
|----x--x--x--x--x--x--x--7-7-7-7--7-3-3-3-3--------------|
|----8--8--8--7--7--7--x--7-7-7-7--7-3-3-3-3--------------|
|----0--0--0--0--0--0--x--7-7-7-7--7-3-3-3-3--3-0-0-0-0---|

|----------------------------------------------------------|
|----------------------------------------------------------|
|---10-10-10--9--9--9--------------------------------------|
|----x--x--x--x--x--x--x--7-7-7-7--7-3-3-3-3--3-0-0-0--0---|
|----8--8--8--7--7--7--x--7-7-7-7--7-3-3-3-3--3-0-0-0--0---|
|----0--0--0--0--0--0--x--7-7-7-7--7-3-3-3-3--3-0-0-0--0---|
                                              m m m m

5.THE RED

Intro:
C#|-----------------------------------------------------|
G#|-----------------------------------------------------|
E |-----------------------------------------------------|
B |-------------5--5-5-5-5--------------10--------------|X2
F#|-7--7-9-7-0--5--5-5-5-5--7--7-9-7-0--10--10-10-10-10-|
C#|-0--0-0-0-0--3--3-0-3-0--0--0-0-0-0---8---8--0--8--0-|
    d  d u d u  d  d u d u  d  d u d u   d   d  u  d  u

1st Verse:
|----------------------------------------------------|
|----------------------------------------------------|
|----------------------------------------------------|
|-------------5-5(5)-5(5)----------------------------|
|--7---9-7-0--5-5(5)-5(5)-7-7-9-7-0--10--10-10-10-10-|
|--0---0-0-0--3-3p0--3p0--0-0-0-0-0---8---8--0--8--0-|
PM .   . . .  . . .  . .  . . . . .   .   .  .  .  .


-----------5-5(5)-5(5)-----------------------------|
7-7-9-7-0--5-5(5)-5(5)-7-7-9-7-0--10--10-10-10-10--|
0-0-0-0-0--3-3p0--3p0--0-0-0-0-0---8---8--0--8--0--|
. .   . .  . . .  . .  . .   . .   .   .  .  .  .


-----------5-5(5)-5(5)-----------------------------|
7-7-9-7-0--5-5(5)-5(5)-7-7-9-7-0--10--10-10-10-10--|
0-0-0-0-0--3-3p0--3p0--0-0-0-0-0---8---8--0--8--0--|
. .   . .  . . .  . .  . . . . .   .   .  .  .  .

-----------5-5(5)-5(5)---------9-10-|
7-7-9-7-0--5-5(5)-5(5)-7-7-9-7-9-10-|
0-0-0-0-0--3-3p0--3p0--0-0-0-0-7--8-|
. .   . .  . . .  . .  . .


Chorus: not all the strokes are noted, add some upstroke emphasis sometimes.
|-------------------------------------------|
|-------------------------------------------|
|------------------------------7--7-7-7--7--|
|-2---2-2-2-2--5---5-5-5-5-5---7--7-7-7--7--|
|-2---2-2-2-2--5---5-5-5-5-5---5--5-5-5--5--|
|-0---0-0-0-0--3---3-3-3-3-3--(5)-------(5)-|

----------------------------------------------------|
---------------------------------------------4-4-4--|
------------------------------7--7-7-7--7--2-4-4-4--|
-2---2-2-2-2--5---5-5-5-5-5---7--7-7-7--7--2-4-4-4--|
-2---2-2-2-2--5---5-5-5-5-5---5--5-5-5--5--0-2-2-2--|
-0---0-0-0-0--3---3-3-3-3-3--(5)-------(5)----------|

Play intro riff 2x

Verse 2: Slight variation of verse 1 and longer.

B |------------5-5(5)-5(5)-----------------------------|
F#|-7-7-9-7-0--5-5(5)-5(5)-7-7-9-7-0--10--10-10-10-10--|
C#|-0-0-0-0-0--3-3p0--3p0--0-0-0-0-0---8---8--0--8--0--|
    . . . . .  . . .  . .  . . . . .   .   .  .  .  .

-----------5-5(5)-5(5)-----------------------------|
7-7-9-7-0--5-5(5)-5(5)-7-7-9-7-0--10--10-10-10-10--|
0-0-0-0-0--3-3p0--3p0--0-0-0-0-0---8---8--0--8--0--|
. .   . .  . . .  . .  . .   . .   .   .  .  .  .

-----------5-5(5)-5(5)-----------------------------|
7-7-9-7-0--5-5(5)-5(5)-7-7-9-7-0--10--10-10-10-10--|
0-0-0-0-0--3-3p0--3p0--0-0-0-0-0---8---8--0--8--0--|
. .   . .  . . .  . .  . . . . .   .   .  .  .  .

-----------5-5(5)-5(5)-----------------------------|
7-7-9-7-0--5-5(5)-5(5)-7-7-9-7-0--10--10-10-10-10--|
0-0-0-0-0--3-3p0--3p0--0-0-0-0-0---8---8--0--8--0--|
. .   . .  . . .  . .  . .   . .   .   .  .  .  .

-----------5-5(5)-5(5)-----------------------------|
7-7-9-7-0--5-5(5)-5(5)-7-7-9-7-0--10--10-10-10-10--|
0-0-0-0-0--3-3p0--3p0--0-0-0-0-0---8---8--0--8--0--|
. .   . .  . . .  . .  . . . . .   .   .  .  .  .

-----------5-5(5)-5(5)-----------------------------|
7-7-9-7-0--5-5(5)-5(5)-7-7-9-7-0--10--10-10-10-10--|
0-0-0-0-0--3-3p0--3p0--0-0-0-0-0---8---8--0--8--0--|
. .   . .  . . .  . .  . .   . .   .   .  .  .  .

-----------5-5(5)-5(5)-----------------------------|
7-7-9-7-0--5-5(5)-5(5)-7-7-9-7-0--10--10-10-10-10--|
0-0-0-0-0--3-3p0--3p0--0-0-0-0-0---8---8--0--8--0--|
. .   . .  . . .  . .  . . . . .   .   .  .  .  .

-----------5-5(5)-5(5)---------9-10-|
7-7-9-7-0--5-5(5)-5(5)-7-7-9-7-9-10-|
0-0-0-0-0--3-3p0--3p0--0-0-0-0-7--8-|
. .   . .  . . .  . .  . .

Chorus again

Bridge: (tremolo pick notes) (Wah optional)
|--------------------------------------|------------|
|--------------------------------------|--------<9>-|
|--------------------------------------|--------<9>-|
|-(\)999...9\12p0-------------------9~-|------------|
|-----------------5\777(<7>)...-5\7----|-777...-----|
|--------------------------------------|------------|

Throw in some random harmoncs too.  Where I ended is just the
very beginning and ending of the solo, make up the rest yourself,
that is what a solo is! (waste of time to figure out exactly what he's playing)

Chorus here again x2

Outro
|-----------------------------------------------------|
|-----------------------------------------------------|
|-----------------------------------------------------|
|------------5-5-5-5-5----------------10--------------|X4
|-7-7-9-7-0--5-5-5-5-5--7-7--9--7-0---10-10-10-10--10-|
|-0-0-0-0-0--3-3-0-3-0--0-0--0--0-0----8--8--0--8---0-|


|------------------xxx------xxx---------------------|
|------------------xxx------xxx---------------------|
|-------(<8>)------xxx------xxx---------------------|
|-10-10-xxx--10-10-xxx------xxx---------------------|
|-10-10-xxx--10-10-xxx--9-9-xxx-9-9--------------7--|
|--8--8-xxx---8--8------7-7-xxx-7-7-<7>-<7>-<7>--0--|
                                     .   .   .
(I'm not sure if he means to play the harmonics or not, but they do come out)

--Just the bass plays to the end.

6.WONDER WHATS NEXT

Intro
(all palm muted)
|-------------------------------|
|-------------------------------|
|-------------------------------| X4
|-------------------------------|
|-------------------------------|
|-0-5-6p0-6p5-0-5-0-6p0-6p5-0-3-|

pick scrapes...

Riff 2
|-------------------------------|
|-------------------------------|
|-------------------------------|
|-0-5-6p0-6p5-0-5-0-6p0-6p5-0-3-| X8
|-0-5-6p0-6p5-0-5-0-6p0-6p5-0-3-|
|-0-5-6p0-6p5-0-5-0-6p0-6p5-0-3-|

Verse riff
|----------------|-----|
|----------------|-----|
|----------------|-----|
|--------4p3-0-3-|-0-0-|
|--------4p3-0-3-|-0-0-|
|-4p3333-4p3-0-3-|-0-0-|
PM......

riff 2
verse again

pickscrapes...
|-----|
|-----|
|-----|
|-0-0-|
|-0-0-|
|-0-0-|

pickscrapes...
intro riff, then gradually move into riff 2 but all palm muted
pickscrapes...

Riff 3
|-----------------|-----|
|-----------------|-----|
|-----------------|-----|
|-4p3-333-4p3-0-3-|-0-0-|
|-4p3-333-4p3-0-3-|-0-0-|
|-4p3-333-4p3-0-3-|-0-0-|

7.DONT FAKE THIS

Intro/Chorus: Clean twice then Distortion
|------------------------------------------------|
|------------------------------------------------|
|------------------------------------------------|
|---1-1-1-1-1-1-1-1---4-4-4-4----8-8-8-8---------|
|---1-1-1-1-1-1-1-1---4-4-4-4----8-8-8-8---------|
|---1-1-1-1-1-1-1-1---4-4-4-4----8-8-8-8---------|

1st part of verse: Let ring
|------------------------------------------------|
|------------------------------------------------|
|------------------------------------------------|
|---1~~~~~~~~~~~~~~~-----------------------------|
|---1~~~~~~~~~~~~~~~-----------------------------|
|---1~~~~~~~~~~~~~~~-----------------------------|
Let it fade.

2nd part of verse: clean
|-----------------------------------------11-----|
|---11-11-11-11-11-16---or--11-11-11-11-11-------|
|------------------------------------------------|
|------------------------------------------------|
|------------------------------------------------|
|------------------------------------------------|

Pre-Chorus: Staccoto notes (Distortion on )
|---------------------|
|---------------------|
|---------------------|
|---1-1-1-1--2-2-11---|
|---1-1-1-1--2-2-11---|
|---1-1-1-1--2-2-11---|
dont fake this...

2nd Verse:
|--------------------------------------|
|--------------------------------------|
|--------------------------------------|
|-1-1-11-1-44-44-4--88-88-8--44-44-4---|
|-1-1-11-1-44-44-4--88-88-8--44-44-4---|
|-1-1-11-1-44-44-4--88-88-8--44-44-4---|
pm..................................


Fill 1: Distorted (not entirely sure about this)
|---------------------------------------|
|---------------------------------------|
|---------------------------------------|
|---------------------------------------|
|---------------------------------------|
|-1-1-1-1-1-44-44-4--88-88-8--44-44-4---|

Fill:
|---------------------------------|
|---------------------------------|
|--6-6-6-6--10-10-10-10-10-10-----|
|--x-x-x-x---x--x--x--x--x--x-----|
|--4-4-4-4---8--8--8--8--8--8-----|
|---------------------------------|

Chorus:
|-------------------------------------------|
|-------------------------------------------|
|-------------------------------------------|
|---1111111111---444444----8888-------------|
|---1111111111---444444----8888-------------|
|---1111111111---444444----8888-------------|


Artist: Chevelle
Song: Dont Fake this
Version two
Tabber: c0z420

Tuning B F# B E G# C#

Now for the B F# B E G# C# Tuning Version

Intro/Chorus: Clean twice then Distortion
|------------------------------------------------|
|------------------------------------------------|
|------------------------------------------------|
|---2-2-2-2-2-2-2-2---5-5-5-5----9-9-9-9---------|
|---2-2-2-2-2-2-2-2---5-5-5-5----9-9-9-9---------|
|---2-2-2-2-2-2-2-2---5-5-5-5----9-9-9-9---------|

1st part of verse: Let ring
|------------------------------------------------|
|------------------------------------------------|
|------------------------------------------------|
|---2~~~~~~~~~~~~~~~-----------------------------|
|---2~~~~~~~~~~~~~~~-----------------------------|
|---2~~~~~~~~~~~~~~~-----------------------------|
Let it fade.

2nd part of verse: clean
|-----------------------------------------12-----|
|---12-12-12-12-12-17---or--12-12-12-12-12-------|
|------------------------------------------------|
|------------------------------------------------|
|------------------------------------------------|
|------------------------------------------------|

Pre-Chorus: Staccoto notes (Distortion on )
|---------------------|
|---------------------|
|---------------------|
|---2-2-2-2--3-3-22---|
|---2-2-2-2--3-3-22---|
|---2-2-2-2--3-3-22---|
dont fake this...

2nd Verse:
|-----------------------------------|
|-----------------------------------|
|-----------------------------------|
|-22-22-2-55-55-5--99-99-9--55-55-5-|
|-22-22-2-55-55-5--99-99-9--55-55-5-|
|-22-22-2-55-55-5--99-99-9--55-55-5-|
pm..................................


Fill 1: Distorted (not entirely sure about this)
|-----------------------------------|
|-----------------------------------|
|-----------------------------------|
|-----------------------------------|
|-----------------------------------|
|-22-22-2-55-55-5--99-99-9--55-55-5-|

Chorus:
|-------------------------------------|
|-------------------------------------|
|-------------------------------------|
|-2~--222222-55555/--9999-------------|
|-2~--222222-55555/--9999-------------|
|-2~--222222-55555/--9999-------------|

Fill 2:
|---------------------------------|
|---------------------------------|
|--7-7-7-7--11-11-11-11-11-11-----|
|--x-x-x-x---x--x--x--x--x--x-----|
|--5-5-5-5---9--9--9--9--9--9-----|
|---------------------------------|

8.FORFEIT

Intro/verse
C|------------------------------------------------------------------------------|
G|------------------------------------------------------------------------------|
E|------------------------------------------------------------------------------|
B|------------------------------------------------------------------------------|
F|------------------------------------------------------------------------------|
B|-7-7-x-x-x-x-7-7-7-7-x-x-x-x-7-7-7-7-x-x-x-x-7-7-7-7--7-7-7-7-5-5-5-5--3-3----|

C|------------------------------------------------------------------------------|
G|------------------------------------------------------------------------------|
E|------------------------------------------------------------------------------|
B|------------------------------------------------------------------------------|
F|------------------------------------------------------------------------------|
B|-x-x-x-x-3-3-3-3-x-x-x-x-3-3-3-3-2-2-2-2--------------------------------------|


Chorus 1              2
C|-----------------|------------------------------------------------------------|
G|-----------------|------------------------------------------------------------|
E|-----------------|------------------------------------------------------------|
B|-------0-0-0-0---|--3-3-3-3-5-5-5-5-------------------------------------------|
F|----0--0-0-0-0---|--3-3-3-3-5-5-5-5-------------------------------------------|
B|-7b-0--0-0-0-0---|--3-3-3-3-5-5-5-5-------------------------------------------|
   15 x

Bridge
G|------------------------------------------------------------------------------|
C|------------------------------------------------------------------------------|
E|------------------------------------------------------------------------------|
B|------------------------------------------------------------------------------|
F|----------0-0-0-0-------------------------------------------------------------|
B|-0-0-0-0--0-0-0-0-------------------------------------------------------------|
    pm        open

9.GRAB THY HAND

Intro:
C#--------------------------------------|
G#--------------------------------------|
E---------------------------------------|
B-----------------------0---------------|
F#-0-0-0-0-0-0-0-0----------------------|
B--0-0-0-0-0-0-0-0-0h1------------------|

C#--------------------------------------------|
G#--------------------------------------------|
E---------------------------------------------|
B-------------------xxxxxxxxx-----------------|
F#-0-0-0-0-0-0-0-0--xxxxxxxxx-----------------|
B--0-0-0-0-0-0-0-0--xxxxxxxxx-----------------|

C#--------------------------------------|
G#--------------------------------------|
E---------------------------------------|
B-----------------------0---------------|
F#-0-0-0-0-0-0-0-0----------------------|
B--0-0-0-0-0-0-0-0-0h1------------------|

(this may not be right but it sounds pretty good anyways)
C#-0---0---0---0---1-1-1-1--------------|
G#--3---3---3---3-----------------------|
E----2---2---2---2----------------------|
B---------------------------------------|
F#--------------------------------------|
B---------------------------------------|


Pre-Verse
C#------------------------------------------|
G#------------------------------------------|
E----------------------------end on --------|
B--8----------------------------------------|
F#--5--------------------------------0-0----|
B----0-0-0-0-0-0h1-0-----------------0-0----|


Verse
C#----------------------------------------|
G#----------------------------------------|
E-----------------------------------------|
B---8-------------------------------------|
F#---5------------------------------------|
B-----0-----------------------------------|

Pre-Chorus
C#--------------------------------------|
G#--------------------------------------|
E---------------------------------------|
B-----------------xxxxxxxx--------------|
F#--0-0-0-0-0-0-0-xxxxxxxx--------------|
B---0-0-0-0-0-0-0-xxxxxxxx--------------|
p.m .............

Chorus
C#--------------------------------------|
G#--------------------------------------|
E---------------------------------------|
B---------5-------3---------------------|(play 3 times)
F#--0-0-0-3-0-0-0-1-0h1-1p0-------------|
B---0-0-0---0-0-0-----------------------|
p.m     .       .

C#--------------------------------------|
G#--------------------------------------|
E---------------------------------------|
B---------------------------------------|(play 1 time)
F#-------3-------1-----1----------------|
B--0-0-0---0-0-0---0-0------------------|

Verse
C#--------------------------------------|
G#--------------------------------------|
E---------------------------------------|
B--3---------1/3-3----------------------|(play 2 x)
F#-3-(strum)-1/3-3----------------------|
B--3---------1/3-3----------------------|

C#--------------------------------------|
G#--------------------------------------|
E---------------------------------------|
B--8---8--------------------------------|
F#--5---5-------------------------------|
B----0---0------------------------------|

C#--------------------------------------|
G#--------------------------------------|
E---------------------------------------|
B--3---------1/3-3----------------------|(play 2 x)
F#-3-(strum)-1/3-3----------------------|
B--3---------1/3-3----------------------|

Pre Chorus (PLAY 2X)
C#--------------------------------------|
G#--------------------------------------|
E---------------------------------------|
B-----------------------0---------------|
F#-0-0-0-0-0-0-0-0----------------------|
B--0-0-0-0-0-0-0-0-0h1------------------|

C#--------------------------------------------|
G#--------------------------------------------|
E---------------------------------------------|
B-------------------xxxxxxxxx-----------------|
F#-0-0-0-0-0-0-0-0--xxxxxxxxx-----------------|
B--0-0-0-0-0-0-0-0--xxxxxxxxx-----------------|

Chorus:
C#--------------------------------------|
G#--------------------------------------|
E---------------------------------------|
B------------------0h1-1p0--------------|
F#-0-0-0-0-0-0-0-0-0h1-1p0--------------|
B--0-0-0-0-0-0-0-0-0h1-1p0--------------|

C#-0---0---0---0---1-1-1-1--------------|
G#--3---3---3---3-----------------------|
E----2---2---2---2----------------------|
B---------------------------------------|
F#--------------------------------------|
B---------------------------------------|


C#------------------------------------------|
G#------------------------------------------|
E-------------------------------------------|
B--8----------------------------------------|
F#--5---------------------------------------|
B----0-0-0-0-0-0h1-0------------------------|

Bridge (2x)
C#------------------------------------------|
G#------------------------------------------|
E-------------------------------------------|
B-------------------------------------------|
F#-------1-------3--------------------------|
B--0-0-0---0-0-0---0h1-1/3------------------|
p.m    .       .

C#------------------------------------------|
G#------------------------------------------|
E-------------------------------------------|
B-------------------------------------------|
F#-------1-------3-----3/5------------------|
B--0-0-0---0-0-0---0h1----------------------|
p.m    .       .

(PLAY THIS TILL THE END OF THE SONG)
C#------------------------------------------|
G#------------------------------------------|
E-------------------------------------------|
B--------3--------5-------------------------|
F#-0-0-0-1-0-0-0--3-0h1-1/3-----------------|
B--0-0-0---0-0-0----0h1-1/3-----------------|
p.m    .       .

C#------------------------------------------|
G#------------------------------------------|
E-------------------------------------------|
B--------3-------5---------7/8--------------|
F#-0-0-0-1-0-0-0-3---0-0---5/6--------------|
B--0-0-0---0-0-0-----0-0--------------------|
p.m    .       .     . .

10.AN EVENING WITH EL DIABLO

Intro & Verses are just Bass. (but i'll tab it here anyway)
C#--------------------------|       C#-----------------------------|
G#--------------------------|       G#-----------------------------|
E---------------------------|       E|-----------------------------|
B---------------------------|-then->B|-----------------------------|-3x
F#-------------------/7-7-7-|       F#---------------------/6-6-6--|
B--4-4-4-4-4-4-4-4-4--------|       B|-4-4-4-4-4-4-4-4-4-4---------|
(BASS PART ++ BASS PART ++ BASS PART ++ BASS PART ++ BASS PART ++ BASS PART ++)

Chorus (Dist) {Too scared to run...}
C#-----------------------------------------------|
G#-----------------------------------------------|
E------------------------------------------------|
B--4----4-4-4-4-5-0------4----4-4-4-4-5-0--------|
F#-4----4-4-4-4-5-0------4----4-4-4-4-5-0--------|
B--4----4-4-4-4-5-0------4----4-4-4-4-5-0--------|


Later Verses (clean, with some light chorus effect)
C#------------------------------------------------------------|
G#------------------------------------------------------------|
E--9-9-9-9-9-9--9--9-9-9-9-9--9-8-8-8-8-8-8--8--8-8-8-8-8-----|
B--x-x-x-x-x-x--x--x-x-x-x-x--x-x-x-x-x-x-x--x--x-x-x-x-x-----|
F#-7-7-7-7-7-7--7--7-7-7-7-7--7-6-6-6-6-6-6--6--6-6-6-6-6-----|
B-------------------------------------------------------------|


Bridge (dist)  {Wish i had your faults...}
C#------------------------------------------------------------|
G#------------------------------------------------------------|
E-------------------------------------------------------------|
B--9-9-9-9-9-9--9--9-9-9-9-9--9-8-8-8-8-8-8--8--8-8-8-8-8-----|
F#-7-7-7-7-7-7--7--7-7-7-7-7--7-6-6-6-6-6-6--6--6-6-6-6-6-----|
B-------------------------------------------------------------|

11.ONE LONELY VISITOR

riff 1

|---0--0---0--0---0--0---0--0---0--0---0--0---0--0---0--0---------|
|---0--0---0--0---0--0---0--0---0--0---0--0---0--0---0--0---------|
|-----------------------------------------------------------------|
|-----------------------------------------------------------------|
|--2------2------2------2------4-----4-------4------4-------------|
|-----------------------------------------------------------------|

riff 2

|------0-0---------0------------------------------------|
|------0-0---------0------------------------------------|
|-------------------------------------------------------|
|---2----------4----------------------------------------|
|---2----------4----------------------------------------|
|---2----------4----------------------------------------|
comments
We did not receive enough feedback on this tab! Please rate:
print report bad tab
1 2 3 4 5
1 comment total.
0 reply
ready4thebreak wrote on January 14 2006, 05:54 pm

great except some dont have the right tuning but hey are the right tab though. They play drop-b on the entire album except one lonely visitor.

I want to post or [tab]
guest
You may want to rate the tab now too:
select rating
Please do not post tabs as comments. Select "correction" instead!