Oops, an error
Loading. Please wait.

Chicosci Tab

1,842 views 12 this week
29 commentsread comments
1 2 3 4 5
accurate
x 6
Autoscroll
+/-
esc
set tempo
stop
Contributor
Difficulty
Tuning
intermediate
D A D G B E
Hey! There's an official Ultimate Guitar app which is ideal
for learning songs when you're away from computer. Get the app
WARNING: You are trying to view
                                    content from Ultimate-Guitar.com
                                    in an unauthorized application,
                                    which is prohibited.

                                    Please use an official Ultimate
                                    Guitar Tabs application for iPhone,
                                    iPad or Android to access legitimate
                                    chords, guitar, bass, and drum tabs
                                    from Ultimate-Guitar.com database.

                                    Type "ultimate guitar tabs" in Apple
                                    App Store's or Android Market's
                                    search to find the application.
                CHICOSCI Self-Titled Album


Tabbed by: Paul Anthonie Antoc
E-mail: paul_antoc@yahoo.com
Address: Mariveles,Bataan,Philippines
contact #: 09184423602

Elow po sa mga friends ko sila Calvin,Jon,Otep,Emak,Aerol,Tuts.. at iba
pa.. sa mga clasm8s ko sa MNHS(annex) IV-A.. mabuhay kayong lahat.. hehe
Binabati ko rin si Maria Lourdes Vejar, HEHE.. wala lang.. HEHEHE!!


Ang mga anumang bayulenteng reaksyon ay maluwag kong tinatanggap,, kaya kung may mali sa 
ko, I-PM nyo agad o kya mag post kayo ng comment.
Turuan nyo po ako sa mga mali ko.SALAMAT!! Paki-rate po ah..


Chicosci:

Miguel "Miggy" Chavez       - Vocals
Miguel "Mong" Alcaraz       - Guitars & Keyboards
Sonny Baquisal              - Guitars
Carlos "Calde" Calderon     - Bass
Eugene Esquivias            - Percussions
Jose Salvador               - Drums          



GO! VAMPIRES!!!! Para sainyo to!!

1.  A Promise
2.  Chicosci Vampire Social Club
3.  7 black Roses
4.  Sweet Maria
5.  The devil made me do it
6.  Knives
7.  Manila Teenage Death squad
8.  You're Killing Me
9.  Last look
10. Matinee
11. Pink Hearts,Yellow Stars (Harlequin Lover)
12. January Days
13. Paris (Just Added)

All Guitars are in Drop D Tuning


Guitar 1 - Sonny(Left Speaker)
Guitar 2 - Mong(Right Speaker)


Guitar Legends:
 . -
 / - slide down
 \ - slide up
 * - harmonics
 x - dead note
 ~ - let it ring
 h - hammer on
 p - pull offs
 b - bend


///////////////////////////////////////////////////////////////////////////////////////////
UPDATES:
22/05/07 - Fixed some parts in CVSC
04/06/07 - Paris tab added
06/06/07 - Fixed some part in Harlequin Lover

///////////////////////////////////////////////////////////////////////////////////////////


Track 1. A Promise

Drop D Tuning

Guitar 1 - Sonny(Left Speaker)
Guitar 2 - Mong(Right Speaker)



Intro:

Both Guitars:
e|-------------------------------|
B|-------------------------------|
G|-5-9999999999----555555555-----| 2x
D|-x-xxxxxxxxxx----xxxxxxxxx-----|
A|-3-7777777777----333333333-----|
D|---------------3---------------|
   .             .

Verse:"Now you were my beloved ghots"

Guitar 1:
e|--------------------------|
B|--------------------------|
G|--9999999999--555555555---|
D|--xxxxxxxxxx--333333333---| 4x
A|--7777777777--333333333---|
D|--------------333333333---|

Guitar 2:
e|--------------------------|
B|--------------------------|
G|--5555555----5555555555---| 4x
D|--5555555----3333333333---|
A|--3333333----3333333333---|
D|-------------3333333333---|


Chorus 1:
This wine,from my veins....

Guitar 1:
e|------------------|
B|------------------|
G|-----5~----4-5~---| 2x
D|---5--------------|
A|------------------|
D|------------------|

Guitar 2: w/ low volume
e|-----------------------|     On the 4th time
B|----------3------------| 4x  Increase a little
G|-2-3-2-3----5-3-5------|     Volume.
D|-----------------------|
A|-----------------------|
D|-----------------------|
   . . . .  . . . .


Repeat Verse:

Repeat Chorus 1:


"will be draining their blood again..."
e|-------------|
B|-------------|
G|-4h54h54h5---|
D|-------------|
A|-------------|
D|-------------|


"Embrace the rest of me..."

Guitar 1:
e|---------------------------|
B|---------------------------|
G|---------------------------| 4x
D|--555555555---3333333333---|
A|--333333333---3333333333---|
D|--------------3333333333---|


Guitar 2:Do some strumming technique here
e|------------------------------|
B|------------------------------|
G|-1212121212-1414141414--------|
D|--x-x-x-x-x--x-x-x-x-x--------|
A|-1010101010-1212121212--------|
D|------------------------------|


Chorus 2:

Guitar.1:
e|---------------------|
B|---------------------|
G|---------------------| 2x
D|-7777777--33333333---|
A|-7777777--33333333---|
D|-7777777--33333333---|

Guitar 2:
e|---------------------|
B|---------------------|
G|-9999999--55555555---| 2x
D|-xxxxxxx--xxxxxxxx---|
A|-7777777--33333333---|
D|---------------------|

Bridge:

e|---------------      ------------|
B|--------------- 2x   ------------|
G|--------------- Then ------------|
D|---------------      --xxxxxxx---|
A|---------------      --xxxxxxx---|
D|--7~--5~--3~---      --xxxxxxx---|


Repeat Verse
Repeat Chorus 2


Outro:

Both Guitars:
e|------------------|
B|------------------|
G|------------------|
D|-33333---333333---|
A|-33333---333333---|
D|-33333---333333---|

Last Chords:
e|---------|
B|---------|
G|--9\\----|
D|--x\\----|
A|--7\\----|
D|---------|


End...


///////////////////////////////////////////////////////////////////////////////////////////


Track 2. Chicosci Vampire Social Club

Drop D Tuning

Guitar 1 - Sonny(Left Speaker)
Guitar 2 - Mong(Right Speaker)


Verse:

Guitar 1:
e|-------------------------------------|
B|-------------------------------------|
G|-5555555555/9999/10101010/121212-----|
D|-xxxxxxxxxx/xxxx/-x-x-x-x--x-x-x-----|
A|-3333333333/7777/-8-8-8-8/101010-----|
D|-------------------------------------|

Guitar 2:
e|------------------------|
B|------------------------|
G|---555555555555555------| Contnious Playing
D|---xxxxxxxxxxxxxxx------|
A|---333333333333333------|
D|------------------------|

Chorus:
Guitar 1:
e|-----------------------------------------------------------------------|
B|---6~---8~----------------------------------------------888------------|
G|---5~---7~-----------1212-------------99---------99--99----------------|
D|-3~---5~----10101010------1010-991010----99-7777---77--7-----3~---5~---|
A|-3~---5~-----------------------------------------------------3~---5~---|
D|-3~---5~-----------------------------------------------------3~---5~---|
               . . . .           ..           ..     ..  .
Guitar 2:
e|-------------------------------------------|
B|-------------------------------------------|
G|-5~---7~----------------2222222--5~---7~---|
D|-3~---5~--55555--44444--2222222--3~---5~---|
A|-3~---5~--33333--22222--0000000--3~---5~---|
D|-3~---5~------------------------ 3~---5~---|
            ...    ...


Repeat Verse
Repeat Chorus


Bridge:
Guitar 1:
e|----------------------------------|
B|----------------------------------|
G|----------------------------------|
D|-5555555555555555-22222222-3333---|
A|-3333333333333333-22222222-3333---|
D|------------------22222222-3333---|

Guitar 2:
e|---------19-----19-----19--------|
B|---------------------------------|
G|-15-16-15--16-15--16-15--16-15---|
D|---------------------------------|
A|---------------------------------|
D|---------------------------------|


Chorus 2:

Both Guitars:
e|---------------------------------------------------------x-----|
B|---------------------------------------------------------7*----|
G|-----------------------------------------------------5~~-5*----|
D|-3~--5~--10~-9~-7~---333333333333333-555555555555555-5~~-x-----|
A|-3~--5~--10~-9~-7~---333333333333333-555555555555555-3~~-x-----|
D|-3~--5~--10~-9~-7~---333333333333333-555555555555555-----------|
                        ..............  ..............

Repeat Chorus


Outro: Repeat till the song fades..

Guitar 1:
e|-------------------------------------|
B|-------------------------------------|
G|-5555555555/9999/10101010/121212-----|
D|-xxxxxxxxxx/xxxx/-x-x-x-x--x-x-x-----|
A|-3333333333/7777/-8-8-8-8/101010-----|
D|-------------------------------------|

Guitar 2:
e|------------------------|
B|------------------------|
G|---555555555555555------| Contnious Playing
D|---xxxxxxxxxxxxxxx------|
A|---333333333333333------|
D|------------------------|


End


////////////////////////////////////////////////////////////////////////////////////////////


Track 3. 7 Black Roses

Drop D Tuning

Guitar 1 - Sonny(Left Speaker)
Guitar 2 - Mong(Right Speaker)


Note:This Tab is originate by No_Falter08,may nilagay lang po ako
     na corrections pero hindi parin po eto yung complete tab.May
     sablay pa po ng konti.MaRaming Salamat kuya No_Falter.


Intro:
Guitar 2:
e|--------------------------------|
B|--------------------------------|
G|---5---4---5----4---5---4---5---| Repeat many times and
D|--------------------------------| get the timing
A|-3---3---3----3---3---3---3-----|
D|--------------------------------|


Intro part 2(when drum enters):
Guiatr 1:
e|---------------------------------|
B|---------------------------------|
G|---------------------------------|
D|-7-----3-----5-----2-----3-------| 2x
A|-77777-33333-55555-22222-33333---|
D|-77777-33333-55555-22222-33333---|
    ....  ....  ....  ....  ....

Guitar 2:
e|--------------------------------|
B|--------------------------------|
G|---5---4---5----4---5---4---5---| 1 time only and
D|--------------------------------| get the timing
A|-3---3---3----3---3---3---3-----|
D|--------------------------------|

(Contunuation)
Guitar 2:
e|------------------------------------------|
B|------------------------------------5b\---|
G|-55-44--55-44--55-44--55-44--55-44--------|
D|-xx-xx--xx-xx--xx-xx--xx-xx--xx-xx--------|
A|-33-22--33-22--33-22--33-22--33-22--------|
D|------------------------------------------|


Verse:"When I leave..."
Gtr.1
e|---------------------------------|
B|---------------------------------|
G|---------------------------------| 2x
D|-7-----3-----5-----2-----3-------|
A|-77777-33333-55555-22222-33333---|
D|-77777-33333-55555-22222-33333---|
    ....  ....  ....  ....  ....

Guitar 2:
e|--------------------------------|
B|--------------------------------|
G|---5---4---5----4---5---4---5---| Repeat many times and
D|--------------------------------| get the timing
A|-3---3---3----3---3---3---3-----|
D|--------------------------------|

Chorus:"This roses died...."

Guitar 1:
e|-----------------|
B|-----------------|
G|-----------------| 4x
D|-77-33--555555---|
A|-77-33--333333---|
D|-77-33-----------|

Guitar 2:
e|--5-7p5-5-7p5-5-7p5-5-7p5-8--|
B|-----------------------------|
G|-----------------------------| Repeat many times
D|-----------------------------|
A|-----------------------------|
D|-----------------------------|

Pre-verse:
e|--------------------------------|
B|--------------------------------|
G|---5---4---5----4---5---4---5---|
D|--------------------------------|
A|-3---3---3----3---3---3---3-----|
D|--------------------------------|

Repeat Verse:

Chorus:"This roses died...."

Guitar 1:
e|-----------------|
B|-----------------|
G|-----------------| 8x
D|-77-33--555555---|
A|-77-33--333333---|
D|-77-33-----------|

Guitar 2:
e|--5-7p5-5-7p5-5-7p5-5-7p5-8--|
B|-----------------------------|
G|-----------------------------| Repeat many times
D|-----------------------------|
A|-----------------------------|
D|-----------------------------|

(Continuation)
e|---------------------------|
B|---------------------------|
G|--99-55/12121212-----------|
D|--xx-xx/-x-x-x-x-----------|
A|--77-33/10101010-----------|
D|---------------------------|


Bridge part.1:(Do chorus)


Bridge prt.2:Hear this I'm your's
e|--------------------------------|
B|--------------------------------|
G|---5---4---5----4---5---4---5---|
D|--------------------------------|
A|-3---3---3----3---3---3---3-----|
D|--------------------------------|


e|---8-10-8--    -12-8-8-8-8-8-8--8-8-10-8-10---|
B|-8---------    -------------------------------|
G|----------- 4x -------------------------------|
D|-----------    -------------------------------|
A|-----------    -------------------------------|
D|-----------    -------------------------------|
                     . . . . . .


Chorus:"This roses died...."

Guitar 1:
e|-----------------|
B|-----------------|
G|-----------------| 8x
D|-77-33--555555---|
A|-77-33--333333---|
D|-77-33-----------|

Guitar 2:
e|--5-7p5-5-7p5-5-7p5-5-7p5-8--|
B|-----------------------------|
G|-----------------------------| Repeat many times
D|-----------------------------|
A|-----------------------------|
D|-----------------------------|

(Continuation)
e|---------------------------|
B|---------------------------|
G|--99-55/12121212-----------|
D|--xx-xx/-x-x-x-x-----------|
A|--77-33/10101010-----------|
D|---------------------------|


Last Chord:
e|------|
B|------|
G|-5~---|
D|-5~---|
A|-3~---|
D|------|

End...


////////////////////////////////////////////////////////////////////////////////////////////


Track 4. Sweet Maria

Drop D Tuning

Guitar 1 - Sonny(Left Speaker)
Guitar 2 - Mong(Right Speaker)


Intro:

Both Guitars:
e|----------------------------|
B|----------------------------|
G|----------------------------|
D|-0h8~-0h8~-0h8~-0h8~--------|
A|-0h8~-0h8~-0h8~-0h8~--------|
D|-0h8~-0h8~-0h8~-0h8~--------|


Verse:"Bless this night.."

Guitar 1:
e|----------------------------|
B|----------------------------|
G|----------------------------|
D|-88888888888-555555555555---|
A|-88888888888-555555555555---|
D|-88888888888-555555555555---|
   ........... ............

Guitar 2:Under Construction


Pre chorus:

Guitar 1:
e|----------------------------------------------|
B|----------------------------------------------|
G|----------------------------------------------|
D|-1~---3~---888-777-5~---777-555-3-------------|
A|----------------------------------------------|
D|----------------------------------------------|
             ... ...      ... ...

e|----------------------------------------------|
B|----------------------------------------------|
G|----------------------------------------------|
D|-1~---3~---888-777-55-888-777-55-777-555-3~---|
A|----------------------------------------------|
D|----------------------------------------------|
             ... ... .. ... ... .. ... ...


Guitar 2:
e|----------------------------------------------|
B|-4~---5~--------------------------------------|
G|-3~---4~--------------------------------------|
D|-1~---3~---5555555555555555-3333333333333333--|
A|-1~---3~---5555555555555555-3333333333333333--|
D|-1~---3~---5555555555555555-3333333333333333--|
             ................ ................

e|----------------------------------------------------------------------|
B|----------------------------------------------------------------------|
G|-3----------------5----------------7----------------5-----------------|
D|-1111111111111111-3333333333333333-5555555555555555-3333333333333333--|
A|-1111111111111111-3333333333333333-5555555555555555-3333333333333333--|
D|-1111111111111111-3333333333333333-5555555555555555-3333333333333333--|
    ...............   ..............   ..............   ..............


Chorus:
Both Guitars:
e|---------------------------------------------------------|
B|---------------------------------------------------------|
G|-1010101010101010101010--555555555555555-7777777777------|
D|--8-8-8-8-8-8-8-8-8-8-8--333333333333333-5555555555--3~--|
A|--8-8-8-8-8-8-8-8-8-8-8--333333333333333-5555555555--3~--|
D|--8-8-8-8-8-8-8-8-8-8-8--333333333333333-5555555555--3~--|


Repeat verse
Repeat pre chorus
Repeat chorus 2x

Bridge part 1:

Guitar 1:
e|----------------------------------|
B|---------------------8~------6~---|
G|------3b------5b-----7~------5~---|
D|-1111----3333----55555~--33333~---|   2x
A|-1111----3333----55555~--33333~---|
D|-1111----3333----55555~--33333~---|
   ....    ....    ....    ....

Guitar 2:
e|----------------------------------|
B|-----4~------6~-------8~------6~--|
G|-----3~------5~-------7~------5~--|
D|-11111~--33333~---55555~--33333~--|   2x
A|-11111~--33333~---55555~--33333~--|
D|-11111~--33333~---55555~--33333~--|
   ....    ....     ....    ....


Guitar 1:
e|---------------------------------------------|
B|---------------------------------------------|
G|--3-7-5-3-2-3-2-3~--3/10-3/10-3--------------|
D|--x-x-x-x-x-x-x-x~--x/-x-x/-x-x--------------|
A|--1-5-3-1-0-1-0-1~--1/-8-1/-8-1--------------|
D|---------------------------------------------|

                       Very fast part
e|---------------------------------------------------------------|
B|---------------------14-12-11-12-14-12-11-12-------------------|
G|--3-7-5-3-2-3-2-3~---------------------------------------------|
D|--x-x-x-x-x-x-x-x~----------------------------3-1-0---1-0------|
A|--1-5-3-1-0-1-0-1~----------------------------------3-----3-1--|
D|---------------------------------------------------------------|
                                                . . . . . . . .

Guitar 2:
e|---------------------------------------------------------------------|
B|---------------------------------------------------------------------|
G|---------------------------------------------------------------------|
D|-1111111111111111-3333333333333333-5555555555555555-3333333333333333-|
A|-1111111111111111-3333333333333333-5555555555555555-3333333333333333-|
D|-1111111111111111-3333333333333333-5555555555555555-3333333333333333-|

Bridge part 2:
e|---------------------------------------------------|
B|---------------------------------------------------|
G|---------------------------------------------------|
D|-----------------------------3--------5--------3~--|
A|-111111-333333-555555-111111-3-333333-5-555555-3~--|
D|-111111-333333-555555-111111-3-333333-5-555555-3~--|
   xxxxxx xxxxxx xxxxxx xxxxxx   xxxxxx   xxxxxx


Repeat chorus:W/Blazing Fast Palm mute


Last Chords:
e|------|
B|------|
G|--5~--|
D|--3~--|
A|--3~--|
D|--3~--|

End

////////////////////////////////////////////////////////////////////////////////////////////


Track 5. The Devil Made me do it

Drop D Tuning

Guitar 1 - Sonny(Left Speaker)
Guitar 2 - Mong(Right Speaker)


Intro:

Guitar 1:
e|----------10--------------|
B|-8-10--8------8-10-8-10---|
G|--------------------------| 4x
D|--------------------------|
A|--------------------------|
D|--------------------------|


Verse:
Guitar 1:                                  2x
e|---------------------------------|---------------|
B|------3b------3b------3b------3b-|----9-----9----|
G|-5b-5----5b-5----5b-5----5b-5----|-77---7-7---7b-|
D|---------------------------------|---------------| 2x
A|---------------------------------|---------------|
D|---------------------------------|---------------|

(Continuation)
e|-----------------|
B|-------3------3--|
G|--5b-5---5b-5----|
D|-----------------|
A|-----------------|
D|-----------------|


Guitar 2:
e|----------------------------|--------------------|
B|----8----8----8----8--------|--------------------|
G|-55-7-55-7-55-7-55-7--------|--------------------|
D|-xx-x-xx-x-xx-x-xx-x--------|-7-77777777777777---| 2x
A|-33-5-33-5-33-5-33-5--------|-7-77777777777777---|
D|----------------------------|-7-77777777777777---|
                                  ..............
(Continuation)
e|---------------|
B|---------------|
G|---------------|
D|--5555555555---|
A|--5555555555---|
D|--5555555555---|


Chorus:
e|---------------------|
B|---------------------|
G|-5555555--99999999---| 4x
D|-3333333--77777777---|
A|-3333333--77777777---|
D|-3333333--77777777---|


Repeat Verse
Repeat Chorus


Bridge:Bass Solo then guitar 1 enters

 (01:40)     (01:57)
e|----4----|---------------|
B|----5----|---------------|
G|---------|---5-4-5-4-----|
D|-7----7--|---7-5-7-5-----|
A|---------|---------------|
D|---------|---------------|

Guitar 2 Enters:
e|-------------------------|
B|---------------10101010--|
G|----------------9-9-9-9--|
D|-3-33333--7777777-7-7-7--|
A|-3-33333--7777777-7-7-7--|
D|-3-33333--7777777-7-7-7--|
     .....

(02:15)
e|-----------------|
B|-----------------|
G|-----------------|
D|-5555555555555---|
A|-5555555555555---|
D|-5555555555555---|


Repeat Chorus 8x

Outro:

e|---------------------------------------|
B|------3b------3b------3b------3b-------|
G|-5b-5----5b-5----5b-5----5b-5----5b----|
D|---------------------------------------|
A|---------------------------------------|
D|---------------------------------------|

End

////////////////////////////////////////////////////////////////////////////////////////////


Track 6. Knives


Drop D Tuning

Guitar 1 - Sonny(Left Speaker)
Guitar 2 - Mong(Right Speaker)


Intro:

e|---3----3\1----0-----0-------3---3\1----0-------|
B|-5----5------1---1--1--1---5---5------1---1~----|
G|------------------------------------------------|
D|------------------------------------------------|
A|------------------------------------------------|
D|------------------------------------------------|

Verse:

Guitar 1:
e|---3----3\1----0-----0-------3---3\1----0--------|
B|-5----5------1---1--1--1---5---5------1---1~-----|
G|-------------------------------------------------|
D|-------------------------------------------------| 4x
A|-------------------------------------------------|
D|-------------------------------------------------|

Guitar 2:
e|-8~-----------8~--10~-------8~----------8~~------|
B|----8~--6~------------8~--------8~--6~------8~---|
G|-------------------------------------------------| 4x
D|-------------------------------------------------|
A|-------------------------------------------------|
D|-------------------------------------------------|


Chorus 1:

Both Guitars:
e|-----------------------------------------|
B|-----------------------------------------|
G|-----------------------------------------|
D|-777777--1010101010--1010101010--55555---|
A|-777777--1010101010---8-8-8-8-8--55555---|
D|-777777--1010101010--------------55555---|


Repeat Verse
Repeat Chorus 1 (2x)


Bridge:
e|----------------------|
B|----------------------|
G|----------------------| 3x
D|-5---5---4---4---4----|
A|---5---5---5---5---5--|
D|----------------------|

(Continuation)
e|------------|
B|--88888\----|
G|--77777\----|
D|--55555\----|
A|--55555\----|
D|--55555\----|

Repeat Chorus 1 (2x)


Chorus 2:

e|------------------------------------------|
B|------------------------------------------|
G|------10b---------------------------------|
D|-7777-----1010101010-1010101010--55555----|
A|-7777-----1010101010--8-8-8-8-8--55555----|
D|-7777-----1010101010-------------55555----|

(Continuation
e|-----------------------------------------------|
B|-----------------------------------------------|
G|-----------------------------------------------| 2x
D|-7777x7777--101010x101010-1010101010--55555----|
A|-7777x7777--101010x101010--8-8-8-8-8--55555----|
D|-7777x7777--101010x101010-------------55555----|


Guitar 2 on the 2nd time
e|-------------------|
B|--5p3-2h3-5~-------|
G|-------------------|
D|-------------------|
A|-------------------|
D|-------------------|


End

////////////////////////////////////////////////////////////////////////////////////////////


Track 7. Manila Teenage Death Squad

Drop D Tuning

Guitar 1 - Sonny(Left Speaker)
Guitar 2 - Mong(Right Speaker)
Bass     - Calde

Intro part 1:
Guitar 1:
e|------|
B|------|
G|------|
D|--9~--|
A|------|
D|------|

Guitar 2:
e|-------------------------------|
B|-------------------------------|
G|-11~---------------------------|
D|--9~-----4---------------------|
A|--9~--2----5-5-5-5/7/10--2~----|
D|--9~~--------------------------|


Intro part 2:
Guitar 1:
e|--------------------------------------------------------|
B|--------------------------------------------------------|
G|---11------------14b-11b~---11-------------14b----------|
D|-9----9--7----9-----------9----9--7----9----------------| 2x
A|-----------10-----------------------10-----------12b~---|
D|--------------------------------------------------------|

Guitar 2:
e|--------------------------------------------------------------|
B|--------------------------------------------------------------|
G|-----------777/999/121212---999\111111\444---777/999/121212---|
D|---4-------xxx/xxx/-x-x-x---xxx\-x-x-x\xxx---xxx/xxx/-x-x-x---| 2x
A|-2---5-5-5-555/777/101010---777\-9-9-9\222---555/777/101010---|
D|--------------------------------------------------------------|


Verse 1:

Bass:
G|------------------------------|
D|------------------------------| 5x
A|------------------------------|
D|--99999-55555-22222222--------|


Guitar 1: Enters at the 3rd time
e|---------------------------------|
B|---------------------------------|
G|-1111111111--777777--444444------|  2x
D|--9-9-9-9-9--555555--222222------|
A|--9-9-9-9-9--555555--222222------|
D|--9-9-9-9-9--555555--222222------|

Guitar 2:
e|---------------------------------|
B|---------------------------------|
G|--77777-99999-12121212121212-----| 2x
D|--xxxx--xxxxx--x-x-x-x-x-x-x-----|
A|--55555-77777-10101010101010-----|
D|---------------------------------|


Both Guitars:
e|--------------|
B|--------------|
G|-11--7--4~----|
D|--9--5--2~----|
A|--9--5--2~----|
D|--9--5--2~----|


Chorus:

Guitar 1:
e|--------------------------------------------------------|
B|--------------------------------------------------------|
G|---11------------14b-11b~---11-------------14b----------|
D|-9----9--7----9-----------9----9--7----9----------------| 2x
A|-----------10-----------------------10-----------12b~---|
D|--------------------------------------------------------|

Guitar 2:
e|--------------------------------------------------------------|
B|--------------------------------------------------------------|
G|-----------777/999/121212---999\111111\444---777/999/121212---|
D|---4-------xxx/xxx/-x-x-x---xxx\-x-x-x\xxx---xxx/xxx/-x-x-x---| 2x
A|-2---5-5-5-555/777/101010---777\-9-9-9\222---555/777/101010---|
D|--------------------------------------------------------------|


Verse 2:No Guitar

Repeat Chorus:


Bridge part 1:
Guitar 1:
e|--------------------------------|
B|--------------------------------|
G|-5555555-555555-555555-555555---|
D|-5555555-555555-555555-555555---|
A|-3333333-333333-333333-333333---|
D|--------------------------------|

Guitar 2:
e|------------------------------------------------|
B|------------------------------------------------|
G|-555/777/999/121212---555/777/999/121212--------|  2x
D|-xxx/xxx/xxx/-x-x-x---xxx/xxx/xxx/-x-x-x--------|
A|-333/555/777/101010---333/555/777/101010--------|
D|------------------------------------------------|

(Continuation)
e|-----------------------------------|
B|-----------------------------------|
G|--16b-16b-14b-14b-12b-12b-12\\-----|
D|-----------------------------------|
A|-----------------------------------|
D|-----------------------------------|


Bridge part 2:

Bass:
G|---------|--------|--------|---------|
D|---------|--------|--------|---------|
A|---------|--------|--------|---------|
D|--99999--|--------|--------|---------|

Guitar 1:
e|---------|--------|--------|---------|
B|---------|--------|--------|---------|
G|---------|--------|--44444-|---------|
D|---------|--------|--22222-|---------|
A|---------|--------|--22222-|---------|
D|---------|--------|--22222-|---------|

Guitar 2:
e|---------|--------|--------|---------|
B|---------|--------|--------|--99999--|
G|---------|--7777--|--------|--xxxxx--|
D|---------|--5555--|--------|--66666--|
A|---------|--5555--|--------|---------|
D|---------|--5555--|--------|---------|


Repeat Chorus 2x


Last Chord:
Guitar 1:
e|--------|
B|--------|
G|--11----|
D|---9----|
A|---9----|
D|---9----|

Guitar 2:
e|--------|
B|--------|
G|---7----|
D|---x----|
A|---9----|
D|--------|


End


////////////////////////////////////////////////////////////////////////////////////////////


Track 8. Youre Killing Me

Drop D Tuning

Guitar 1 - Sonny(Left Speaker)
Guitar 2 - Mong(Right Speaker)


Intro:
Drumbeat & Effects

Verse:
     "She said to me.."
e|---------------------------------|
B|---------------------------------|
G|---------------------------------| 2x
D|--777777-555555-3333333333-------|
A|--777777-555555-3333333333-------|
D|--777777-555555-3333333333-------|

 "your last breath,I know.."
e|---------------------------|
B|---------------------------|
G|--55-55-55-55-5/7----------|
D|--33-33-33-33-x/x----------|
A|--33-33-33-33-3/5----------|
D|--33-33-33-33--------------|


Chorus:
"Whoa, I could see the tears from in your eyes.."
e|-----------------------------------|
B|-----------------------------------|
G|-----------------------------------| 2x
D|--7777777-3333333-0000000-333333---|
A|--7777777-3333333-0000000-333333---|
D|--7777777-3333333-0000000-333333---|

"But we've almost made it"
e|---------|
B|---------|
G|---------|
D|---3~~---|
A|---3~~---|
D|---3~~---|


Repeat Verse:
Repeat Chorus:


Bridge part 1:

Guitar 1:
      "Whoa..."
e|---------------------------------|
B|---------------------------------|
G|---------------------------------|
D|--777777-555555-3333333333-------| 2x
A|--777777-555555-3333333333-------|
D|--777777-555555-3333333333-------|


Guitar 2:
e|----------------------------------------|
B|------------------8-----------------8---|
G|-5h6-5h6-5h6-5h6----5h6-5h6-5h6-5h6-----| Get the timing..
D|----------------------------------------|
A|----------------------------------------|
D|----------------------------------------|

 (Continuation)
e|--101010101010\888888888-101010101010\88888888--------|
B|------------------------------------------------------|
G|------------------------------------------------------|
D|------------------------------------------------------|
A|------------------------------------------------------|
D|------------------------------------------------------|

 (Continuation)
e|----------------------------------------|
B|------------------8-----------------8---|
G|-5h6-5h6-5h6-5h6----5h6-5h6-5h6-5h6-----| Get the timing..
D|----------------------------------------|
A|----------------------------------------|
D|----------------------------------------|

(Continuation)
e|--888888888/1010101010\888888888888\777777777\5~----|
B|----------------------------------------------------|
G|----------------------------------------------------|
D|----------------------------------------------------|
A|----------------------------------------------------|
D|----------------------------------------------------|

Bridge part 2:

   "Darling not tonight"
e|---------------------|          e|------------------|
B|---------------------|          B|------------------|
G|---------------------| 3x Then  G|------------------|
D|---------------------|          D|--------------0~--|
A|---------------------|          A|--------------0~--|
D|--7~--5~--3~--3~-----|          D|--7~--5~--3~--0~--|


Repeat Chorus:
Repeat Bridge part 1:


Outro:
Guitar 1:                     Guitar 2:
e|-----------------------|   e|--88-88-88-88-10--|
B|-----------------------|   B|------------------|
G|--55-55-55-55-7--------|   G|------------------|
D|--33-33-33-33-5--------|   D|------------------|
A|--33-33-33-33-5--------|   A|------------------|
D|--33-33-33-33-5--------|   D|------------------|


Last chords:
Guitar 1:    Guitar 2:
e|------|      e|--12~--|
B|------|      B|-------|
G|------|      G|-------|
D|--3~--|      D|-------|
A|--3~--|      A|-------|
D|--3~--|      D|-------|

End


////////////////////////////////////////////////////////////////////////////////////////////


Track 9. Last Look

Drop D Tuning


Note: Another Tab originate by No_Falter08,Wala na po ako kailangan baguhin
      pa accurate na sya eh. hekhek.. maraming salamat po kuya No_Falter08


Intro: Drumbeat

Verse:
e|---------------------------------------------------|
B|---------------------------------------------------|
G|---------------------------------------------------| 2x
D|-9999h111111-9999h111111-6-6666h77777-6666h77777---|
A|---------------------------------------------------|
D|---------------------------------------------------|

Pre-Chorus:
e|---------      ------|
B|---------      ------|
G|--------- 4x   ------|
D|-2~--4~-- Then -2~---|
A|-2~--4~--      -2~---|
D|-2~--4~--      -2~---|

Chorus:

e|-------------------------      ------------------|
B|-------------------------      ------------------|
G|------------------------- 2x   ------------------|
D|-7777777-4444444-222222-- Then -77777-44444-2~---|
A|-7777777-4444444-222222--      -77777-44444-2~---|
D|-7777777-4444444-222222--      -77777-44444-2~---|

Repeat Verse
Repeat Pre-Chorus
Repeat Chorus (4x)


Before Bridge:
e|--------------------|
B|--------------------|
G|--------------------|
D|-22222222-2222222---|
A|-22222222-2222222---|
D|-22222222-2222222---|


Bridge:
e|--------------------------      -----------|
B|-------------------------- 2x   -----------|
G|-------------------------- Then -----------|
D|-77777-99999-77777-44444--      --7~--9~---|
A|-55555-77777-77777-44444--      --5~--7~---|
D|-------------77777-44444--      -----------|

Chorus 2:
e|-----------------|
B|-----------------|
G|-----------------| 4x
D|-777777-444444---|
A|-777777-444444---|
D|-777777-444444---|


Outro:
Gtr.1 Repeat Verse:
Gtr.2 Last Chord:
e|------|
B|------|
G|------|
D|-2~---|
A|-2~---|
D|-2~---|

Gtr.1 Last Chord:
e|------|
B|------|
G|------|
D|-9~---|
A|------|
D|------|

End


////////////////////////////////////////////////////////////////////////////////////////////


Track 10. Matinee

Drop D Tuning


Intro part 1:
e|----------------------------------------------------|
B|----------------------------------------------------|
G|-55555555/12121212121212----------------------------|
D|-77777777/14141414141414--777777------7-----7-------|
A|--------------------------888888--7-7---7-7---------|
D|----------------------------------------------------|

Intro part 2:
E|-----------------------------------------------------|
B|-----------------------------------------------------|
G|--5-5-4-4-2--5-5-4-4-2-------------------------------| 2x
D|-------------------------5-5-3-3-2--5-5-3-3-2--------|
A|-----------------------------------------------------|
D|-----------------------------------------------------|

Verse:
E|------------------|
B|-----8~----8------|
G|---7-----7--7~----| Repeat Many times...
D|--7-----7---------|
A|------------------|
D|------------------|

(Continuation)
E|----------------------------|
B|----------------------------|
G|----------------------------|
D|--77777777--33333333--------| 2x
A|--77777777--33333333--------|
D|--77777777--33333333--------|
    ........  ........

(Continuation)
E|--------------|
B|--------------|
G|--------------|
D|--3~--3~------|
A|--3~--3~------|
D|--3~--3~------|


Chorus:
E|----------------------------------------|
B|----------------------------------------|
G|-99999-1212121212-1414141414-55555------|
D|-77777-1010101010-1212121212-33333------| 2x
A|-77777-1010101010-1212121212-33333------|
D|-77777-1010101010-1212121212-33333------|


Repeat Intro part 2
Repeat Verse
Repeat Chorus

Bridge part 1:
E|----------------------------------------|
B|----------------------------------------|
G|-99999-1212121212-1414141414-55555------|
D|-77777-1010101010-1212121212-33333------| 2x
A|-77777-1010101010-1212121212-33333------|
D|-77777-1010101010-1212121212-33333------|


Bridge part 2:
E|------------------|
B|------------------|
G|------------------|
D|--3~--3~--3~--3~--|
A|--3~--3~--3~--3~--|
D|--3~--3~--3~--3~--|


Repeat Chorus

End

////////////////////////////////////////////////////////////////////////////////////////////


Track 11. Pink Hearts,Yellow Stars (Harlequin Lover)

Drop D Tuning

Guitar 1 - Sonny(Left Speaker)
Guitar 2 - Mong(Right Speaker)

Tuning: Drop D


Intro part 1: Keyboard

Intro part 2: Also Carries the verse

e|-------------------|
B|-------------------|
G|-2222-2222-2222----|
D|-xxxx-xxxx-xxxx----|
A|-0000-0000-0000----|
D|-------------------|


Pre-Chorus:
e|------------------------------|
B|--------1010x--------1010x----|
G|-888888-------888888----------|
D|------------------------------|
A|------------------------------|
D|------------------------------|
   ......       ......


Chorus: "You we're a harlequin lover.."

e|---------------------|
B|---------------------|
G|--999-121212-55555---| 4x
D|--777-101010-33333---|
A|--777-101010-33333---|
D|--777-101010-33333---|


Repeat Intro part 2
Repeat Verse
Repeat Chorus


Bridge part 1:
e|-------------------------|
B|--------------12---------|
G|-----------------12------|
D|--5~~--5~~---------------|
A|--5~~--5~~---------------|
D|--5~~--5~~---------------|

(Continuation)
e|---------------------------------------|
B|----------8-----------------8----------| Repeat many times..
G|--7h9p7-7---9-7-----7h9p7-7---9-7------| 
D|----------------10----------------10---|
A|---------------------------------------|
D|---------------------------------------|

 Guitar 2: w/ low volume
e|--8888-8888-1010--|
B|------------------|
G|------------------| repeat many times
D|------------------|
A|------------------|
D|------------------|
    .... .... . .     


Bridge part 2:

Bass Enters: "Here she comes..."

G|---------------------------|
D|---------------------------| 
A|---------------------------| 
D|--777777-555555-333333333--|

Gtr 1:
e|---------------------------------------|
B|----------8-----------------8----------| Repeat many times..
G|--7h9p7-7---9-7-----7h9p7-7---9-7------| 
D|----------------10----------------10---|
A|---------------------------------------|
D|---------------------------------------|

Gtr 2:
e|----8v--8v-10-8--|
B|--8---8----------|
G|-----------------|Repeat many times
D|-----------------|
A|-----------------|
D|-----------------|



Bridge part 3:(The Loud part of the bridge)

Gtr 1:
e|----------------------------------------|
B|----------8-----------------8-----------| Repeat many times..
G|--7h9p7-7---9-7-----7h9p7-7---9-7-------| 
D|----------------10----------------10----|
A|----------------------------------------|
D|----------------------------------------|

Gtr 2:
e|-------------------|
B|--8888-8888-8-10---| Repeat many times
G|--xxxx-xxxx--------|
D|--5555-5555--------|
A|-------------------|
D|-------------------|

(Continued)
Gtr 2: 
e|--15-13----------13-13h15-15-------------8---10p8-8-----8---10p8-8----|
B|--------17-15----------------17-15-----8---8--------8-8---8--------8--|
G|--------------17-------------------17---------------------------------| 2x
D|----------------------------------------------------------------------|
A|----------------------------------------------------------------------|
D|----------------------------------------------------------------------|


Last Chords:
e|--------|
B|--------| 
G|--9\\---|
D|--x\\---|
A|--7\\---|
D|--------|


End


////////////////////////////////////////////////////////////////////////////////////////////

Track 12. January Days

No Tab Yet(Tignan nyo nalang yung gwa po ni kuya No_Falter08. tama yun!)


////////////////////////////////////////////////////////////////////////////////////////////


13. Paris (Method Of Breathing album)

Drop D Tuning



Intro part 1:

e|---------------------           -------------|
B|---------------------           -------------|
G|--------------------- 2x Then   -------------| 3x
D|----888888888888888--           ----8888888--|
A|-66------------------           -66----------|
D|-66------------------           -66----------|
   ..                              ..


Intro part 2:
e|------------------------------------------------------------------|
B|------------------------------------------------------------------|
G|-88888888/10-555555/7-3333-3-2-3-3-2-3-88888888/10-55555555/7-3~--|
D|-66666666/-8-333333/5-1111111111111111-66666666/-8-33333333/5-1~--|
A|-66666666/-8-333333/5-1111111111111111-66666666/-8-33333333/5-1~--|
D|-66666666/-8-333333/5-1111111111111111-66666666/-8-33333333/5-1~--|


Verse 1:

Gtr 1:
e|---------------|
B|---------------|
G|---------------| 4x
D|----8888888888-|
A|-66------------|
D|-66------------|
   ..

Gtr 2:
e|-------------|
B|--------6\---|
G|--88-66------| 4x
D|-------------| 
A|-------------|
D|-------------|



Chorus 1:
e|------------------------------------------------------------------|
B|------------------------------------------------------------------|
G|-88888888/10-555555/7-3333-3-2-3-3-2-3-88888888/10-55555555/7-3~--|
D|-66666666/-8-333333/5-1111111111111111-66666666/-8-33333333/5-1~--|
A|-66666666/-8-333333/5-1111111111111111-66666666/-8-33333333/5-1~--|
D|-66666666/-8-333333/5-1111111111111111-66666666/-8-33333333/5-1~--|



Verse 2:

Gtr 1:
e|---------------|
B|---------------|
G|---------------| 9x
D|----8888888888-|
A|-66------------|
D|-66------------|
   ..

Gtr 2:
e|-------------|
B|--------6\---|
G|--88-66------| 9x
D|-------------| 
A|-------------|
D|-------------|



Chorus 2:
e|------------------------------------------|
B|------------------------------------------|
G|-88888888/10-555555/7-3333-3-2-3-3-2-3----| 2x
D|-66666666/-8-333333/5-1111111111111111----|
A|-66666666/-8-333333/5-1111111111111111----|
D|-66666666/-8-333333/5-1111111111111111----|



Bridge part 1:(See to your self to figure the timing) 

Gtr.1:                                                               Gtr 2 Enters:  
e|------------------------------------------------|         -------|
B|----------15-15-16-16-16p15-15----16p15---------|         -------|
G|-15-15-15----------------------15-------15------| 3x      --8\---| 
D|------------------------------------------------|         --6\---|
A|------------------------------------------------|         --6\---|
D|------------------------------------------------|         --6\---|



Bridge part 2:
Gtr.1:
e|-------------------------------|
B|--88-66------------------------|
G|--------88-66-55----5h7--------| 8x
D|-----------------88------------|
A|-------------------------------|
D|-------------------------------|
                   .. 


Gtr.2:(Sundan nyo yung timing ng mga palm mutes)
e|------------------|-------------------------------------------------------------|
B|------------------|------------3*-------------3*-------------3*-------------3*--|
G|------------------|------------3*-------------3*-------------3*-------------3*--|
D|--55--55--55--55--|-55-555-555-3*--55-555-555-3*--55-555-555-3*--55-555-555-3*--|
A|--33--33--33--33--|-33-333-333-3*--33-333-333-3*--33-333-333-3*--33-333-333-3*--|
D|------------------|-------------------------------------------------------------|
    ..  ..  ..  ..    .. ... ...     .. ... ...     .. ... ...     .. ... ...



Bridge part 3:
Gtr.1:
e|-----------------------------|
B|-----------------------------|
G|-----------------------------| 4x
D|--8-8-8-6-6-6-5-5-5-3-1-3----| 
A|-----------------------------|
D|-----------------------------|

Gtr.2
e|-----------------------------|
B|-----------------------------|
G|--101010101010101010101010---|
D|---8-8-8-8-8-8-8-8-8-8-8-8---| 4x
A|---8-8-8-8-8-8-8-8-8-8-8-8---|
D|---8-8-8-8-8-8-8-8-8-8-8-8---|



Verse 3:

Gtr 1:
e|---------------|
B|---------------|
G|---------------| 9x
D|----8888888888-|
A|-66------------|
D|-66------------|
   ..

Gtr 2:
e|-------------|
B|--------6\---|
G|--88-66------| 9x
D|-------------| 
A|-------------|
D|-------------|



Chorus 1:
e|------------------------------------------------------------------|
B|------------------------------------------------------------------|
G|-88888888/10-555555/7-3333-3-2-3-3-2-3-88888888/10-55555555/7-3~--|
D|-66666666/-8-333333/5-1111111111111111-66666666/-8-33333333/5-1~--|
A|-66666666/-8-333333/5-1111111111111111-66666666/-8-33333333/5-1~--|
D|-66666666/-8-333333/5-1111111111111111-66666666/-8-33333333/5-1~--|



Outro:"You and I,Step into the line"

e|-----------------------------------------------|
B|-----------------------------------------------|
G|--8888888888-5555555555-33333333333333333333---| 2x
D|--6666666666-3333333333-11111111111111111111---|
A|--6666666666-3333333333-11111111111111111111---|
D|--6666666666-3333333333-11111111111111111111---|



Last Chords:
e|------|
B|------|
G|--8~--|
D|--6~--|
A|--6~--|
D|--6~--|

////////////////////////////////////////////////////////////////////////////////////////////
comments
print report bad tab
29 comments total. Showing first comments.
0 reply
elvin_guitar wrote on May 13 2007, 06:54 am

dude!!! 5 twinkling stars.. hahaha.. rate mo din mga tabs ko

0 reply
teddyz10 wrote on May 17 2007, 05:43 am

ULOL!!! NIRE-RATE MO DIN MGA TABS MO. RATE MO GAWA MO.AYOS HA??

0 reply
paul21 wrote on May 18 2007, 06:35 am

Ayos mo dude!!! hindi ako nag-uubos ng oras para ivote lang mga tabs ko..

I want to post or [tab]
guest
You may want to rate the tab now too:
select rating
Please do not post tabs as comments. Select "correction" instead!