Oops, an error
Loading. Please wait.

Angels Dont Kill Tab

ver3
ver3
More versions @911Tabs.com
57,379 views 72 this week
25 commentsread comments
1 2 3 4 5
accurate
x 36
Autoscroll
+/-
esc
set tempo
stop
WARNING: You are trying to view
                                    content from Ultimate-Guitar.com
                                    in an unauthorized application,
                                    which is prohibited.

                                    Please use an official Ultimate
                                    Guitar Tabs application for iPhone,
                                    iPad or Android to access legitimate
                                    chords, guitar, bass, and drum tabs
                                    from Ultimate-Guitar.com database.

                                    Type "ultimate guitar tabs" in Apple
                                    App Store's or Android Market's
                                    search to find the application.
                                ANGELS DONĀ“T KILL
                        As recorded by Children Of Bodom
                    (From the 2003 Album HATE CREW DEATHROLL)


          G5                   A5                   C5                   D5
      5 5 x x x x          x 0 2 x x x          x 3 5 x x x          0 0 x x x x

          F5                   Eb5                  B5                   F#5
      3 3 x x x x          1 1 x x x x          x 2 4 x x x          4 4 x x x x

          C#5                  Bb5                  F/A
      x 4 6 x x x          x 1 3 x x x          x 0 3 x x x

Gtr I (C G C F A D) - 'Gtr. 1'
Gtr II (C G C F A D) - 'Gtr. 2'
Gtr III (C G C F A D) - 'Gtr. 3'

 Intro
  Q=92
  N.C.                        D5
 4/4
  Gtrs I, II
  Wx3          H    H         W
|------------|------------||-----------|
|------------|------------||o----------|
|------------|------------||-----------|
|------------|------------||-----------|
|------------|------x\----||o-0--------|
|------------|------x\----||--0--------|


 1.                 2.
                            N.C.
                                 ~~~
  +H.        Q        H     S S  E  S S  E
|-----------------||----------------------------||
|----------------o||----------------------------||
|-----------------||----------------------------||
|-----------------||----------------------------||
|-(0)------------o||-(0)----5-5-[3]-5-5-[3]\----||
|-(0)------/12\---||-(0)------------------------||


    N.C.                  D5         C5
    Gtr I
    PM       PM|          PM----|
    E  E E E S S  E E E   E E E E Q  Q
||----------------------|---------------|
||o---------------------|---------------|
||-------7----------7---|---------------|
||----/7---7-----/8---8-|---------7--5--|
||o---------------------|-0-0-0-0-5--3--|
||--0--------0-0--------|-0-0-0-0-------|
|
|   Gtr II
|   PM       PM|          PM----|
|   E  E E E S S  E E E   E E E E Q  Q
||----------------------|---------------|
||o------6----------6---|---------------|
||----/7---7-----/7---7-|---------------|
||----------------------|---------7--5--|
||o---------------------|-0-0-0-0-5--3--|
||--0--------0-0--------|-0-0-0-0-------|


  N.C.                  D5      G#mFm
  PM       PM|                PM
  E  E E E S S  E E E   E E E E Q   Q
|---------------------|---------7--------||
|---------------------|---------9---9---o||
|------7----------7---|------------10----||
|---/7---7-----/8---8-|------------------||
|---------------------|-0-0-0-0---------o||
|-0--------0-0--------|-0-0-0-0----------||
|
| PM       PM|          PM----|
| E  E E E S S  E E E   E E E E Q   Q
|---------------------|------------------||
|------6----------6---|-------------9---o||
|---/7---7-----/7---7-|---------7--10----||
|---------------------|---------9--------||
|---------------------|-0-0-0-0---------o||
|-0--------0-0--------|-0-0-0-0----------||


   1st & 2nd Verse
                                                  1.
    $
    A#5  C5     N.C.                               A#5  C5
                PM|          PM|  ~~~PM|     PM
    H    H      S S T T S E  S S  E  S S S S S S   H    H
||------------|----------------------------------|-----------|
||o-----------|----------------------------------|-----------|
||------------|----------------------------------|-----------|
||--3----5----|--------------------------7s5---5-|-3----5----|
||o-1----3----|-----5h7h8-7\-----[5]-------------|-1----3----|
||------------|-0-0----------0-0-----0-0-----0---|-----------|
|
|               PM|          PM|  ~~~PM|     PM
|   H    H      S S T T S E  S S  E  S S S S S S   H    H
||------------|----------------------------------|-----------|
||o-----------|----------------------------------|-----------|
||------------|----------------------------------|-----------|
||--3----5----|--------------------------7s5---5-|-3----5----|
||o-1----3----|-----5h7h8-7\-----[5]-------------|-1----3----|
||------------|-0-0----------0-0-----0-0-----0---|-----------|


                                   2.
                                    To Coda
  N.C.                              A#   C5     A5          C5
  PM|          PM--|                             PM----|
  S S T T S S  S S S  E E  E  E     H    H       E E E E Q  Q
|--------------------------------||-----------|----------------||
|-------------------------------o||-----------|----------------||
|--------------------------------||-----------|----------------||
|---------------------7-5--------||-3----5----|-------------5--||
|-----5h7h8-7\-5-7-8-------8--7-o||-1----3----|-/7-7-7-7-7--3--||
|-0-0----------------------------||-----------|-/7-7-7-7-7-----||
|
| PM|          PM--|                             PM----|
| S S T T S S  S S S  E E  E  E     H    H       E E E E Q  Q
|--------------------------------||-----------|----------------||
|-------------------------------o||-----------|----------------||
|--------------------------------||-----------|----------------||
|--------------------10-8--------||-3----5----|-------------5--||
|-----5h7h8-7\-5-7-8------12-10-o||-1----3----|-/7-7-7-7-7--3--||
|-0-0----------------------------||-----------|-/7-7-7-7-7-----||


   Bridge
    N.C.
      Q   E  Q   E  Q     +W             Q   E  Q   E  Q
||---------------------|-------------|--------------------|
||o--------------------|-------------|--------------------|
||--------9------------|-------------|--------------------|
||--/12-----10--12-----|-------------|--/8---8-10--10-----|
||o----------------13--|-(13)--------|----------------10--|
||---------------------|-------------|--------------------|
|
|     Q   E  Q   E  Q     +W             Q   E  Q   E  Q
||---------------------|-------------|--------------------|
||o--------------------|-------------|--------------------|
||--/10--12--9--10-----|-------------|-/10--12--9--10-----|
||-----------------12--|-(12)--------|----------------12--|
||o--------------------|-------------|--------------------|
||---------------------|-------------|--------------------|


        D.S. al Coda       &
                           A5                C5
   +Q    E Q   E  E  E     S S Q  S S +Q   S E.
|-----------------------||----------------------||
|----------------------o||----------------------||
|-------10-9---9--------||----------------------||
|----------------10-----||-------------------5--||
|-(10)--------------12-o||-7-7----7-7-(7)--x-3--||
|-----------------------||-7-7----7-7-(7)--x----||
|
|  +Q    E Q   E  Q        S S Q  S S +Q   S E.
|-----------------------||----------------------||
|----------------------o||----------------------||
|-------10-9------------||----------------------||
|-(12)--------10--------||-------------------5--||
|----------------12----o||-7-7----7-7-(7)--x-3--||
|-----------------------||-7-7----7-7-(7)--x----||


   Chorus
    N.C.                  D5         C5   N.C.
    PM       PM|          PM----|         PM       PM|
    E  E E E S S  E E E   E E E E Q  Q    E  E E E S S  E E E
||----------------------|---------------|---------------------|
||o---------------------|---------------|---------------------|
||-------7----------7---|---------------|------7----------7---|
||----/7---7-----/8---8-|---------7--5--|---/7---7-----/8---8-|
||o---------------------|-0-0-0-0-5--3--|---------------------|
||--0--------0-0--------|-0-0-0-0-------|-0--------0-0--------|
|
|   PM       PM|          PM----|         PM       PM|
|   E  E E E S S  E E E   E E E E Q  Q    E  E E E S S  E E E
||----------------------|---------------|---------------------|
||o------6----------6---|---------------|------6----------6---|
||----/7---7-----/7---7-|---------------|---/7---7-----/7---7-|
||----------------------|---------7--5--|---------------------|
||o---------------------|-0-0-0-0-5--3--|---------------------|
||--0--------0-0--------|-0-0-0-0-------|-0--------0-0--------|


 1.                 2.
  D5      G#mFm      D5              G#mFm
        PM           PM------------|
                     |-3-|   |-3-|
  E E E E Q   Q      S S S e S S S e Q   Q
|---------7-------||-----------------7--------||
|---------9---9--o||-----------------9---9----||
|------------10---||--------------------10----||
|-----------------||--------------------------||
|-0-0-0-0--------o||-0-0-0-0-0-0-0-0----------||
|-0-0-0-0---------||-0-0-0-0-0-0-0-0----------||
|
| PM----|            PM------------|
|                    |-3-|   |-3-|
| E E E E Q   Q      S S S e S S S e Q   Q
|-----------------||--------------------------||
|-------------9--o||---------------------9----||
|---------7--10---||-----------------7--10----||
|---------9-------||-----------------9--------||
|-0-0-0-0--------o||-0-0-0-0-0-0-0-0----------||
|-0-0-0-0---------||-0-0-0-0-0-0-0-0----------||


 1st Guitar Solo
  G5                           A5              C5
  Gtrs I, II
  H                             Q                Q
  |                             |                |
  /                             /                /

  Gtr III
  S  S  S  S  S  S      +S   S  S  S  S  S      +E   +S   S
|------------17---------------------------------------------|
|---------18----20b22==(20)r18-17----17-20b22==(20)-(20)r18-|
|------19-------------------------19------------------------|
|---19------------------------------------------------------|
|-----------------------------------------------------------|
|-----------------------------------------------------------|


  D5                                                C5
   E  E          Q                S    S +E   S     E.
   |  |                           |    |  |   |     |
   /  /                           /    /  /   x     /

   E  S  S      +S   +S   +S   S  Q          +E         +S   S
|----20-18b20==(18)-(18)r(18)-------------------------------20b22==|
|--------------------------------18b20r=====(18)b20----(18)--------|
|-19--------------------------19-----------------------------------|
|------------------------------------------------------------------|
|------------------------------------------------------------------|
|------------------------------------------------------------------|


  G5                                A5       C5
    H                                Q        Q
    |                                |        |
    /                                /        /

                                     ~~
   +E   +E   T  T  T  T  T  T  T  T  E  +E    T  T  T  T  T  T  S
|-(20)r(20)-17p15----------------------------17p15----------------|
|-----------------18p15-------------17-(17)\-------18p15----------|
|-----------------------17p14----------------------------17p14----|
|-----------------------------17p15----------------------------17-|
|-----------------------------------------------------------------|
|-----------------------------------------------------------------|


  D           C           D              C            G5                   A5               C5
   S  S  S  S  S  S  S  S  S  S  S  S    S  S  S  S    H                   Q                Q
   |  |  |  |  |  |  |  |  |  |  |  |    |  |  |  |    |                   |                |
   o  /  /  /  o  /  /  /  o  /  /  /    o  /  /  /    /                   /                /

                                                                              |--3--|
   S  S  S  S  S  S  S  S  S  S  S  E       S  S  S    E  S  S  S  e  E       S  S  S  E       +S   E
|---------------------------------------------------|----------------------------------------------------|
|---------------------------------------------------|----10----10----13b15r==10-------18b20---(18)-15----|
|----------14---------------------------------------|----10----10---------------12p10--------------------|
|-15-15-17----17-17-15-14-15----15-17b19r==17-15-14-|-12----12----12-------------------------------------|
|----------------------------17---------------------|----------------------------------------------------|
|---------------------------------------------------|----------------------------------------------------|


  D5                          C5
   E    E Q    S  S +E  S     E.
   |    |      |  |  |  |     |
   /    /      /  /  /  x     /

   H          +Q        E         +E
|-17b21------(17)------22b25=====(22)r|
|-------------------------------------|
|-------------------------------------|
|-------------------------------------|
|-------------------------------------|
|-------------------------------------|


  G5                                         A5                      C5
    H                                         Q                       Q
    |                                         |                       |
    /                                         /                       /

   +E   +T   T  T  T  T  T  T  T  T  T  T  T  T  T  T  T  T  T  T  T  T  T  T  T  T  T  T T
|-(22)-(22)-17p15-21p17p15-------------------20p17p15-20p17p15-------------------20p17p15-x--|
|--------------------------20p18p17-18p17p15-------------------20p18p17-18p17p15-------------|
|--------------------------------------------------------------------------------------------|
|--------------------------------------------------------------------------------------------|
|--------------------------------------------------------------------------------------------|
|--------------------------------------------------------------------------------------------|


        D                       C                       D              C
   S     S     S     S     S     S     S     S     S     S     S  S  S  S  S  S
   |     |     |     |     |     |     |     |     |     |     |  |  |  |  |  |
   x     o     /     /     x     o     /     /     x     o     /  /  x  o  /  /

   T  T  T  T  T  T  T  T  T  T  T  T  T  T  T  T  T  T  T  T  S  S  S  S  S  S
|-17p15-------------------------------------------------------------------------||
|-------20p18p17-18p17p15-18p17p15-20p18p17-18p17p15-18p17p15-------------------||
|-------------------------------------------------------------------------------||
|-------------------------------------------------------------19p17-15-14-------||
|-------------------------------------------------------------------------17-15-||
|-------------------------------------------------------------------------------||


   3rd Verse
                                                    1.
    A#5    C5     N.C.                               A#5  C5
    Gtr I
                  PM|          PM|  ~~~PM|     PM
     H     H      S S T T S E  S S  E  S S S S S S   H    H
||--------------|----------------------------------|-----------|
||o-------------|----------------------------------|-----------|
||--(3)---------|----------------------------------|-----------|
||---3-----5----|--------------------------7s5---5-|-3----5----|
||o--1-----3----|-----5h7h8-7\-----[5]-------------|-1----3----|
||--------------|-0-0----------0-0-----0-0-----0---|-----------|
|
|   Gtr II
|                 PM|          PM|  ~~~PM|     PM
|    H     H      S S T T S E  S S  E  S S S S S S   H    H
||--------------|----------------------------------|-----------|
||o-------------|----------------------------------|-----------|
||--------------|----------------------------------|-----------|
||---3-----5----|--------------------------7s5---5-|-3----5----|
||o--1-----3----|-----5h7h8-7\-----[5]-------------|-1----3----|
||--------------|-0-0----------0-0-----0-0-----0---|-----------|


                                   2.
  N.C.                              A#5  C5     A5
  PM|          PM--|                             PM------------|
  S S T T S S  S S S  E E  E  E     H    H       E E E E E E E E
|--------------------------------||-----------|------------------||
|-------------------------------o||-----------|------------------||
|--------------------------------||-----------|------------------||
|---------------------7-5--------||-3----5----|------------------||
|-----5h7h8-7\-5-7-8-------8--7-o||-1----3----|-/7-7-7-7-7-7-7-7-||
|-0-0----------------------------||-----------|-/7-7-7-7-7-7-7-7-||
|
| PM|          PM--|                             PM------------|
| S S T T S S  S S S  E E  E  E     H    H       E E E E E E E E
|--------------------------------||-----------|------------------||
|-------------------------------o||-----------|------------------||
|--------------------------------||-----------|------------------||
|--------------------10-8--------||-3----5----|------------------||
|-----5h7h8-7\-5-7-8------12-10-o||-1----3----|-/7-7-7-7-7-7-7-7-||
|-0-0----------------------------||-----------|-/7-7-7-7-7-7-7-7-||


 Interlude
  D5
  Gtrs I, II
   q        H.
   |
   /

  Gtr III
   E  S  S  S   S  S  S  S  S  S  S  S  S  S  S
|-----------------------------------------------|
|----------11--11-------------------------------|
|-----------------12-12-14-14-------12-12-------|
|-12-12-12--------------------15-15-------14-14-|
|-----------------------------------------------|
|-----------------------------------------------|


                                   D             D5
   E  E     H                       Q             W
   |  |                             |             |
   /  /                             o             /

   E  S  S  S  S  S  S  S  S  S  S  S  S  S  S    E  S  S  S  S  S  S  S  S  S  S  S  S  S  S
|----------------------------------------------|----------------------------------------------|
|----------11-11-------------------------------|----------11-11-------------------------------|
|----------------12-12-14-14-------12-12-------|----------------12-12-14-14-------12-12-------|
|-12-12-12-------------------15-15-------14-14-|-12-12-12-------------------15-15-------14-14-|
|----------------------------------------------|----------------------------------------------|
|----------------------------------------------|----------------------------------------------|


  D5                   F5          A5
  +H                    Q           Q
   |                    |           |
   /                    /           /

      PM|
   E  S  S  S  S  S  S  S  S  S  S  S  S  S  S
|-------------------------------------------12-|
|----------11-11----11-13-10-------------13----|
|----------------12----------10-------12-------|
|-12-12-12----------------------10-14----------|
|----------------------------------------------|
|----------------------------------------------|


  D5
   W                                              +W
   |                                               |
   /                                               /

                                                   \2
   E  S  S  S  S  S  S  S  S  S  S  S  S  S  S     W
|----------------------------------------------|---------||
|----------11-11-------------------------------|---------||
|----------------12-12-14-14-------12-12-------|---------||
|-12-12-12-------------------15-15-------14-14-|-[12]----||
|----------------------------------------------|---------||
|----------------------------------------------|---------||


  Eb5 B5    F#5   C#5
   Q   Q     Q     Q
   |   |     |     |
   /   /     /     /

   Q   E  E  E  E  E  S  S
|--------------------------|
|-----12-------------------|
|--------13-15----13-------|
|-13-----------16----16-15-|
|--------------------------|
|--------------------------|


  Eb5 B5       F#5         Bb5           Eb5 B5    F#5   C#5
   Q   Q        Q           Q             Q   Q     Q     Q
   |   |        |           |             |   |     |     |
   /   /        /           /             /   /     /     /

   Q   E  S  S  S  S  S  S  S  S  S  S    Q   E  E  E  E  E  S  S
|-----------------------------------13-|--------------------------|
|-----12----12-14-11-------------14----|-----12-------------------|
|--------13----------11-------13-------|--------13-15----13-------|
|-13--------------------11-15----------|-13-----------16----16-15-|
|--------------------------------------|--------------------------|
|--------------------------------------|--------------------------|


  Eb5 B5       F#5         Bb5           A
   Q   Q        Q           Q            W          W
   |   |        |           |            |          |
   /   /        /           /            o          /

   Q   E  S  S  S  S  S  S  S  S  S  S   W          W
|-----------------------------------13-|----------|------||
|-----12----12-14-11-------------14----|----------|------||
|--------13----------11-------13-------|----------|------||
|-13--------------------11-15----------|----------|------||
|--------------------------------------|-3--------|-3----||
|--------------------------------------|----------|------||


   Keyboard- & Guitar Solo
    D5        Bb5  D5                    C5          D5
      E  E  E  E   E  E  E  E    E  E  E  E            E           E  E  E
      |  |  |  |   |  |  |  |    |  |  |  |            |           |  |  |
      /  /  /  /   /  /  /  /    /  /  /  /            /           /  /  /

    Gtr III
               \1/
               ~~~~
      E  E  E  Q      E  E  E    E  E  E  S      +S   +S      +S   E  E  E
||------------20-----17----17-|--------------------------------------------|
||o-----17-18-----------20----|----17-18-17pb18r(17)-(17)b18-(17)-18-17-18-|
||--/19-----------------------|-19-----------------------------------------|
||----------------------------|--------------------------------------------|
||o---------------------------|--------------------------------------------|
||----------------------------|--------------------------------------------|


 1.
                    Bb5   D5
   E     E     E     E     E     E     E     E
   |     |     |     |     |     |     |     |
   /     /     /     /     /     /     /     /

   S  S  S  S  S  S  S  S  S  S  S  S  S  S  S  S
|-15----15s13----13s11----------------------------|
|----13-------13-------11-16s15----15s13----13s11-|
|-------------------------------14-------12-------|
|-------------------------------------------------|
|-------------------------------------------------|
|-------------------------------------------------|


            Bb5         F/A          C5
   E.        E.          E  E.        E.        E
             |           |            |         |
             /           /            /         /

             \2.5/                    \3/
   S   S  S  S      +E   E  S   S  S  S    +E   E
|-----------11-----(11)-11-------------------------||
|-13--11-13----------------13--11-13-15---(15)-13-o||
|--------------------------------------------------||
|--------------------------------------------------||
|-------------------------------------------------o||
|--------------------------------------------------||


 2.
  D5                       Bb5       D5
   E      E        E        E         E        E         E        E
   |      |        |        |         |        |         |        |
   /      /        /        /         /        /         /        /

   |-3--| |-3--|   |--3--|  |--3--|   |--3--|  |--3--|   |--3--|  |--3--|
   S S  S S  S S   S  S  S  S  S  S   S  S  S  S  S  S   S  S  S  S  S  S
|-10p8-10p8-------13p10-13p10--------15p13-15p13--------17p15-17p15---------|
|-----------10p8/-------------13p10/-------------15p13/-------------18p15---|
|---------------------------------------------------------------------------|
|---------------------------------------------------------------------------|
|---------------------------------------------------------------------------|
|---------------------------------------------------------------------------|


                    Bb5               F/A                           C5
   E.                E.                E           E.               E.               E
                     |                 |                            |                |
                     /                 /                            /                /

   T  T  T  T  T  T  T  T  T  T  T  T  T  T  T  T  T  T  T  T  T  T T   T  T T T  T  T T T T
|-18p17p15-18p17p15S13h15--------------------------------------------------------------------|
|-------------------------18p17p15-18p17p15S13h17-15p13p10-15p13p10S8--13p10p8S6-13p10p8S6---|
|------------------------------------------------------------------------------------------7-|
|--------------------------------------------------------------------------------------------|
|--------------------------------------------------------------------------------------------|
|--------------------------------------------------------------------------------------------|


  D5
 2/4
   Q  Q
   |
   /

   ~~
   H
|--------||
|--------||
|-10-----||
|--------||
|--------||
|--------||


  N.C.
 4/4
  Gtr I
    W                                +W
|---------------------------------|-------------------------------------------------|
|---------------------------------|-------------------------------------------------|
|---7-----------------------------|--(7)--------------------------------------------|
|---------------------------------|-------------------------------------------------|
|---------------------------------|-------------------------------------------------|
|---------------------------------|-------------------------------------------------|
|
| Gtr II
|       \1/       \1/         \1/     \1/   \1/   \1/   \1/   \1/   \1/   \1/   \1/
|   E  +E    E E +E    E  E  +E      +E    +E    +E    +E    +E    +E    +E    +E
|---------------------------------|-------------------------------------------------|
|---------------------------------|-------------------------------------------------|
|-/10-(10)--12-9-(9)--10----------|-------------------------------------------------|
|------------------------12-(12)--|-(12)--(12)--(12)--(12)--(12)--(12)--(12)--(12)--|
|---------------------------------|-------------------------------------------------|
|---------------------------------|-------------------------------------------------|


    Q   E  Q   E  Q     +Q    E Q   E  E  E
|--------------------|----------------------||
|--------------------|----------------------||
|--------------------|-------10-9---9-------||
|--/8---8-10--10-----|----------------10----||
|----------------10--|-(10)--------------12-||
|--------------------|----------------------||
|
|   Q   E  Q   E  Q     +Q    E Q   E  Q
|--------------------|----------------------||
|--------------------|----------------------||
|-/10--12--9--10-----|-------10-9-----------||
|----------------12--|-(12)--------10-------||
|--------------------|----------------12----||
|--------------------|----------------------||


   Bridge
    N.C.
      Q   E  Q   E  Q     +W             Q   E  Q   E  Q
||---------------------|-------------|--------------------|
||o--------------------|-------------|--------------------|
||--------9------------|-------------|--------------------|
||--/12-----10--12-----|-------------|--/8---8-10--10-----|
||o----------------13--|-(13)--------|----------------10--|
||---------------------|-------------|--------------------|
|
|     Q   E  Q   E  Q     +W             Q   E  Q   E  Q
||---------------------|-------------|--------------------|
||o--------------------|-------------|--------------------|
||--/10--12--9--10-----|-------------|-/10--12--9--10-----|
||-----------------12--|-(12)--------|----------------12--|
||o--------------------|-------------|--------------------|
||---------------------|-------------|--------------------|


                           B5
                           PM----------|
   +Q    E Q   E  E  E  4x e e e e e E E E
|-----------------------||-------------------||
|----------------------o||-------------------||
|-------10-9---9--------||-------------------||
|----------------10-----||-4-4-4-4-4-4-4-4---||
|-(10)--------------12-o||-2-2-2-2-2-2-2-2---||
|-----------------------||-------------------||
|
|                          PM----------|
|  +Q    E Q   E  Q     4x e e e e e E E E
|-----------------------||-------------------||
|----------------------o||-------------------||
|-------10-9------------||-------------------||
|-(12)--------10--------||-4-4-4-4-4-4-4-4---||
|----------------12----o||-2-2-2-2-2-2-2-2---||
|-----------------------||-------------------||


   Out-Chorus
    N.C.                  D5         C5
    PM       PM|          PM----|
    E  E E E S S  E E E   E E E E Q  Q
||----------------------|---------------|
||o---------------------|---------------|
||-------7----------7---|---------------|
||----/7---7-----/8---8-|---------7--5--|
||o---------------------|-0-0-0-0-5--3--|
||--0--------0-0--------|-0-0-0-0-------|
|
|   PM       PM|          PM----|
|   E  E E E S S  E E E   E E E E Q  Q
||----------------------|---------------|
||o------6----------6---|---------------|
||----/7---7-----/7---7-|---------------|
||----------------------|---------7--5--|
||o---------------------|-0-0-0-0-5--3--|
||--0--------0-0--------|-0-0-0-0-------|


  N.C.                  N.C.    G#mFm
  PM       PM|                PM
  E  E E E S S  E E E   E E E E Q   Q    3x
|---------------------|---------7--------||
|---------------------|---------9---9---o||
|------7----------7---|------------10----||
|---/7---7-----/8---8-|------------------||
|---------------------|-0-0-0-0---------o||
|-0--------0-0--------|-0-0-0-0----------||
|
| PM       PM|          PM----|
| E  E E E S S  E E E   E E E E Q   Q    3x
|---------------------|------------------||
|------6----------6---|-------------9---o||
|---/7---7-----/7---7-|---------7--10----||
|---------------------|---------9--------||
|---------------------|-0-0-0-0---------o||
|-0--------0-0--------|-0-0-0-0----------||


                                        H.=H
  N.C.                  D5         C5   N.C.                       G#mFm
  PM       PM|          PM----|         PM       PM|
  E  E E E S S  E E E   E E E E Q  Q    E  E E E S S  E E E   H    Q   Q
|---------------------|---------------|---------------------|------7--------|
|---------------------|---------------|---------------------|------9---9----|
|------7----------7---|---------------|------7----------7---|---------10----|
|---/7---7-----/8---8-|---------7--5--|---/7---7-----/8---8-|---------------|
|---------------------|-0-0-0-0-5--3--|---------------------|---------------|
|-0--------0-0--------|-0-0-0-0-------|-0--------0-0--------|---------------|
|
| PM       PM|          PM----|         PM       PM|
| E  E E E S S  E E E   E E E E Q  Q    E  E E E S S  E E E   H    Q   Q
|---------------------|---------------|---------------------|---------------|
|------6----------6---|---------------|------6----------6---|----------9----|
|---/7---7-----/7---7-|---------------|---/7---7-----/7---7-|------7--10----|
|---------------------|---------7--5--|---------------------|------9--------|
|---------------------|-0-0-0-0-5--3--|---------------------|---------------|
|-0--------0-0--------|-0-0-0-0-------|-0--------0-0--------|---------------|


  D5
  W          +W           +W           +H.      Q
|----------|------------|------------|--------------*|
|----------|------------|------------|--------------*|
|----------|------------|------------|--------------*|
|----------|------------|------------|--------------*|
|-0--------|-(0)--------|-(0)--------|-(0)------x\--*|
|-0--------|-(0)--------|-(0)--------|-(0)------x\--*|


Duration Legend
---------------
W - whole; H - half; Q - quarter; E - 8th; S - 16th; T - 32nd; X - 64th; a - acciaccatura
+ - note tied to previous; . - note dotted; .. - note double dotted
Uncapitalized letters represent notes that are staccato (1/2 duration)
Irregular groupings are notated above the duration line
Duration letters will always appear directly above the note/fret number it represents the
duration for.  Duration letters with no fret number below them represent rests.  Multi-
bar rests are notated in the form Wxn, where n is the number of bars to rest for.  Low
melody durations appear below the staff

Tablature Legend
----------------
 h   - hammer-on
 p   - pull-off
 b   - bend
 pb  - pre-bend
 r   - bend release (if no number after the r, then release immediately)
 /\  - slide into or out of (from/to "nowhere")
 s   - legato slide
 S   - shift slide
<n>  - natural harmonic
[n]  - artificial harmonic
n(n) - tapped harmonic
 ~   - vibrato
 tr  - trill
 T   - tap
 TP  - trem. picking
 PM  - palm muting
\n/  - tremolo bar dip; n = amount to dip
 \n  - tremolo bar down
 n/  - tremolo bar up
/n\  - tremolo bar inverted dip
 =   - hold bend; also acts as connecting device for hammers/pulls
 <>  - volume swell (louder/softer)
 x   - on rhythm slash represents muted slash
 o   - on rhythm slash represents single note slash

Misc Legend
-----------
 |  - bar
||  - double bar
||o - repeat start
o|| - repeat end
*|  - double bar (ending)
 :  - bar (freetime)
 $  - Segno
 &  - Coda
Tempo markers - <E/E./Q/Q./H/H.> = BPM(8/16=s8/s16), where s8 = swing 8ths, s16 = swing 16ths
comments
print report bad tab
25 comments total. Showing first comments.
+1 reply
*Dangling Nads* wrote on June 17 2005, 12:00 am

Jeez dude, this is a great tab; better than the other versions. 5 Stars!

+1 reply
shadowofbodom wrote on July 25 2005, 12:00 am

yeah not bad but the end of the first solo is different then the way alexi plays it. he doesnt tap, he just picks it all really fast (i saw it on a young guitar movie).

0 reply
shadowofbodom wrote on July 25 2005, 12:00 am

5 stars anyways

I want to post or [tab]
guest
You may want to rate the tab now too:
select rating
Please do not post tabs as comments. Select "correction" instead!