Oops, an error
Loading. Please wait.

Are You Dead Yet Tab

ver1
ver1

Whole song

More versions @911Tabs.com
94,751 views 208 this week
21 commentsread comments
1 2 3 4 5
worth learning
x 20
Autoscroll
+/-
esc
set tempo
stop
Contributor
WARNING: You are trying to view
                                    content from Ultimate-Guitar.com
                                    in an unauthorized application,
                                    which is prohibited.

                                    Please use an official Ultimate
                                    Guitar Tabs application for iPhone,
                                    iPad or Android to access legitimate
                                    chords, guitar, bass, and drum tabs
                                    from Ultimate-Guitar.com database.

                                    Type "ultimate guitar tabs" in Apple
                                    App Store's or Android Market's
                                    search to find the application.
Didnt see a whole lot of Are you dead yet ANYWHERE so i decided to put it out here.. what a great song. :)


     E  E  Q    E   E  Q       E  E  Q    E   E  Q     
D||-------------------------|-------------------------|
A||-------------------------|-------------------------|
F||-------------------------|-------------------------|
C||--------7----7------7----|--------7----7------7----|
G||--0--0--5----5s--6--5----|--0--0--5----5s--8--5----|
C||--0--0-------------------|--0--0-------------------|


             PM PM    PM    PM PM    PM PM PM    PM                            
  E  E  Q    E  E  E  E     E  E  E  E  E  E  E  E     E  E  Q    E   E  Q     
-------------------------|--------------------------|-------------------------|
-------------------------|--------------------------|-------------------------|
-------------------------|--------------------------|-------------------------|
--------7----------8-----|--------8-----------8-----|--------7----7------7----|
--0--0--5----5--7--8--7--|--5--7--8--7--5--7--8--7--|--0--0--5----5s--6--5----|
--0--0-------------------|--------------------------|--0--0-------------------|


  E  E  Q    E   E    Q        E  E  Q    E   E  E  E  E  E  E  E  E  E  E  E   
----------------------------|--------------------------------------------------|
----------------------------|--------------------------------------------------|
----------------------------|--------------------------------------------------|
--------7----7--------------|--------7----7------------------------------------|
--0--0--5----5s--6--<>8~----|--0--0--5----5s--6--------------8-----------------|
--0--0----------------------|--0--0--------------0--5--7--8-----8--3--6--5--3--|


  E  E  E  E  Q    Q       E  E  Q    E   E  Q       E  E  Q    E   E  Q     
------------------------|-------------------------|-------------------------|
------------------------|-------------------------|-------------------------|
------------------------|-------------------------|-------------------------|
--------------3----5----|--------7----7------7----|--------7----7------7----|
--0-----0-----1----3----|--0--0--5----5s--6--5----|--0--0--5----5s--8--5----|
--0-----0---------------|--0--0-------------------|--0--0-------------------|


             PM PM    PM    PM PM    PM PM PM    PM                            
  E  E  Q    E  E  E  E     E  E  E  E  E  E  E  E     E  E  Q    E   E  Q     
-------------------------|--------------------------|-------------------------|
-------------------------|--------------------------|-------------------------|
-------------------------|--------------------------|-------------------------|
--------7----------8-----|--------8-----------8-----|--------7----7------7----|
--0--0--5----5--7--8--7--|--5--7--8--7--5--7--8--7--|--0--0--5----5s--6--5----|
--0--0-------------------|--------------------------|--0--0-------------------|


  E  E  Q    E   E    Q        E  E  Q    E   E  E  E  E  E  E  E  E  E  E  E   
----------------------------|--------------------------------------------------|
----------------------------|--------------------------------------------------|
----------------------------|--------------------------------------------------|
--------7----7--------------|--------7-----------------------------------------|
--0--0--5----5s--6--<>8~----|--0--0--5----5s--6--------------8-----------------|
--0--0----------------------|--0--0--------------0--5--7--8-----8--3--5--6--5--|


                                                              PM PM    PM  
  E  E  Q    Q     Q       E  E  Q    H            E  E  Q    E  E  E  E   
------------------------|-----------------------|-------------------------|
------------------------|-----------------------|-------------------------|
------------------------|-----------------------|-------------------------|
--------7----7-----7----|--------7--------------|--------7----------8-----|
--0--0--5----5b----5----|--0--0--5----5b--------|--0--0--5----5--6--8--6--|
--0--0------------------|--0--0-----------------|--0--0-------------------|


  PM PM    PM PM PM    PM                                                   
  E  E  E  E  E  E  E  E     E  E  Q    Q     Q       E  E  Q    H          
--------------------------|------------------------|-----------------------|
--------------------------|------------------------|-----------------------|
--------------------------|------------------------|-----------------------|
--------8-----------8-----|--------7----7-----7----|--------7--------------|
--5--6--8--6--5--6--8--6--|--0--0--5----5b----5----|--0--0--5----5b--------|
--------------------------|--0--0------------------|--0--0-----------------|


             PM PM    PM    PM PM    PM PM PM    PM  
  E  E  Q    E  E  E  E     E  E  E  E  E  E  E  E   
-------------------------|--------------------------|
-------------------------|--------------------------|
-------------------------|--------------------------|
--------7----------8-----|--------8-----------8-----|
--0--0--5----5--6--8--6--|--5--6--8--6--5--6--8--6--|
--0--0-------------------|--------------------------|


  E  E   E     E   E  E   E     E      E  E   E     E    E   E   Q      
------------------------------------|----------------------------------|
-------------(18)-------------(18)--|-------------(18)------18---------|
--------19b--------------19b--------|--------19b--------17------19b----|
------------------------------------|----------------------------------|
--0--0-------------0--0-------------|--0--0----------------------------|
--0--0-------------0--0-------------|--0--0----------------------------|


  E  E   E     E   E  E   E     E      E  E   E     E    E   E   E   E   
------------------------------------|-----------------------------------|
-------------(18)-------------(18)--|-------------(18)------------------|
--------19b--------------19b--------|--------19b--------17------17--17--|
------------------------------------|-----------------------17----------|
--0--0-------------0--0-------------|--0--0-----------------------------|
--0--0-------------0--0-------------|--0--0-----------------------------|


  E  E   E     E   E  E   E     E      E  E   E     E    E   E   Q      
------------------------------------|----------------------------------|
-------------(18)-------------(18)--|-------------(18)------18---------|
--------19b--------------19b--------|--------19b--------17------19b----|
------------------------------------|----------------------------------|
--0--0-------------0--0-------------|--0--0----------------------------|
--0--0-------------0--0-------------|--0--0----------------------------|


  E  E   E     E   E  E   E     E      E  E   E     E    E   E   E   E   
------------------------------------|-----------------------------------|
-------------(18)-------------(18)--|-------------(18)------------------|
--------19b--------------19b--------|--------19b--------17------17--17--|
------------------------------------|-----------------------17----------|
--0--0-------------0--0-------------|--0--0-----------------------------|
--0--0-------------0--0-------------|--0--0-----------------------------|


  E  E   E     E   E  E   E     E      E  E   E     E    E   E   Q      
------------------------------------|----------------------------------|
-------------(18)-------------(18)--|-------------(18)------18---------|
--------19b--------------19b--------|--------19b--------17------19b----|
------------------------------------|----------------------------------|
--0--0-------------0--0-------------|--0--0----------------------------|
--0--0-------------0--0-------------|--0--0----------------------------|


  E  E   E     E   E  E   E     E      E  E   E     E    E   E   E   E   
------------------------------------|-----------------------------------|
-------------(18)-------------(18)--|-------------(18)------------------|
--------19b--------------19b--------|--------19b--------17------17--17--|
------------------------------------|-----------------------17----------|
--0--0-------------0--0-------------|--0--0-----------------------------|
--0--0-------------0--0-------------|--0--0-----------------------------|


  E  E  Q    E  E  Q       E  E  Q    Q    Q       E  E  E  E  E  E  E  E   
------------------------|-----------------------|--------------------------|
------------------------|-----------------------|--------------------------|
------------------------|-----------------------|--------------------------|
------------------------|-----------------------|--------------------------|
--0--0-------0--0-------|--0--0-----------------|--0--0--0-----0--0--0-----|
--0--0-------0--0-------|--0--0-----------------|--0--0--0-----0--0--0-----|


  E  E  E  Q    Q    E     E  E  Q    E  E  Q       E  E  Q    Q    Q     
------------------------|------------------------|-----------------------|
------------------------|------------------------|-----------------------|
------------------------|------------------------|-----------------------|
------------------------|--3--3-------3--3-------|--3--3-----------------|
--0--0--0---------------|--1--1-------1--1-------|--1--1-----------------|
--0--0--0---------------|------------------------|-----------------------|


  E  E  E  E  E  E  E  E     E  E  E  H        E   
--------------------------|-----------------------|
--------------------------|-----------------------|
--------------------------|-----------------------|
--3--3--3-----3--3--3-----|--3--3--3--------------|
--1--1--1-----1--1--1-----|--1--1--1--------------|
--------------------------|-----------------------|


  E  E   E     E   E  E   E     E      E  E   E     E    E   E   Q      
------------------------------------|----------------------------------|
-------------(18)-------------(18)--|-------------(18)------18---------|
--------19b--------------19b--------|--------19b--------17------19b----|
------------------------------------|----------------------------------|
--0--0-------------0--0-------------|--0--0----------------------------|
--0--0-------------0--0-------------|--0--0----------------------------|


  E  E   E     E   E  E   E     E      E  E   E     E    E   E   E   E   
------------------------------------|-----------------------------------|
-------------(18)-------------(18)--|-------------(18)------------------|
--------19b--------------19b--------|--------19b--------17------17--17--|
------------------------------------|-----------------------17----------|
--0--0-------------0--0-------------|--0--0-----------------------------|
--0--0-------------0--0-------------|--0--0-----------------------------|


  E  E  Q    E  E  Q       E  E  Q    Q    Q       S S S S Q    S S S S Q     
------------------------|-----------------------|----------------------------|
------------------------|-----------------------|----------------------------|
------------------------|-----------------------|----------------------------|
------------------------|-----------------------|----------------------------|
--0--0-------0--0-------|--0--0-----------------|--0-0-0-0------0-0-0-0------|
--0--0-------0--0-------|--0--0-----------------|--0-0-0-0------0-0-0-0------|


  S S S S H        Q       E  E  Q    E  E  Q       E  E  H        Q     
------------------------|------------------------|----------------------|
------------------------|------------------------|----------------------|
------------------------|------------------------|----------------------|
------------------------|--3--3-------3--3-------|--3--3----------------|
--0-0-0-0---------------|--1--1-------1--1-------|--1--1----------------|
--0-0-0-0---------------|------------------------|----------------------|


  S S S S Q    S S S S Q       S S S S Q     S  S  S  S Q     
----------------------------|--------------------------------|
----------------------------|--------------------------------|
----------------------------|--------------------------------|
--3-3-3-3------5-5-5-5------|--7-7-7-7------10-10-10-10------|
--1-1-1-1------3-3-3-3------|--5-5-5-5-------8--8--8--8------|
----------------------------|--------------------------------|


  E  E  E  E  Q    Q       E  E  Q    E   E  Q       E  E  Q    E   E  Q     
------------------------|-------------------------|-------------------------|
------------------------|-------------------------|-------------------------|
------------------------|-------------------------|-------------------------|
--1--0--1--0--3----5----|--------7----7------7----|--------7----7------7----|
--1--0--1--0--1----3----|--0--0--5----5s--6--5----|--0--0--5----5s--8--5----|
--1--0--1--0------------|--0--0-------------------|--0--0-------------------|


             PM PM    PM    PM PM    PM PM PM    PM                            
  E  E  Q    E  E  E  E     E  E  E  E  E  E  E  E     E  E  Q    E   E  Q     
-------------------------|--------------------------|-------------------------|
-------------------------|--------------------------|-------------------------|
-------------------------|--------------------------|-------------------------|
--------7----------8-----|--------8-----------8-----|--------7----7------7----|
--0--0--5----5--7--8--7--|--5--7--8--7--5--7--8--7--|--0--0--5----5s--6--5----|
--0--0-------------------|--------------------------|--0--0-------------------|


  E  E  Q    E   E    Q        E  E  Q    E   E  E   E   
----------------------------|---------------------------|
----------------------------|---------------------------|
----------------------------|---------------------------|
--------7----7--------------|--------7----7------7------|
--0--0--5----5s--6--<>8~----|--0--0--5----5s--6--5s--6--|
--0--0----------------------|--0--0---------------------|


  Q    Q    Q     Q       W                    H        H         
-----------------------|-------------------|---------------------|
-----------------------|-------------------|---------------------|
-----------------------|-------------------|---------------------|
-----------------------|--7----------------|--10--------5--------|
--5----7----8----10----|--5----------------|---8--------3--------|
--5----7----8----10----|-------------------|---------------------|


  W                   H        H           W                 
-------------------|--------------------|-------------------|
-------------------|--------------------|-------------------|
-------------------|--------------------|-------------------|
--8----------------|--3--------3--------|--7----------------|
--6----------------|--1--------3--------|--5----------------|
-------------------|--------------------|-------------------|


   H         H           W                   H        H         
----------------------|-------------------|--------------------|
----------------------|-------------------|--------------------|
----------------------|-------------------|--------------------|
--10s--------5--------|--8----------------|--3--------3--------|
---8s--------3--------|--6----------------|--1--------3--------|
----------------------|-------------------|--------------------|


  W                   W                   W                 
-------------------|-------------------|-------------------|
-------------------|-------------------|-------------------|
-------------------|-------------------|-------------------|
--1----------------|--7----------------|--0----------------|
--1----------------|--7----------------|--0----------------|
--1----------------|--7----------------|--0----------------|


  H        H           W                   W                 
--------------------|-------------------|-------------------|
--------------------|-------------------|-------------------|
-----------5--------|-------------------|-------------------|
--3--------5--------|--1----------------|--7----------------|
--3--------3--------|--1----------------|--7----------------|
--3-----------------|--1----------------|--7----------------|


  W                   E  E  E  Q      Q     E     W                 
-------------------|---------------------------|-------------------|
-------------------|---------------------------|-------------------|
-------------------|---------------------------|-------------------|
--0----------------|-----------3---------------|--1----------------|
--0----------------|--3--5--0--3----<>5~-------|--1----------------|
--0----------------|--3--5--0------------------|--1----------------|


  W                   W                   H        H         
-------------------|-------------------|--------------------|
-------------------|-------------------|--------------------|
-------------------|-------------------|-----------5--------|
--7----------------|--0----------------|--3--------5--------|
--7----------------|--0----------------|--3--------3--------|
--7----------------|--0----------------|--3-----------------|


  W                   W                   W                 
-------------------|-------------------|-------------------|
-------------------|-------------------|-------------------|
-------------------|-------------------|-------------------|
--1----------------|--7----------------|--0----------------|
--1----------------|--7----------------|--0----------------|
--1----------------|--7----------------|--0----------------|


  H        H           E  E   E     E   E  E   E     E     
--------------------|-------------------------------------|
--------------------|-------------(18)-------------(18)\--|
-----------5--------|--------19b--------------19b---------|
--3--------5--------|-------------------------------------|
--3--------3--------|--0--0-------------0--0--------------|
--3-----------------|--0--0-------------0--0--------------|


  E  E  Q    E  E  Q       E  E  Q    Q    Q       E  E  E  E  E  E  E  E   
------------------------|-----------------------|--------------------------|
------------------------|-----------------------|--------------------------|
------------------------|-----------------------|--------------------------|
------------------------|-----------------------|--------------------------|
--0--0-------0--0-------|--0--0-----------------|--0--0--0-----0--0--0-----|
--0--0-------0--0-------|--0--0-----------------|--0--0--0-----0--0--0-----|


  E  E  E  Q    Q    E     E  E  Q    E  E  Q       E  E  Q    Q    Q     
------------------------|------------------------|-----------------------|
------------------------|------------------------|-----------------------|
------------------------|------------------------|-----------------------|
------------------------|--3--3-------3--3-------|--3--3-----------------|
--0--0--0---------------|--1--1-------1--1-------|--1--1-----------------|
--0--0--0---------------|------------------------|-----------------------|


  W                W                   E  E   E     E   E  E   E     E    
------------------------------------|------------------------------------|
------------------------------------|-------------(18)-------------(18)--|
------------------------------------|--------19b--------------19b--------|
------------------------------------|------------------------------------|
------------------------------------|--0--0-------------0--0-------------|
------------------------------------|--0--0-------------0--0-------------|


  E  E   E     E    E   E   Q        E  E   E     E   E  E   E     E    
----------------------------------|------------------------------------|
-------------(18)------18---------|-------------(18)-------------(18)--|
--------19b--------17------19b----|--------19b--------------19b--------|
----------------------------------|------------------------------------|
--0--0----------------------------|--0--0-------------0--0-------------|
--0--0----------------------------|--0--0-------------0--0-------------|


  E  E   E     E    E   E   E   E     E  E  Q    E  E  Q     
-----------------------------------|------------------------|
-------------(18)------------------|------------------------|
--------19b--------17------17--17--|------------------------|
-----------------------17----------|------------------------|
--0--0-----------------------------|--0--0-------0--0-------|
--0--0-----------------------------|--0--0-------0--0-------|


  E  E  Q    Q    Q       S S S S Q    S S S S Q       S S S S H        Q     
-----------------------|----------------------------|------------------------|
-----------------------|----------------------------|------------------------|
-----------------------|----------------------------|------------------------|
-----------------------|----------------------------|------------------------|
--0--0-----------------|--0-0-0-0------0-0-0-0------|--0-0-0-0---------------|
--0--0-----------------|--0-0-0-0------0-0-0-0------|--0-0-0-0---------------|


  E  E  Q    E  E  Q       E  E  H        Q       S S S S Q    S S S S Q     
------------------------|----------------------|----------------------------|
------------------------|----------------------|----------------------------|
------------------------|----------------------|----------------------------|
--3--3-------3--3-------|--3--3----------------|--3-3-3-3------5-5-5-5------|
--1--1-------1--1-------|--1--1----------------|--1-1-1-1------3-3-3-3------|
------------------------|----------------------|----------------------------|


  S S S S Q     S  S  S  S Q       E  E  E  E  E  E  E  E   
--------------------------------|--------------------------|
--------------------------------|--------------------------|
--------------------------------|--------------------------|
--7-7-7-7------10-10-10-10------|--------------------------|
--5-5-5-5-------8--8--8--8------|--3--0--1--0--3--0--1--0--|
--------------------------------|--3--0--1--0--3--0--1--0--|


  E  E  E  E  Q    Q       W                   W                 
------------------------|-------------------|-------------------|
------------------------|-------------------|-------------------|
------------------------|-------------------|-------------------|
--------------3----5----|--1----------------|--7----------------|
--3--0--1--0--1----3----|--1----------------|--7----------------|
--3--0--1--0------------|--1----------------|--7----------------|


  W                   H        H           W                 
-------------------|--------------------|-------------------|
-------------------|--------------------|-------------------|
-------------------|-----------5--------|-------------------|
--0----------------|--3--------5--------|--1----------------|
--0----------------|--3--------3--------|--1----------------|
--0----------------|--3-----------------|--1----------------|


  W                   W                   E  E  E  Q      Q     E   
-------------------|-------------------|---------------------------|
-------------------|-------------------|---------------------------|
-------------------|-------------------|---------------------------|
--7----------------|--0----------------|-----------3---------------|
--7----------------|--0----------------|--3--5--0--3----<>5~-------|
--7----------------|--0----------------|--3--5--0------------------|


  W                   W                   W                 
-------------------|-------------------|-------------------|
-------------------|-------------------|-------------------|
-------------------|-------------------|-------------------|
--1----------------|--7----------------|--0----------------|
--1----------------|--7----------------|--0----------------|
--1----------------|--7----------------|--0----------------|


  H        H           W                   W                 
--------------------|-------------------|-------------------|
--------------------|-------------------|-------------------|
-----------5--------|-------------------|-------------------|
--3--------5--------|--1----------------|--7----------------|
--3--------3--------|--1----------------|--7----------------|
--3-----------------|--1----------------|--7----------------|


  W                   E  E  E  Q      Q     E     E  E  E  E  E  Q     E   
-------------------|---------------------------|--------------------------|
-------------------|---------------------------|--------------------------|
-------------------|---------------------------|--------------------------|
--0----------------|-----------3---------------|--------7--------7~-------|
--0----------------|--3--5--0--3----<>5~-------|--0--0--7--0--0--7b-------|
--0----------------|--3--5--0------------------|--0--0-----0--0-----------|


  W                    H         H           W                 
-------------------|----------------------|-------------------|
-------------------|----------------------|-------------------|
-------------------|----------------------|-------------------|
--7----------------|--10s--------5--------|--8----------------|
--5----------------|---8s--------3--------|--6----------------|
-------------------|----------------------|-------------------|


  H        H           W                    H         H         
--------------------|-------------------|----------------------|
--------------------|-------------------|----------------------|
--------------------|-------------------|----------------------|
--3--------3--------|--7----------------|--10s--------5--------|
--1--------3--------|--5----------------|---8s--------3--------|
--------------------|-------------------|----------------------|


  W                   H        H                             
-------------------|--------------------|-------------------|
-------------------|--------------------|-------------------|
-------------------|--------------------|-------------------|
--8----------------|--3--------3--------|-------------------|
--6----------------|--1--------3--------|-------------------|
-------------------|--------------------|-------------------|



                                                              W                 
-------------------|-------------------|-------------------|-------------------|
-------------------|-------------------|-------------------|-------------------|
-------------------|-------------------|-------------------|-------------------|
-------------------|-------------------|-------------------|--1----------------|
-------------------|-------------------|-------------------|--1----------------|
-------------------|-------------------|-------------------|--1----------------|


  W                   W                   H        H         
-------------------|-------------------|--------------------|
-------------------|-------------------|--------------------|
-------------------|-------------------|-----------5--------|
--7----------------|--0----------------|--3--------5--------|
--7----------------|--0----------------|--3--------3--------|
--7----------------|--0----------------|--3-----------------|


  W                   W                   W                 
-------------------|-------------------|-------------------|
-------------------|-------------------|-------------------|
-------------------|-------------------|-------------------|
--1----------------|--7----------------|--0----------------|
--1----------------|--7----------------|--0----------------|
--1----------------|--7----------------|--0----------------|


  E  E  E  Q      Q     E     W                   W                 
---------------------------|-------------------|-------------------|
---------------------------|-------------------|-------------------|
---------------------------|-------------------|-------------------|
-----------3---------------|--3----------------|--7----------------|
--3--5--0--3----<>5~-------|--1----------------|--7----------------|
--3--5--0------------------|--1----------------|--7----------------|


  W                   H        H           W                 
-------------------|--------------------|-------------------|
-------------------|--------------------|-------------------|
-------------------|-----------5--------|-------------------|
--0----------------|--3--------5--------|--1----------------|
--0----------------|--3--------3--------|--1----------------|
--0----------------|--3-----------------|--1----------------|


                                                         W         
  W                   W                   E  E  E  E  E  Q     E   
-------------------|-------------------|--------------------------|
-------------------|-------------------|--------------------------|
-------------------|-------------------|--------------------------|
--7----------------|--0----------------|--7--7--7--7--7-----------|
--7----------------|--0----------------|--5--5--6--5--5--6b-------|
--7----------------|--0----------------|--------------------------|


                                                                 PM PM    PM  
  E  E  Q    E   E  Q       E  E  Q    E   E  Q       E  E  Q    E  E  E  E   
-------------------------|-------------------------|-------------------------|
-------------------------|-------------------------|-------------------------|
-------------------------|-------------------------|-------------------------|
--------7----7------7----|--------7----7------7----|--------7----------8-----|
--0--0--5----5s--6--5----|--0--0--5----5s--8--5----|--0--0--5----5--7--8--7--|
--0--0-------------------|--0--0-------------------|--0--0-------------------|


  PM PM    PM PM PM    PM                                                      
  E  E  E  E  E  E  E  E     E  E  Q    E   E  Q       E  E  Q    E   E  Q     
--------------------------|-------------------------|-------------------------|
--------------------------|-------------------------|-------------------------|
--------------------------|-------------------------|-------------------------|
--------8-----------8-----|--------7----7------7----|--------7----7------7----|
--5--7--8--7--5--7--8--7--|--0--0--5----5s--6--5----|--0--0--5----5s--8--5----|
--------------------------|--0--0-------------------|--0--0-------------------|


             PM PM    PM    PM PM    PM PM PM    PM                            
  E  E  Q    E  E  E  E     E  E  E  E  E  E  E  E     E  E  Q    E   E  Q     
-------------------------|--------------------------|-------------------------|
-------------------------|--------------------------|-------------------------|
-------------------------|--------------------------|-------------------------|
--------7----------8-----|--------8-----------8-----|--------7----7------7----|
--0--0--5----5--7--8--7--|--5--7--8--7--5--7--8--7--|--0--0--5----5s--6--5----|
--0--0-------------------|--------------------------|--0--0-------------------|


                                       PM PM    PM    PM PM    PM PM PM    PM  
  E  E  Q    E   E  Q       E  E  Q    E  E  E  E     E  E  E  E  E  E  E  E   
-------------------------|-------------------------|--------------------------|
-------------------------|-------------------------|--------------------------|
-------------------------|-------------------------|--------------------------|
--------7----7------7----|--------7----------8-----|--------8-----------8-----|
--0--0--5----5s--8--5----|--0--0--5----5--7--8--7--|--5--7--8--7--5--7--8--7--|
--0--0-------------------|--0--0-------------------|--------------------------|


                                                                 PM PM    PM  
  E  E  Q    E   E  Q       E  E  Q    E   E  Q       E  E  Q    E  E  E  E   
-------------------------|-------------------------|-------------------------|
-------------------------|-------------------------|-------------------------|
-------------------------|-------------------------|-------------------------|
--------7----7------7----|--------7----7------7----|--------7----------8-----|
--0--0--5----5s--6--5----|--0--0--5----5s--8--5----|--0--0--5----5--7--8--7--|
--0--0-------------------|--0--0-------------------|--0--0-------------------|


  PM PM    PM PM PM    PM         
  E  E  E  E  E  E  E  E          
--------------------------|-----||
--------------------------|-----||
--------------------------|-----||
--------8-----------8-----|-----||
--5--7--8--7--5--7--8--7--|-----||
--------------------------|-----||




Duration Legend
---------------
W - whole
H - half
Q - quarter
E - 8th
S - 16th
T - 32nd
X - 64th
. - note dotted
|-n-|  - n-tuplets


Tablature Legend
----------------
L - tied note
x - dead note
g - grace note
(n) - ghost note
> - accentuded note
NH - natural harmonic
AH - artificial harmonic
TH - tapped harmonic
SH - semi harmonic
PH - pitch harmonic
h - hammer on
p - pull off
b - bend
br - bendRelease
pb - preBend
pbr - preBendRelease
brb - bendReleaseBend
\n/ - tremolo bar dip
\n - tremolo bar dive
-/n - tremolo bar Release up
/n\ - tremolo bar inverted dip
/n - tremolo bar return
-\n - tremolo bar Release down
S - shift slide
s - legato slide
/ -  slide into from below or out of upwards
\ -  slide into from above or out of downwards
~ - vibrato
W - wide vibrato
tr - trill
TP - tremolo picking
T - tapping
S - slap
P - pop
< - fade in
^ - brush up
v - brush down
21 comments total. Showing first comments.
0 reply
Cone 21 wrote on May 22 2006, 04:07 pm

I assume its in drop C?

0 reply
Cone 21 wrote on May 22 2006, 04:08 pm

whoops, i didn't see the side of the tab, good job dude!

0 reply
autumnskyguitar wrote on May 22 2006, 09:13 pm

good job, now we just need the solo

I want to post or [tab]
guest
You may want to rate the tab now too:
select rating
Please do not post tabs as comments. Select "correction" instead!