Oops, an error
Loading. Please wait.

Are You Dead Yet Tab

ver4
45,963 views 66 this week
2 commentsread comments
1 2 3 4 5
excellent!
x 3
Autoscroll
+/-
esc
set tempo
stop
Contributor
Hey! There's an official Ultimate Guitar app which is ideal
for learning songs when you're away from computer. Get the app
WARNING: You are trying to view
                                    content from Ultimate-Guitar.com
                                    in an unauthorized application,
                                    which is prohibited.

                                    Please use an official Ultimate
                                    Guitar Tabs application for iPhone,
                                    iPad or Android to access legitimate
                                    chords, guitar, bass, and drum tabs
                                    from Ultimate-Guitar.com database.

                                    Type "ultimate guitar tabs" in Apple
                                    App Store's or Android Market's
                                    search to find the application.
Children of Bodom:
Are You Dead Yet?
Tuning:C G C F A D

Key:
/-Slide up
\-Slide down
h-Hammer-on
p-Pull-off
~-Vibrato
<-Dip Whammy-Bar
b-Bend


BPM:192

Guitar 1(Alexi Laiho)
Guitar 2(Roope Latvala)

(Guitar 1)
d:-----------------------------------------------------------------|
a:-----------------------------------------------------------------|
f:----------------------------------------3-------5-------3--------|
c:----------------------------------------3-------3-------3--------|
g:-----5---5h6-5-----5---5h6~-----5---5h6---6-5-6---6-5-6---6------|
c:-0-0---0-------0-0---0------0-0---0------------------------------|
  
(Guitar 2)                                 
d:----------------------------------------------------------------|                                   
a:----------------------------------------------------------------|                              
f:----------------------------------------------------------------|                                
c:----------------------------------------------------------------|                             
g:-0-0-----------0-0-----------0-0--------------------------------|
c:-0-0-----------0-0-----------0-0--------------------------------|

(Guitars 1 and 2)
d:---------------------------------------------------------------------|
a:---------------------------------------------------------------------|
f:---------------------------------------------------------------------|
c:----------------------------------------------3-0---3-2----------3/5-|
g:-----5---5h6-5-----5---5h6~-----5---5h6---0-1-----0-----3--------1/3-|
c:-0-0---0-------0-0---0------0-0---0-----5-----------------3-2-0------|

(Guitar 1)
d:------------------------------------------------------------------|
a:------------------------------------------------------------------|
f:-----------------------------------------3-------5-------3--------|
c:-----7---7/8\7-----7---7/8~-----7---7/8--3-------3-------3--------|
g:-----5---5/6\5-----5---5/6~-----5---5/6----6-5-6---6-5-6---6------|
c:-0-0---0-------0-0---0------0-0---0-------------------------------|

d:------------------------------------------------------------------|
a:-------------------------------------------------6-----6-5--------|
f:-----------------------------------------------7-----7-----5------|
c:-----7---7/8\7-----7---7/8~-----7---7/8--5-7-8-----7--------------|
g:-----5---5/6\5-----5---5/6~-----5---5/6---------------------------|
c:-0-0---0-------0-0---0------0-0---0-------------------------------|

d:------------------------------------------------------------------|
a:------------------------------------------------------------------|
f:-----------------------------------------3-------5-------3--------|
c:-----7---7/8\7-----7---7/8~-----7---7/8--3-------3-------3--------|
g:-----5---5/6\5-----5---5/6~-----5---5/6----6-5-6---6-5-6---6------|
c:-0-0---0-------0-0---0------0-0---0-------------------------------|

d:-----------------------------------------------------------------|
a:-----------------------------------------------------------------|
f:-----------------------------------------------------------------|
c:-----7---7/8\7-----7---7/8~-----7---7/8--10-------10-------10----|
g:-----5---5/6\5-----5---5/6~-----5---5/6-----8-7-8----8-7-8----8--|
c:-0-0---0-------0-0---0------0-0---0------------------------------|

d:--------13--------13--------13----13----13--------13--------13---|
a:-----17--------17--------17----------17--------17--------17------|
f:-------------------------------17--------------------------------|
c:-----------------------------------------------------------------|
g:-0-0-------0-0-------0-0-------------------0-0-------0-0---------|
c:-0-0-------0-0-------0-0-------------------0-0-------0-0---------|
                 
           *Play Twice*
d:-----13-------------|
a:--------13----13\---|
f:-----------12-------| 
c:--------------------| 
g:-0-0----------------|
c:-0-0----------------|

Rythym (Guitar 2)
d:-----------------------------|
a:-----------------------------|
f:---5---7---5-----------------|
c:---3---5---3-----------------|
g:-0------------0---3---6---1--|
c:-0------------0---3---6---1--|

Verse 1
d:-------------------------------------------------------|
a:-------------------------------------------------------|
f:------------------------------------5-5-----5-5-----5--|
c:--------------------------------3-3-3-3-3-3-3-3-3-3-3--|
g:-0-0--0-0--0-0---0-0--0-0--0-0--1-1-----1-1-----1-1----|
c:-0-0--0-0--0-0---0-0--0-0--0-0-------------------------|

Fill 1 (Guitar 1)
d:------------------------17~--|
a:---------------15----15------|
f:------12----12----12---------|
c:---10----10------------------|
g:-8---------------------------|
c:-----------------------------|

Fill 1 (Guitar 2)
d:-------------------------22--|
a:----------------20----20-----|
f:-------17----17----17--------|
c:----15----15-----------------|
g:-13--------------------------|
c:-----------------------------|

Fill 2 (2:01) (Guitar 1)
d:-------------22--|
a:----------20-----|
f:-------17--------|
c:----15-----------|
g:-13--------------|
c:-----------------|

Fill 2 (Guitar 2)
d:---------------|
a:-----------15--|
f:--------12-----|
c:-----10--------|
g:---8-----------|
c:-8-------------|

d:--------13--------13--------13----13----13--------13--------13---|
a:-----17--------17--------17----------17--------17--------17------|
f:-------------------------------17--------------------------------|
c:-----------------------------------------------------------------|
g:-0-0-------0-0-------0-0-------------------0-0-------0-0---------|
c:-0-0-------0-0-------0-0-------------------0-0-------0-0---------|

d:-----13-------------|
a:--------13----13\---|
f:-----------12-------| 
c:--------------------| 
g:-0-0----------------|
c:-0-0----------------|

Rythym
d:---------|
a:---------|
f:---------|
c:-------8-|
g:-0-3-2-6-|
c:-0-3-2---|

d:------------------------------------------------------------|
a:-----------------------------------------5-5-----5-5-----5--|
f:-------------------------------------3-3-3-3-3-3-3-3-3-3-3--|
c:-------------------------------------1-1-----1-1-----1-1----|
g:-0-0--0-0--0-0---0-0-0--0-0-0--0-0-0------------------------|
c:-0-0--0-0--0-0---0-0-0--0-0-0--0-0-0------------------------|

d:--------------------------------------------------------|
a:--------------------------------------------------------|
f:--------------------------------------------------------|
c:-------------------------------------------------3/5----|
g:-1-1-1-1-1-3-3-3-3-3-5-5-5-5-5-7-7-7-7-7---------1/3----|
c:-----------------------------------------3-0-2-2-0------|

(Guitar 2)
d:--------------------------------------------------------------|
a:--------------------------------------------------------------|
f:--------------------------------------------------------------|
c:---------------------------------------------------------3/5--|
g:-1-1-1-1-1---1-1-1-1-1---1-1-1-1-1---3-3-3-3-3-----------1/3--|
c:-----------------------------------------------3-0-2-2-0------|

(Guitar 1)
d:------------------------------------------------------------------|
a:------------------------------------------------------------------|
f:-----------------------------------------3-------5-------3--------|
c:-----7---7/8\7-----7---7/8~-----7---7/8--3-------3-------3--------|
g:-----5---5/6\5-----5---5/6~-----5---5/6----6-5-6---6-5-6---6------|
c:-0-0---0-------0-0---0------0-0---0-------------------------------|

d:-----------------------------------------------------|
a:-----------------------------------------------------|
f:-----------------------------------------------------|
c:-----7---7/8\7-----7---7/8~-----7--------------------|
g:-----5---5/6\5-----5---5/6~-----5---5h6p5--5/7/8/10--|
c:-0-0---0-------0-0---0------0-0---0--------5/7/8/10--|

Melody Before Chorus (Guitar 1)
d:------------------------------------------------------------------------|
a:------------------------------------------------------------------------|
f:------14-------14----14-------17----------------------15-------15----15-|
c:12-12----12-12----12----15-15----15-------17----13-13----13-13----13----|
g:------------------------------------15-15----15-------------------------|
c:------------------------------------------------------------------------|

d:------------------------|
a:------------------------|
f:------------------------|
c:------15----------12-12-|
g:13-13----13-10-10-------|
c:------------------------|

Guitar 2
d:-------------------------------------------------------------------------|
a:-------------------------------------------------------------------------|
f:-------------------------------------------------------------------------|
c:-12-12-15-12-12-15-12-15/15-15-19-15\14-14-17-14\13-13-17-13-13-17-13-17-|
g:-------------------------------------------------------------------------|
c:-------------------------------------------------------------------------|

d:-----------------------------|
a:-----------------------------|
f:----------------------15-14--|
c:-------------------12--------|
g:-13-13-17-13\10-10-----------|
c:-----------------------------|

Chorus
d:-------------------------------|
a:-------------------------------|
f:-------------------------------|
c:-------2-----------------5-----|
g:-1-----0-----0-----3-----3-----|
c:-1-----------0-----3-----------|

Rythym Behind Chorus (Guitar 2)
d:--------------------------------------------------------------------------|
a:--------------------------------------------------------------------------|
f:-------------------------------------14-----------------------------------|
c:-13-15-14-15----15-14-15-12-15-14-15----15-14-15-12-15-14-15----15-14-15--|
g:-------------15----------------------------------------------15-----------|
c:--------------------------------------------------------------------------|

d:-------------------------------------------------------------------------|
a:-------------------------------------------------------------------------|
f:-------------17----------------------------------------------14----------|
c:-12-15-14-15----15-14-15-13-15-14-15----15-14-15-12-15-14-15----15-14-15-|
g:-------------------------------------15----------------------------------|
c:-------------------------------------------------------------------------|

d:-------------------------------------------------------------|
a:-------------------------------------15----------------------|
f:-------------------------------------------------------------|
c:-12-15-14-15----15-14-15-12-15-14-15----15-14-15-------------|
g:-------------15------------------------------------0-0--0-0--|
c:---------------------------------------------------0-0--0-0--|

(Gutiar 1)
d:--------13--------13----|
a:-----17--------17-------|
f:------------------------|
c:------------------------|
g:-0-0-------0-0----------|
c:-0-0-------0-0----------|


Solo (Guitar 1)(Dip Bar then Bend strings)

Bar 1
     <    <    <      <
d:-b12---b15---b14---b17---b20-b20---|
a:-b15---b18---b17---b20---b23-b23---|
f:-----------------------------------|
c:-----------------------------------|
g:-----------------------------------|
c:-----------------------------------|

Bar 2
d:--19-------19\17-------19-22-------22-21-------21--|
a:-----17-17-------15/17-------20-20-------19-19-----|
f:---------------------------------------------------|
c:---------------------------------------------------|
g:---------------------------------------------------|
c:---------------------------------------------------|

Bar 3
d:-20-17-19-20-19-17----------------------------------------------------|
a:-------------------20-18-17-18-20-18-17-------------------------------|
f:----------------------------------------19-17-16-17-16----------------|
c:-------------------------------------------------------19-17-15-17-19-|
g:----------------------------------------------------------------------|
c:----------------------------------------------------------------------|

d:-------------------17-19-|
a:----------17-18-20-------|
f:-16-17-19----------------|
c:-------------------------|
g:-------------------------|
c:-------------------------|

Bar 4
                      
d:-b17--b17--15------22--17-13-------/20-17-------\13-10-------17-13-------|
a:---------------17-------------------------18-----------------------15----|
f:-----------------------------17-14-----------17--------14-10----------13-|
c:-------------------------------------------------------------------------|
g:-------------------------------------------------------------------------|
c:-------------------------------------------------------------------------|

d:------------------------------------------|
a:-b14-14-12-------b14-14-12----------------|
f:-b14-14-12-------b14-14-12-------14-12-10-|
c:-----------14-12-----------14-12----------|
g:------------------------------------------|
c:------------------------------------------|

Bar 5
   <        <        <        <          
d:------------------------------------------|
a:------------------------------------------|
f:-14-10-14-17-14-17-19-17-19-21-19-21-b21~-|
c:------------------------------------------|
g:------------------------------------------|
c:------------------------------------------|

Rythym (GUitar 2)                                  (Play Four Times)
d:------------------------------------------------------------------|
a:------------------------------------------------------------------|
f:------------------------------------------------------------------|
c:------------------------------------------------------------------|
g:------------------------------------------------------------------|
c:-2-2-5-2-2-5-2-2/5-5-8-5-4-4-7-4-3-3-7-3-3-7-3-7-0-0-3-0-0-2-0-3--|

(End of Fourth time)
d:--------------------------------|
a:--------------------------------|
f:--------------------------------|
c:--------------------------------|
g:-3-3-3-3-3-3-3-0-0-0-0-0-0-0-0--|
c:-3-3-3-3-3-3-3-0-0-0-0-0-0-0-0--|


comments
We did not receive enough feedback on this tab! Please rate:
print report bad tab
1 2 3 4 5
2 comments total.
+1 reply
006schecter wrote on March 21 2007, 02:29 pm

excellent tab ;)

+1 reply
Leonheart wrote on April 18 2007, 01:51 am

Looks good.

I want to post or [tab]
guest
You may want to rate the tab now too:
select rating
Please do not post tabs as comments. Select "correction" instead!