Oops, an error
Loading. Please wait.

Are You Dead Yet Tab

ver5
168,712 views 208 this week
38 commentsread comments
1 2 3 4 5
excellent!
x 70
Autoscroll
+/-
esc
set tempo
stop
Contributor
Difficulty
Tuning
advanced
C G C F A D
Hey! There's an official Ultimate Guitar app which is ideal
for learning songs when you're away from computer. Get the app
WARNING: You are trying to view
                                    content from Ultimate-Guitar.com
                                    in an unauthorized application,
                                    which is prohibited.

                                    Please use an official Ultimate
                                    Guitar Tabs application for iPhone,
                                    iPad or Android to access legitimate
                                    chords, guitar, bass, and drum tabs
                                    from Ultimate-Guitar.com database.

                                    Type "ultimate guitar tabs" in Apple
                                    App Store's or Android Market's
                                    search to find the application.
----------------------------------------------------------------------------
                  Are You Dead Yet? - Children of Bodom  
----------------------------------------------------------------------------

#----------------------------------PLEASE NOTE---------------------------#
#This file is the author's own work and represents their interpretation of the #
#song. You may only use this file for private study, scholarship, or research. #
#------------------------------------------------------------------------##

Tabbed by:Guitarplayer163
Email:Guitarplayer1636@yahoo.com
   Email if you have any questions or concerns!
    

Tuning:Drop C (C G C F A D)

Intro
Guitar 1
C|-------------------------------------------------------------------------|
G|-------------------------------------------------------------------------|
C|-------------------------------------------3----------5-----------3------|
F|-------------------------------------------3----------3-----------3------|
A|-----5---5h6-5------5---5-6~~----5---5--6----6--5--6-----6--5--6-----6---|
D|-0-0---0--------0-0---0------0-0---0-------------------------------------|
pm.. .   .        . .   .      . .   .    .    .  .  .     .  .  . 
Guitar 2
C|-------------------------------------------------------------------------|
G|-------------------------------------------------------------------------|
C|-------------------------------------------------------------------------|
F|-------------------------------------------------------------------------|
A|-0-0-------------------------0-0-----------------------------------------|
D|-0-0-------------------------0-0-----------------------------------------|
pm.. .                         . .

Guitar 1,2
C|-------------------------------------------------------------------------|
G|-------------------------------------------------------------------------|
C|-------------------------------------------------------------------------|
F|-----------------------------------------------0-3---0-3-2------------3-5|
A|-----5---5h6-5------5---5-6*~----5---5h6---0-1-----0-------3----------1-3|
D|-0-0---0--------0-0---0------0-0---0-----5-------------------3-0-2-2-0---|
pm.. .   .        . .   .      . .   .                         . . . . .

Guitar 1
C|-------------------------------------------------------------------------|
G|-------------------------------------------------------------------------|
C|-------------------------------------------3----------5-----------3------|
F|-------------------------------------------3----------3-----------3------|
A|-----5---5h6-5------5---5-6~~----5---5--6----6--5--6-----6--5--6-----6---|
D|-0-0---0--------0-0---0------0-0---0-------------------------------------|
pm.. .   .        . .   .      . .   .    .    .  .  .     .  .  . 
Guitar 2
C|-------------------------------------------------------------------------|
G|-------------------------------------------------------------------------|
C|-------------------------------------------5----------5-----------5------|
F|-----7---7h8-7------7---7-8~-----7---7--8----8--7--8-----8--7--8-----8---|
A|-------0--------------0------------0-------------------------------------|
D|-0-0------------0-0----------0-0-----------------------------------------|
pm.. .   .        . .   .      . .   .         .  .  .     .  .  .

Guitar 1
C|-------------------------------------------------------------------------|
G|-------------------------------------------------------------------------|
C|-------------------------------------------------------------------------|
F|----------------------------------------------------0--3-----0--3--2-----|
A|-----5---5h6-5------5---5-6*~----5---5h6------0--1--------0-----------3--|
D|-0-0---0--------0-0---0------0-0---0------5------------------------------|
pm.. .   .        . .   .      . .   .                         
Guitar 2
C|-------------------------------------------------------------------------|
G|--------------------------------------------------------6---------6--5---|
C|-----------------------------------------------------7--------7---------5|
F|-----7---7h8-7------7---7-8*~----7----7-----5--7--8--------7-------------|
A|-------0--------------0-------------0----0-------------------------------|
D|-0-0------------0-0----------0-0-----------------------------------------|
pm.. .   .        . .   .      . .    .    .        .  .     .   .

Guitar 1
C|-------------------------------------------------------------------------|
G|-------------------------------------------------------------------------|
C|-------------------------------------------------------------------------|
F|-----7---7/8--7-------7---7-8-------7-----------3----------3---------3---|
A|-----5---5/6--5-------5---5-6-------5--0--3--5----5--3--5----5--3--5---3-|
D|-0-0---0----------0-0---0-------0-0----0---------------------------------|
pm.. .   .          . .   .       . .    .             .  .    .  .
Guitar 2
C|-------------------------------------------------------------------------|
G|-------------------------------------------------------------------------|
C|-------------------------------------------------------------------------|
F|-----7---7/8--7-------7---7-8-------7----------10---------10*-------10---|
A|-----5---5/6--5-------5---5-6-------5-----7--8----8--7--8----8--7--8---7-|
D|-0-0---0----------0-0---0-------0-0----0---------------------------------|
pm.. .   .          . .   .       . .    .  .  .    .  .  .       .  . . .

Guitar 1
C|-------------------------------------------------------------------------|
G|-------------------------------------------------------------------------|
C|-------------------------------------------------------------------------|
F|-----7---7/8--7-------7---7-8-------7-----------3----------3---------3---|
A|-----5---5/6--5-------5---5-6-------5--0--3--5----5--3--5----5--3--5---3-|
D|-0-0---0----------0-0---0-------0-0----0---------------------------------|
pm.. .   .          . .   .       . .    .             .  .    .  .
Guitar 2
C|-------------------------------------------------------------------------|
G|-------------------------------------------------------------------------|
C|-------------------------------------------------------------------------|
F|-----7---7/8--7-------7---7-8-------7----------10---------10*-------10---|
A|-----5---5/6--5-------5---5-6-------5-----7--8----8--7--8----8--7--8---7-|
D|-0-0---0----------0-0---0-------0-0----0---------------------------------|
pm.. .   .          . .   .       . .    .  .  .    .  .  .       .  . . .

Guitar 1
C|-------13-------13-------13---13----13------13-------13-----13---------12|
G|----17-------17-------17---------17------17-------17------17---13----13--|
C|----------------------------17-------------------------------------12----|
F|-------------------------------------------------------------------------|
A|-------------------------------------------------------------------------|
D|-0-0------0-0------0-0-----------------0-0------0-0-----0-0--------------|
pm.. .      . .      . .                 . .      . .     . .
Guitar 2
C|-------------------------------------------------------------------------|
G|-------------------------------------------------------------------------|
C|-------------------------------------------------------------------------|
F|-------------------------------------------------------------------------|
A|-0-0-----0-0------0-0------------------0-0-----0-0------0-0--------------|
D|-0-0-----0-0------0-0------------------0-0-----0-0------0-0-X\-----------|
pm.. .     . .      . .                  . .     . .      . .

Guitar 1
C|-------13-------13-------13---13----13------13-------13-----13---------12|
G|----17-------17-------17---------17------17-------17------17---13----13--|
C|----------------------------17------------------------------------12-----|
F|-------------------------------------------------------------------------|
A|-------------------------------------------------------------------------|
D|-0-0------0-0------0-0-----------------0-0------0-0-----0-0--------------|
pm.. .      . .      . .                 . .      . .     . .
Guitar 2
C|-------------------------------------------------------------------------|
G|-------------------------------------------------------------------------|
C|-------------------5-----------------7-----------------5-----------------|
F|-0-----------------5-----------------7-----------------5-----------------|
A|-0-----------------3-----------------5-----------------3-----------------|
D|-0-----------------------------------------------------------------------|

Guitar 1
C|-------13-------13-------13---13----13------13-------13-----13---------12|
G|----17-------17-------17---------17------17-------17------17---13----13--|
C|----------------------------17------------------------------------12-----|
F|-------------------------------------------------------------------------|
A|-------------------------------------------------------------------------|
D|-0-0------0-0------0-0-----------------0-0------0-0-----0-0--------------|
pm.. .      . .      . .                 . .      . .     . .
Guitar 2
C|-------------------------------------------------------------------------|
G|-------------------------------------------------------------------------|
C|-------------------------------------------------------------------------|
F|-0-----------------3-----------------6-----------------1--------1--------|
A|-0-----------------3-----------------6-----------------1--------1--------|
D|-0-----------------3-----------------6-----------------1--------1--------|


Verse
Guitar 1
C|-------------------------------------------------------------------------|
G|-------------------------------------------------------------------------|
C|-------------------------------------------------------------------------|
F|-------------------------------------------------------------------------|
A|-0-0--------0-0--------0-0----------0-0-0---0-0-0---0-0-0----------------|
D|-0-0--------0-0--------0-0----------0-0-0---0-0-0---0-0-0----------------|
pm.. .        . .        . .          . . .   . . .   . . . 
Guitar 2
C|-------------------------------------------------------------------------|
G|-------------------------------------------------------------------------|
C|-------------------------------------------------------------------------|
F|-------------------------------------------------------------------------|
A|------0-0--------0-0----------------0-0-0---0-0-0---0-0-0----------------|
D|------0-0--------0-0----------------0-0-0---0-0-0---0-0-0----------------|
pm.     . .        . .                . . .   . . .   . . . 

Guitar 1
C|------------------------------------------------------------------17~~~--|
G|------------------------------------------------------15------15---------|
C|-------------------------------------------12------12-----12-------------|
F|-3-3--------3-3--------3-3-------------10------10------------------------|
A|-1-1--------1-1--------1-1--------/8-------------------------------------|
D|-------------------------------------------------------------------------|
pm.. .        . .        . .  
Guitar 2
C|------------------------------------------------------------------22~~~--|
G|------------------------------------------------------20------20---------|
C|------5--5--------5-5----------------------17------17-----17-------------|
F|---3--3--3--------3-3------------------15------15------------------------|
A|---1-----------------------------/13-------------------------------------|
D|-------------------------------------------------------------------------|
pm.  . .  .         . .


Guitar 1
C|-------13-------13-------13---13----13------13-------13-----13---------12|
G|----17-------17-------17---------17------17-------17------17---13----13--|
C|----------------------------17------------------------------------12-----|
F|-------------------------------------------------------------------------|
A|-------------------------------------------------------------------------|
D|-0-0------0-0------0-0-----------------0-0------0-0-----0-0--------------|
pm.. .      . .      . .                 . .      . .     . .
Guitar 2
C|-------------------------------------------------------------------------|
G|-------------------------------------------------------------------------|
C|-7-----------------5-----------------7-----------------5-----------------|
F|-7-----------------5-----------------7-----------------5-----------------|
A|-5-----------------3-----------------5-----------------3-----------------|
D|-------------------------------------------------------------------------|

Guitar 1
C|-------------------------------------------------------------------------|
G|-------------------------------------------------------------------------|
C|-------------------------------------------------------------------------|
F|-------------------------------------------------------------------------|
A|-0-0--------0-0--------0-0----------00000---00000---00000----------------|
D|-0-0--------0-0--------0-0----------00000---00000---00000----------------|
pm.. .        . .        . .          .....   .....   ..... 
Guitar 2
C|-------------------------------------------------------------------------|
G|-------------------------------------------------------------------------|
C|-------------------------------------------------------------------------|
F|-------------------------------------------------------------------------|
A|------0-0--------0-0----------------00000---00000---00000----------------|
D|------0-0--------0-0----------------00000---00000---00000----------------|
pm.     . .        . .                .....   .....   .....

Guitar 1
C|-------------------------------------------------------------------------|
G|-------------------------------------------------------------------------|
C|-------------------------------------------------------------------------|
F|-3-3-----3-3-----3-3-----------------------------------------------3--5--|
A|-1-1-----1-1-----1-1------11111---33333---55555---77777------------1--3--|
D|---------------------------------------------------------3-0-2-2-0-------|
pm.. .     . .     . .      .....   .....   .....   .....  . . . . .
Guitar 2
C|-------------------------------------------------------------------------|
G|-------------------------------------------------------------------------|
C|-----5-5-----5-5---------------------------------------------------------|
F|-----3-3-----3-3---------------------------------------------------3--5--|
A|--1-----------------------11111---11111---11111---33333------------1--3--|
D|---------------------------------------------------------3-0-2-2-0-------|

Guitar 1
C|-------------------------------------------------------------------------|
G|-------------------------------------------------------------------------|
C|-------------------------------------------3----------5-----------3------|
F|-------------------------------------------3----------3-----------3------|
A|-----5---5h6-5------5---5-6~~----5---5--6----6--5--6-----6--5--6-----6---|
D|-0-0---0--------0-0---0------0-0---0-------------------------------------|
pm.. .   .        . .   .      . .   .    .    .  .  .     .  .  . 
Guitar 2
C|-------------------------------------------------------------------------|
G|------------------------------------------10---------10------------------|
C|------------------------------------------10---------10-----------7------|
F|-----7---7h8-7------7---7-8~~----7---7-10----10-7-10----10--7--10----10--|
A|-------0--------------0--------------------------------------------------|
D|-0-0------------0-0----------0-0---0-------------------------------------|
pm.. .   .        . .   .      . .   . .  .    .  . .      .  .  .

Guitar 1
C|-------------------------------------------------------------------------|
G|-------------------------------------------------------------------------|
C|-------------------------------------------------------------------------|
F|-------------------------------------------------------------------------|
A|-----5---5h6-5------5---5-6*~~------5---5h6-5-0---5----7----8----10------|
D|-0-0---0--------0-0---0---------0-0---0-----------5----7----8----10------|
pm.. .   .        . .   .         . .   .
Guitar 2
C|-------------------------------------------------------------------------|
G|-------------------------------------------------------------------------|
C|-------------------------------------------------------------------------|
F|-----7---7h8-7------7---7-8*~~------7---7*h8*-7*-------------------------|
A|--------------------------------------------------5----7----8----10------|
D|-0-0---0--------0-0---0---------0-0---0-----------5----7----8----10------|
pm.. .   .        . .   .         . .   .

Guitar 1 
C|-------------------------------------------------------------------------|
G|-------------------------------------------------------------------------|
C|-------14-------14----14-------17----------------------15-------15----15-|
F|-12-12----12-12----12----15-15----15-------17----13-13----13-13----13----|
A|-------------------------------------15-15----15-------------------------|
D|-------------------------------------------------------------------------|
Guitar 1 (cont'd)
C|-------------------------------------------------------------------------|
G|-------------------------------------------------------------------------|
C|-------------------------------------------------------------------------|
F|-------15----------12-12-------------------------------------------------|
A|-13-13----13/13-10-------------------------------------------------------|
D|-------------------------------------------------------------------------|
Guitar 2
C|-------------------------------------------------------------------------|
G|-------------------------------------------------------------------------|
C|-------------------------------------------------------------------------|
F|12-12-15-12-12-15-12-15/15-15-19-15-14-14-17-14-13-13-17-13-13-17-13-17--|
A|-------------------------------------------------------------------------|
D|-------------------------------------------------------------------------|
Guitar 2 (cont'd)
C|-------------------------------------------------------------------------|
G|-------------------------------------------------------------------------|
C|-------------------15\14-------------------------------------------------|
F|----------------12-------------------------------------------------------|
A|-13-13-17-13-10----------------------------------------------------------|
D|-------------------------------------------------------------------------|

Guitar 1 
C|-------------------------------------------------------------------------|
G|-------------------------------------------------------------------------|
C|-------14-------14----14-------17----------------------15-------15----15-|
F|-12-12----12-12----12----15-15----15-------17----13-13----13-13----13----|
A|-------------------------------------15-15----15-------------------------|
D|-------------------------------------------------------------------------|
Guitar 1 (cont'd)
C|-------------------------------------------------------------------------|
G|-------------------------------------------------------------------------|
C|-------------------------------------------------------------------------|
F|-------15----------12-12-------------------------------------------------|
A|-13-13----13/13-10-------------------------------------------------------|
D|-------------------------------------------------------------------------|
Guitar 2
C|-------------------------------------------------------------------------|
G|-------------------------------------------------------------------------|
C|-------------------------------------------------------------------------|
F|12-12-15-12-12-15-12-15/15-15-19-15-14-14-17-14-13-13-17-13-13-17-13-17--|
A|-------------------------------------------------------------------------|
D|-------------------------------------------------------------------------|
Guitar 2 (cont'd)
C|-------------------------------------------------------------------------|
G|-------------------------------------------------------------------------|
C|-------------------17\16-------------------------------------------------|
F|----------------14-------------------------------------------------------|
A|-13-13-17-13-12----------------------------------------------------------|
D|-------------------------------------------------------------------------|

Chorus
Guitar 1
C|-------------------------------------------------------------------------|
G|-------------------------------------------------------------------------|
C|-------------------------2-----------------------------------------------|
F|-1-----------------------2-----------------------0-----------------------|
A|-1-----------------------0-----------------------0-----------------------|
D|-1-----------------------------------------------0-----------------------|
Guitar 2
C|-------------------------------------------------------------------------|
G|-------------------------------------------------------------------------|
C|-------------------------------------14----------------------------------|
F|-13-15-14-15----15-14-15-12-15-14-15----15-14-15-12-15-14-15----14-15----|
A|-------------15----------------------------------------------15----------|
D|-------------------------------------------------------------------------|

Guitar 1
C|-------------------------------------------------------------------------|
G|-------------------------------------------------------------------------|
C|-------------5-----------------------------------2-----------------------|
F|-3-----------3-----------1-----------------------2-----------------------|
A|-3-----------------------1-----------------------0-----------------------|
D|-3-----------------------1-----------------------------------------------|
Guitar 2
C|-------------------------------------------------------------------------|
G|-------------------------------------------------------------------------|
C|-------------17----------------------------------------------14----------|
F|-12-15-14-15----15-14-15-13-15-14-15----15-14-15-12-15-14-15----15-14-15-|
A|-------------------------------------15----------------------------------|
D|-------------------------------------------------------------------------|

Guitar 1
C|-------------------------------------------------------------------------|
G|-------------------------------------------------------------------------|
C|-------------------------------------------------------------------------|
F|-0-----------------------------------5-----------------------------------|
A|-0------------------------X--X----X--3-----------------------------------|
D|-0------------------17\---X--X----X--------5*----------------------------|
guitar 2
C|-------------------------------------------------------------------------|
G|-------------------------------------------------------------------------|
C|-------------------------------------15----------------------------------|
F|-12-15-14-15----15-14-15-12-15-14-15----15-14-15-------------------------|
A|-------------15----------------------------------------------------------|
D|-------------------------------------------------------------------------|

Guitar 1
C|-------------------------------------------------------------------------|
G|-------------------------------------------------------------------------|
C|-------------------------2-----------------------------------------------|
F|-1-----------------------2-----------------------0-----------------------|
A|-1-----------------------0-----------------------0-----------------------|
D|-1-----------------------------------------------0-----------------------|
Guitar 2
C|-------------------------------------------------------------------------|
G|-------------------------------------------------------------------------|
C|-------------------------------------14----------------------------------|
F|-13-15-14-15----15-14-15-12-15-14-15----15-14-15-12-15-14-15----14-15----|
A|-------------15----------------------------------------------15----------|
D|-------------------------------------------------------------------------|

Guitar 1
C|-------------------------------------------------------------------------|
G|-------------------------------------------------------------------------|
C|-------------5-----------------------------------2-----------------------|
F|-3-----------3-----------1-----------------------2-----------------------|
A|-3-----------------------1-----------------------0-----------------------|
D|-3-----------------------1-----------------------------------------------|
Guitar 2
C|-------------------------------------------------------------------------|
G|-------------------------------------------------------------------------|
C|-------------17----------------------------------------------14----------|
F|-12-15-14-15----15-14-15-13-15-14-15----15-14-15-12-15-14-15----15-14-15-|
A|-------------------------------------15----------------------------------|
D|-------------------------------------------------------------------------|

Guitar 1
C|---------------------------------------------------------13---------13\--|
G|------------------------------------------------------17---------17------|
C|-------------------------------------------------------------------------|
F|-0-----------------------3-----------5-----------------------------------|
A|-0-----------------------3-----------3-----------------------------------|
D|-0------------------17\--3-------------------------0-0-------0-0---------|
guitar 2
C|-------------------------------------------------------------------------|
G|-------------------------------------------------------------------------|
C|-------------------------------------15----------------------------------|
F|-12-15-14-15----15-14-15-12-15-14-15----15-14-15-------------------------|
A|-------------15------------------------------------0-0-------0-0---------|
D|---------------------------------------------------0-0-------0-0---------|

Verse
Guitar 1
C|-------------------------------------------------------------------------|
G|-------------------------------------------------------------------------|
C|-------------------------------------------------------------------------|
F|-------------------------------------------------------------------------|
A|-0-0--------0-0--------0-0----------0-0-0---0-0-0---0-0-0----------------|
D|-0-0--------0-0--------0-0----------0-0-0---0-0-0---0-0-0----------------|
pm.. .        . .        . .          . . .   . . .   . . . 
Guitar 2
C|-------------------------------------------------------------------------|
G|-------------------------------------------------------------------------|
C|-------------------------------------------------------------------------|
F|-------------------------------------------------------------------------|
A|------0-0--------0-0----------------0-0-0---0-0-0---0-0-0----------------|
D|------0-0--------0-0----------------0-0-0---0-0-0---0-0-0----------------|
pm.     . .        . .                . . .   . . .   . . . 

Guitar 1
C|-------------------------------------------------------------22--(22)----|
G|-------------------------------------------------------20----15--(15)----|
C|-------------------------------------------17--(17)----12----------------|
F|-3-3--------3-3--------3-3------------15---10--(10)----------------------|
A|-1-1--------1-1--------1-1-------13---10---------------------------------|
D|----------------------------------8--------------------------------------|
pm.. .        . .        . .  
Guitar 2
C|------------------------------------------------------------------22~~~--|
G|------------------------------------------------------20------20---------|
C|------5--5--------5-5----------------------17------17-----17-------------|
F|---3--3--3--------3-3------------------15------15------------------------|
A|---1-----------------------------/13-------------------------------------|
D|-------------------------------------------------------------------------|
pm.  . .  .         . .


Guitar 1
C|-------13-------13-------13---13----13------13-------13-----13---------12|
G|----17-------17-------17---------17------17-------17------17---13----13--|
C|----------------------------17------------------------------------12-----|
F|-------------------------------------------------------------------------|
A|-------------------------------------------------------------------------|
D|-0-0------0-0------0-0-----------------0-0------0-0-----0-0--------------|
pm.. .      . .      . .                 . .      . .     . .
Guitar 2
C|-------------------------------------------------------------------------|
G|-------------------------------------------------------------------------|
C|--------------------------------------------------------8----------------|
F|-------------------3-------------------2----------------8----------------|
A|-0-----------------3-------------------2----------------6----------------|
D|-0-----------------3-------------------2---------------------------------|

Guitar 1
C|-------------------------------------------------------------------------|
G|-------------------------------------------------------------------------|
C|-------------------------------------------------------------------------|
F|-------------------------------------------------------------------------|
A|-0-0--------0-0--------0-0----------00000---00000---00000----------------|
D|-0-0--------0-0--------0-0----------00000---00000---00000----------------|
pm.. .        . .        . .          .....   .....   ..... 
Guitar 2
C|-------------------------------------------------------------------------|
G|-------------------------------------------------------------------------|
C|-------------------------------------------------------------------------|
F|-------------------------------------------------------------------------|
A|------0-0--------0-0----------------00000---00000---00000----------------|
D|------0-0--------0-0----------------00000---00000---00000----------------|
pm.     . .        . .                .....   .....   .....

Guitar 1
C|-------------------------------------------------------------------------|
G|-------------------------------------------------------------------------|
C|-------------------------------------------------------------------------|
F|-3-3-----3-3-----3-3--------------------------------------------------3/5|
A|-1-1-----1-1-----1-1--11111-33333-55555--77777------------------------1/3|
D|-----------------------------------------------3-0-2-0-2-0-1-0-3-0-2-0---|
pm.. .     . .     . .  ..... ..... ..... .....  . . . . . . . . . . . .
Guitar 2
C|-------------------------------------------------------------------------|
G|-------------------------------------------------------------------------|
C|-----5-5-----5-5---------------------------------------------------------|
F|-----3-3-----3-3------------------------------------------------------3/5|
A|--1-------------------11111-11111-11111-33333-------------------------1/3|
D|-----------------------------------------------3-0-2-0-2-0-1-0-3-0-2-0---|
pm. .  . .     . .      ..... ..... ..... .....  . . . . . . . . . . . .

Chorus
Guitar 1
C|-------------------------------------------------------------------------|
G|-------------------------------------------------------------------------|
C|-------------------------2-----------------------------------------------|
F|-1-----------------------2-----------------------0-----------------------|
A|-1-----------------------0-----------------------0-----------------------|
D|-1-----------------------------------------------0-----------------------|
Guitar 2
C|-------------------------------------------------------------------------|
G|-------------------------------------------------------------------------|
C|-------------------------------------14----------------------------------|
F|-13-15-14-15----15-14-15-12-15-14-15----15-14-15-12-15-14-15----14-15----|
A|-------------15----------------------------------------------15----------|
D|-------------------------------------------------------------------------|

Guitar 1
C|-------------------------------------------------------------------------|
G|-------------------------------------------------------------------------|
C|-------------5-----------------------------------2-----------------------|
F|-3-----------3-----------1-----------------------2-----------------------|
A|-3-----------------------1-----------------------0-----------------------|
D|-3-----------------------1-----------------------------------------------|
Guitar 2
C|-------------------------------------------------------------------------|
G|-------------------------------------------------------------------------|
C|-------------17----------------------------------------------14----------|
F|-12-15-14-15----15-14-15-13-15-14-15----15-14-15-12-15-14-15----15-14-15-|
A|-------------------------------------15----------------------------------|
D|-------------------------------------------------------------------------|

Guitar 1
C|-------------------------------------------------------------------------|
G|-------------------------------------------------------------------------|
C|-------------------------------------------------------------------------|
F|-0-----------------------------------5-----------------------------------|
A|-0------------------------X--X----X--3-----------------------------------|
D|-0------------------17\---X--X----X--------5*----------------------------|
guitar 2
C|-------------------------------------------------------------------------|
G|-------------------------------------------------------------------------|
C|-------------------------------------15----------------------------------|
F|-12-15-14-15----15-14-15-12-15-14-15----15-14-15-------------------------|
A|-------------15----------------------------------------------------------|
D|-------------------------------------------------------------------------|

Guitar 1
C|-------------------------------------------------------------------------|
G|-------------------------------------------------------------------------|
C|-------------------------2-----------------------------------------------|
F|-1-----------------------2-----------------------0-----------------------|
A|-1-----------------------0-----------------------0-----------------------|
D|-1-----------------------------------------------0-----------------------|
Guitar 2
C|-------------------------------------------------------------------------|
G|-------------------------------------------------------------------------|
C|-------------------------------------14----------------------------------|
F|-13-15-14-15----15-14-15-12-15-14-15----15-14-15-12-15-14-15----14-15----|
A|-------------15----------------------------------------------15----------|
D|-------------------------------------------------------------------------|

Guitar 1
C|-------------------------------------------------------------------------|
G|-------------------------------------------------------------------------|
C|-------------5-----------------------------------2-----------------------|
F|-3-----------3-----------1-----------------------2-----------------------|
A|-3-----------------------1-----------------------0-----------------------|
D|-3-----------------------1-----------------------------------------------|
Guitar 2
C|-------------------------------------------------------------------------|
G|-------------------------------------------------------------------------|
C|-------------17----------------------------------------------14----------|
F|-12-15-14-15----15-14-15-13-15-14-15----15-14-15-12-15-14-15----15-14-15-|
A|-------------------------------------15----------------------------------|
D|-------------------------------------------------------------------------|

Guitar 1
C|-------------------------------------------------------------------------|
G|-------------------------------------------------------------------------|
C|-------------------------------------------------------------------------|
F|-0-----------------------3-----------5-----------------------------------|
A|-0-----------------------3-----------3--------------------6-------6~~~---|
D|-0------------------17\--3---------------------------0-0-----0-0---------|
pm.                                                    . .     . .
guitar 2
C|-------------------------------------------------------------------------|
G|-------------------------------------------------------------------------|
C|-------------------------------------15----------------------------------|
F|-12-15-14-15----15-14-15-12-15-14-15----15-14-15-------------------------|
A|-------------15-------------------------------------------6-------6~~~---|
D|-----------------------------------------------------0-0-----0-0---------|
pm.                                                    . .     . .

Guitar 1
C|-------------------------------------------------------------------------|
G|-------------------------------------------------------------------------|
C|------14------14-14-----17----------------15-----15--15------------------|
F|12-12---12-12--12--15-15--15-----17--13-13--13-13--13-------15-------1212|
A|----------------------------15-15--15------------------13-13--13/13-10---|
D|-------------------------------------------------------------------------|
Guitar 2
C|-------------------------------------------------------------------------|
G|-------------------------------------------------------------------------|
C|-------------------------------------------------------------------------|
F|12-12-15-12-12-15-12-15/15-15-19-15-14-14-17-14-13-13-17-13-13-17-13-17--|
A|-------------------------------------------------------------------------|
D|-------------------------------------------------------------------------|
Guitar 2 (cont'd)
C|-------------------------------------------------------------------------|
G|-------------------------------------------------------------------------|
C|-------------------15\14-------------------------------------------------|
F|----------------12-------------------------------------------------------|
A|-13-13-17-13-10----------------------------------------------------------|
D|-------------------------------------------------------------------------|

Guitar 1
C|-------------------------------------------------------------------------|
G|-------------------------------------------------------------------------|
C|------14------14-14-----17----------------15-----15--15------------------|
F|12-12---12-12--12--15-15--15-----17--13-13--13-13--13-------15-------1414|
A|----------------------------15-15--15------------------13-13--13-15-12---|
D|-------------------------------------------------------------------------|
Guitar 2
C|-------------------------------------------------------------------------|
G|-------------------------------------------------------------------------|
C|-------------------------------------------------------------------------|
F|12-12-15-12-12-15-12-15/15-15-19-15-14-14-17-14-13-13-17-13-13-17-13-17--|
A|-------------------------------------------------------------------------|
D|-------------------------------------------------------------------------|
Guitar 2 (cont'd)
C|-------------------------------------------------------------------------|
G|-------------------------------------------------------------------------|
C|-------------------17\16-------------------------------------------------|
F|----------------14-------------------------------------------------------|
A|-13-13-17-13-12----------------------------------------------------------|
D|-------------------------------------------------------------------------|

Solo
Guitar 1
C|-12b-(12)r-(12)b--(12)r--15b--14b--17-(17)r-(17)b---20b----(20)r--(20)b--|
G|-15b-(15)r-(15)b--(15)r--18b--17b--20-(20)r-(20)b---23b----(23)r--(23)b--|
C|-------------------------------------------------------------------------|
F|-------------------------------------------------------------------------|
A|-------------------------------------------------------------------------|
D|-------------------------------------------------------------------------|
Guitar 2
C|-------------------------------------------------------------------------|
G|-------------------------------------------------------------------------|
C|-------------------------------------------------------------------------|
F|-------------------------------------------------------------------------|
A|-------------------------------------------------------------------------|
D|--2-2-5-2-2-5-2-5/5-5-8-5-4-4-7-4-3-3-7-3-3-7-3-7-0-0-7-0-0-2-0-3--------|

Guitar 1,2
C|-19----------19*/17---------19*--22----------22--21----------21----------|
G|-----17--17----------15/17-----------20--20----------19--19--------------|
C|-------------------------------------------------------------------------|
F|-------------------------------------------------------------------------|
A|-------------------------------------------------------------------------|
D|-------------------------------------------------------------------------|

guitar 1,2
C|-20-17-19-20-19-17-------------------------------------------------------|
G|-------------------20-18-17-18-20-18-17----------------------------------|
C|----------------------------------------19-17-16-17-16-------------------|
F|-------------------------------------------------------19-17-15-17-19----|
A|-------------------------------------------------------------------------|
D|-------------------------------------------------------------------------|
Guitar 1,2 (cont'd)
C|-------------------17-19-------------------------------------------------|
G|----------17-18-20-------------------------------------------------------|
C|-16-17-19----------------------------------------------------------------|
F|-------------------------------------------------------------------------|
A|-------------------------------------------------------------------------|
D|-------------------------------------------------------------------------|

guitar 1
C|--17b-(17)r-(17)b-17b-(17)r-(17)b---15---------17-13-------/20-17--------|
G|------------------17b-(17)r-(17)b------17/------------------------18-----|
C|--------------------------------------------3+-------17-14-----------17--|
F|-------------------------------------------------------------------------|
A|-------------------------------------------------------------------------|
D|-------------------------------------------------------------------------|
Guitar 1 (cont'd)
C|-/13-10-------17-13------------------------------------------------------|
G|--------------------15---------------------------------------------------|
C|--------14-10----------13------------------------------------------------|
F|-------------------------------------------------------------------------|
A|-------------------------------------------------------------------------|
D|-------------------------------------------------------------------------|
pm.       .  .
Guitar 2
C|-------------------------------------------------------------------------|
G|-------------------------------------------------------------------------|
C|-------------------------------------------------------------------------|
F|-------------------------------------------------------------------------|
A|-------------------------------------------------------------------------|
D|--2-2-5-2-2-5-2-5/5-5-8-5-4-4-7-4-3-3-7-3-3-7-3-7-0-0-7-0-0-2-0-3--------|

Guitar 1
C|-------------------------------------------------------------------------|
G|14b-14-12-----14b-14-12--------------------------------------------------|
C|14b-14-12-----14b-14-12-----14p12/10-14p10-14-17p14-17-19p17-19-21p19-21-|
F|---------14-12---------14-12---------------------------------------------|
A|-------------------------------------------------------------------------|
D|-------------------------------------------------------------------------|
pm.        .  .          .  .
Guitar 2
C|-------------------------------------------------------------------------|
G|-------------------------------------------------------------------------|
C|-------------------------------------------------------------------------|
F|-------------------------------------------------------------------------|
A|--------------------------------3--3-3-3-3-3-3-3--0-0-0-0-0-0-0-0--------|
D|2-2-5-2-2-5-2-5/5-5-8-5-4-4-7-4-3--3-3-3-3-3-3-3--0-0-0-0-0-0-0-0--------|
pm.                                  . . . . . . .  . . . . . . . . 

Chorus
Guitar 1
C|-------------------------------------------------------------------------|
G|-------------------------------------------------------------------------|
C|-------------------------2-----------------------------------------------|
F|-1-----------------------2-----------------------0-----------------------|
A|-1-----------------------0-----------------------0-----------------------|
D|-1-----------------------------------------------0-----------------------|
Guitar 2
C|-------------------------------------------------------------------------|
G|-------------------------------------------------------------------------|
C|-------------------------------------14----------------------------------|
F|-13-15-14-15----15-14-15-12-15-14-15----15-14-15-12-15-14-15----14-15----|
A|-------------15----------------------------------------------15----------|
D|-------------------------------------------------------------------------|

Guitar 1
C|-------------------------------------------------------------------------|
G|-------------------------------------------------------------------------|
C|-------------5-----------------------------------2-----------------------|
F|-3-----------3-----------1-----------------------2-----------------------|
A|-3-----------------------1-----------------------0-----------------------|
D|-3-----------------------1-----------------------------------------------|
Guitar 2
C|-------------------------------------------------------------------------|
G|-------------------------------------------------------------------------|
C|-------------17----------------------------------------------14----------|
F|-12-15-14-15----15-14-15-13-15-14-15----15-14-15-12-15-14-15----15-14-15-|
A|-------------------------------------15----------------------------------|
D|-------------------------------------------------------------------------|

Guitar 1
C|-------------------------------------------------------------------------|
G|-------------------------------------------------------------------------|
C|-------------------------------------------------------------------------|
F|-0-----------------------------------5-----------------------------------|
A|-0------------------------X--X----X--3-----------------------------------|
D|-0------------------17\---X--X----X--------5*----------------------------|
guitar 2
C|-------------------------------------------------------------------------|
G|-------------------------------------------------------------------------|
C|-------------------------------------15----------------------------------|
F|-12-15-14-15----15-14-15-12-15-14-15----15-14-15-------------------------|
A|-------------15----------------------------------------------------------|
D|-------------------------------------------------------------------------|

Guitar 1
C|-------------------------------------------------------------------------|
G|-------------------------------------------------------------------------|
C|-------------------------2-----------------------------------------------|
F|-1-----------------------2-----------------------0-----------------------|
A|-1-----------------------0-----------------------0-----------------------|
D|-1-----------------------------------------------0-----------------------|
Guitar 2
C|-------------------------------------------------------------------------|
G|-------------------------------------------------------------------------|
C|-------------------------------------14----------------------------------|
F|-13-15-14-15----15-14-15-12-15-14-15----15-14-15-12-15-14-15----14-15----|
A|-------------15----------------------------------------------15----------|
D|-------------------------------------------------------------------------|

Guitar 1
C|-------------------------------------------------------------------------|
G|-------------------------------------------------------------------------|
C|-------------5-----------------------------------2-----------------------|
F|-3-----------3-----------1-----------------------2-----------------------|
A|-3-----------------------1-----------------------0-----------------------|
D|-3-----------------------1-----------------------------------------------|
Guitar 2
C|-------------------------------------------------------------------------|
G|-------------------------------------------------------------------------|
C|-------------17----------------------------------------------14----------|
F|-12-15-14-15----15-14-15-13-15-14-15----15-14-15-12-15-14-15----15-14-15-|
A|-------------------------------------15----------------------------------|
D|-------------------------------------------------------------------------|

Guitar 1
C|-------------------------------------------------------------------------|
G|-------------------------------------------------------------------------|
C|-------------------------------------------------------------------------|
F|-0-----------------------3-----------5-----------------------------------|
A|-0-----------------------3-----------3--------------------6-------6~~~---|
D|-0------------------17\--3---------------------------0-0-----0-0---------|
pm.                                                    . .     . .
guitar 2
C|-------------------------------------------------------------------------|
G|-------------------------------------------------------------------------|
C|-------------------------------------15----------------------------------|
F|-12-15-14-15----15-14-15-12-15-14-15----15-14-15-------------------------|
A|-------------15-------------------------------------------6-------6~~~---|
D|-----------------------------------------------------0-0-----0-0---------|
pm.                                                    . .     . .

Outro
Guitar 1
C|-------------------------------------------------------------------------|
G|-------------------------------------------------------------------------|
C|------------------------------------------------3----------3---------3---|
F|-----7---7/8--7-------7---7-8-------7-----------3----------3---------3---|
A|-----5---5/6--5-------5---5-6-------5-----5--7----7--5--7----7--5--7---7-|
D|-0-0---0----------0-0---0-------0-0----0---------------------------------|
pm.. .   .          . .   .       . .    .             .  .    .  .
Guitar 2
C|-------------------------------------------------------------------------|
G|----------------------------------------------------------10-------------|
C|------------------------------------------------7---------10---------10-9|
F|-----7---7/8--7-------7---7-8-------7------7-10---7-10--7----10-7-10-----|
A|-----5---5/6--5-------5---5-6-------5--0---------------------------------|
D|-0-0---0----------0-0---0-------0-0--------------------------------------|
pm.. .   .          . .   .       . .    .   .  .   .  .  .    .  .  .

Guitar 1
C|-------------------------------------------------------------------------|
G|-------------------------------------------------------------------------|
C|------------------------------------------------3----------3---------3---|
F|-----7---7/8--7-------7-------8*----7-----------3----------3---------3---|
A|-----5---5/6--5-------5-5-5-6-------5-----5--7----7--5--7----7--5--7---7-|
D|-0-0---0----------0-0-----------0-0----0---------------------------------|
pm.. .   .          . .   . . .   . .    .             .  .    .  .
Guitar 2
C|-------------------------------------------------------------------------|
G|----------------------------------------------------------10-------------|
C|------------------------------------------------7---------10---------10-9|
F|-----7---7/8--7-------7-------8*----7------7-10---7-10--7----10-7-10-----|
A|-----5---5/6--5-------5-5-5-6-------5--0---------------------------------|
D|-0-0---0----------0-0-----------0-0--------------------------------------|
pm.. .   .          . .   .       . .    .   .  .   .  .  .    .  .  .

Guitar 1
C|-------------------------------------------------------------------------|
G|-------------------------------------------------------------------------|
C|-------------------------------------------------------------------------|
F|-----7---7/8--7-------7---7-8-------7-----------3----------3---------3---|
A|-----5---5/6--5-------5---5-6-------5--0--3--5----5--3--5----5--3--5---3-|
D|-0-0---0----------0-0---0-------0-0--------------------------------------|
pm.. .   .          . .   .       . .    .             .  .    .  .
Guitar 2
C|-------------------------------------------------------------------------|
G|-------------------------------------------------------------------------|
C|-------------------------------------------------------------------------|
F|-----7---7/8--7-------7---7-8-------7----------10---------10*-------10---|
A|-----5---5/6--5-------5---5-6-------5-----7--8----8--7--8----8--7--8---7-|
D|-0-0---0----------0-0---0-------0-0----0---------------------------------|
pm.. .   .          . .   .       . .    .  .  .    .  .  .       .  . . .

Guitar 1
C|-------------------------------------------------------------------------|
G|-------------------------------------------------------------------------|
C|-------------------------------------------------------------------------|
F|-----7---7/8--7-------7---7-8-------7-----------3----------3---------3---|
A|-----5---5/6--5-------5---5-6-------5--0--3--5----5--3--5----5--3--5---3-|
D|-0-0---0----------0-0---0-------0-0--------------------------------------|
pm.. .   .          . .   .       . .    .             .  .    .  .
Guitar 2
C|-------------------------------------------------------------------------|
G|-------------------------------------------------------------------------|
C|-------------------------------------------------------------------------|
F|-----7---7/8--7-------7---7-8-------7----------10---------10*-------10---|
A|-----5---5/6--5-------5---5-6-------5-----7--8----8--7--8----8--7--8---7-|
D|-0-0---0----------0-0---0-------0-0----0---------------------------------|
pm.. .   .          . .   .       . .    .  .  .    .  .  .       .  . . .


| /  slide up
| \  slide down
| h  hammer-on
| p  pull-off
| ~  vibrato
| +  harmonic
| x  Mute note
| *  Pitch Harmonic
| b  Bend full note
| r  Release from bend
============================================================================
comments
print report bad tab
38 comments total. Showing first comments.
+9 reply
deaththrashcore wrote on March 27 2007, 09:06 am

Pretty good. Some is just a little off and the strings are backwards it should be C-G-C-F-A-D going up.

0 reply
sicfreak91 wrote on April 12 2007, 08:00 pm

haha, didn't even notice that strings were backwards until i read that one comment. But other then that, PERFECT, STRIAGHT out of guitar world mag. I was gonna write it up my self cause i have the issue, but i guess you beat me ..

0 reply
AnxietyAngel wrote on May 10 2007, 01:09 pm

This Is A Awesome Tab!!!!!!!!!

I want to post or [tab]
guest
You may want to rate the tab now too:
select rating
Please do not post tabs as comments. Select "correction" instead!