Oops, an error
Loading. Please wait.

Banned From Heaven Tab

ver1
ver1

Intro

Solo

Whole song

Interactive

More versions @911Tabs.com
23,713 views 1 this week
7 commentsread comments
1 2 3 4 5
excellent!
x 8
Autoscroll
+/-
esc
set tempo
stop
Contributor
Difficulty
Tuning
advanced
C G C F A D
Hey! There's an official Ultimate Guitar app which is ideal
for learning songs when you're away from computer. Get the app
WARNING: You are trying to view
                                    content from Ultimate-Guitar.com
                                    in an unauthorized application,
                                    which is prohibited.

                                    Please use an official Ultimate
                                    Guitar Tabs application for iPhone,
                                    iPad or Android to access legitimate
                                    chords, guitar, bass, and drum tabs
                                    from Ultimate-Guitar.com database.

                                    Type "ultimate guitar tabs" in Apple
                                    App Store's or Android Market's
                                    search to find the application.
                           Banned from Heaven---Children of Bodom                                


Tuning:Dropped C tuning:C G C F A D
                                                       
Guitar 1



     E  E  E  H        E     W                   E  E  H        Q     
D||-----------------------|-------------------|----------------------|
A||-----------------------|-------------------|----------------------|
F||-----------------------|-------------------|----------------------|
C||--0--0--0--L--------L--|--L----------------|--0--0--L-------------|
G||--0--0--0--L--------L--|--L----------------|--0--0--L-------------|
C||--0--0--0--L--------L--|--L----------------|--0--0--L-------------|


  W                   E  E  H        Q       W                 
-------------------|----------------------|-------------------|
-------------------|----------------------|-------------------|
-------------------|----------------------|-------------------|
--L----------------|--0--0--L-------------|--L----------------|
--L----------------|--0--0--L-------------|--L----------------|
--L----------------|--0--0--L-------------|--L----------------|


  H        Q    E  E     H        Q    Q       H        Q    E  E   
----------------------|---------------------|----------------------|
----------------------|---------------------|----------------------|
-----------2----L-----|-----------5----3----|----------------------|
--0--------2----L-----|--L--------5----3----|-----------2----L--3--|
--0--------0----L--2--|--L--------3----1----|--0--------0----L--1--|
--0----------------2--|---------------------|--0-------------------|


                                                       PM PM               
  H        Q    Q       H        Q    E  E     Q    E  S  S  Q      Q      
---------------------|----------------------|-----------------------------|
---------------------|----------------------|---------------------<>3~----|
---------------------|----------------------|-----------------------------|
--L------------------|-----------2----L-----|----------------5------------|
--L--------3----3----|--0--------0----L--2--|--L----L--------3------------|
-----------3----2----|--0----------------2--|--L----L--2--2---------------|


  H        Q    E  E     H        Q    Q       H        Q    E  E   
----------------------|---------------------|----------------------|
----------------------|---------------------|----------------------|
----------------------|---------------------|----------------------|
-----------2----L--3--|--L------------------|-----------2----------|
--0--------0----L--1--|--L--------3----3----|--0--------0----x--2--|
--0-------------------|-----------3----2----|--0-------------x--2--|


  H        Q     Q         E  E  E   H        E     H        Q     Q      
------------------------|------------------------|-----------------------|
------------------------|-----------10--------L--|--L--------L-----------|
----------------(4)\----|--------7---------------|--L--------------------|
-----------5-----5\-----|--0--7------L-----------|--L--------------------|
--L--------3-----5\-----|--0---------L-----------|--L-------------12\----|
--L---------------------|--0---------L-----------|--L-------------12\----|


  PM                  PM            PM         PM PM PM                 
  S  S S S S S S S E  S  S Q        S  S S S S S  S  S  E  S S S S S S  
---------------------------------|-------------------------------------|
---------------------------------|-------------------------------------|
---------------------------------|-------------------------------------|
---------------------------5b----|----------------------2--7---6---5---|
--0--7-5-0---0-5-3-0--0----3b----|--0--3-2-0---0--3--0--0----8---8---8-|
--0--7-5-0-x-0-5-3-0--0----------|--0--3-2-0---0--3--0-----------------|


  PM                  PM               PM PM PM    PM PM PM  
  S  S S S S S S S E  S  S Q        E  E  E  E  E  E  E  E   
---------------------------------|--------------------------|
---------------------------------|--------------------------|
---------------------------------|--2-----------5-----------|
---------------------------5b----|--2--2--2--2--5--5--5--5--|
--0--7-5-0---0-5-3-0--0----3b----|--0--0--0--0--3--3--3--3--|
--0--7-5-0-x-0-5-3-0--0----------|--------------------------|


  PM                 W  PM            PM         PM PM PM                 
  S  S S S S S S S   E  S  S Q        S  S S S S S  S  S  E  S S S S S S  
-----------------------------------|-------------------------------------|
-----------------------------------|-------------------------------------|
-----------------------------------|-------------------------------------|
-----------------------------5b----|----------------------2--7---6---5---|
--0--7-5-0---0-5-3------0----3b----|--0--3-2-0---0--3--0--0----8---8---8-|
--0--7-5-0-x-0-5-3-<>5--0----------|--0--3-2-0---0--3--0-----------------|


  PM                 W  PM               PM PM PM    PM PM PM  
  S  S S S S S S S   E  S  S Q        E  E  E  E  E  E  E  E   
-----------------------------------|--------------------------|
-----------------------------------|--------------------------|
-----------------------------------|--2-----------5-----------|
-----------------------------5b----|--2--2--2--2--5--5--5--5--|
--0--7-5-0---0-5-3------0----3b----|--0--0--0--0--3--3--3--3--|
--0--7-5-0-x-0-5-3-<>5--0----------|--------------------------|


                             PM                                   
  S S S S S S S S    Q    E  E  Q    E  E     H        Q    Q     
------------------|------------------------|---------------------|
------------------|------------------------|---------------------|
----------------5-|------------------------|---------------------|
----------5-7-8---|-------------2----L--3--|--L------------------|
--8-5-7-8---------|--0----L-----0----L--1--|--L--------3----2----|
------------------|--0----L--0-------------|-----------3----2----|


                                 PM PM \2     W               PM             
  H        Q    E  E     Q    E  S  S  Q      Q       Q    E  E  Q    E  E   
----------------------|----------------------------|------------------------|
----------------------|----------------------------|------------------------|
----------------------|---------------------<>5----|------------------------|
-----------2----L-----|----------------5-----------|-------------2----L--3--|
--0--------0----L--2--|--L----L--------3-----------|--0----L-----0----L--1--|
--0----------------2--|--L----L--2--2--------------|--0----L--0-------------|


                                                  PM PM    PM PM               
  H        Q    Q       H        Q    E  E     E  S  S  E  S  S  Q     Q       
---------------------|----------------------|---------------------------------|
---------------------|----------------------|---------------------------------|
---------------------|----------------------|-------------------------(4)\----|
--L------------------|-----------2----L-----|--------------------5-----5\-----|
--L--------3----2----|--0--------0----L--2--|--L--------2--------3-----5\-----|
-----------3----2----|--0----------------2--|--L--0--0--2--0--0---------------|


   E   E   E    E   Q      E   E      E   E   E   E   Q      Q         
-----------------------------------|----------------------------------|
--------------/17--15~-------------|-------------15--15b----15pbr~----|
--17--14--17--------------16--17~--|--L--16--17-----------------------|
-----------------------------------|----------------------------------|
-----------------------------------|----------------------------------|
-----------------------------------|----------------------------------|


                                             PM PM PM PM               
   E   E   E   E   Q      E   E      E   E   S  S  S  S  Q      Q      
----------------------------------|-----------------------------------|
----------------------------------|-----------------------------------|
--17--14--17--14------------------|-----14--------------16b-----------|
------------------17~-------------|---------------17-17--------15~----|
-------------------------19--17~--|--L------17-17---------------------|
----------------------------------|-----------------------------------|


   E   E   E    E   Q      E   E      E   E   E   E   Q      Q         
-----------------------------------|----------------------------------|
--------------/17--15~-------------|-------------15--15b----15pbr~----|
--17--14--17--------------16--17~--|--L--16--17-----------------------|
-----------------------------------|----------------------------------|
-----------------------------------|----------------------------------|
-----------------------------------|----------------------------------|


                                             PM PM PM PM               
   E   E   E   E   Q      E   E      E   E   S  S  S  S  Q      Q      
----------------------------------|-----------------------------------|
----------------------------------|-----------------------------------|
--17--14--17--14------------------|-----14--------------16b-----------|
------------------17~-------------|---------------17-17--------15~----|
-------------------------19--17~--|--L------17-17---------------------|
----------------------------------|-----------------------------------|


                        PM         PM PM PM                 
  H.           Q        S  S S S S S  S  S  E  S S S S S S  
---------------------|-------------------------------------|
---------------------|-------------------------------------|
---------------5b----|-------------------------------------|
---------------5b----|----------------------2--7---6---5---|
---------------3b----|--0--3-2-0---0--3--0--0----8---8---8-|
---------------------|--0--3-2-0---0--3--0-----------------|


  PM                  PM               PM PM PM    PM PM PM  
  S  S S S S S S S E  S  S Q        E  E  E  E  E  E  E  E   
---------------------------------|--------------------------|
---------------------------------|--------------------------|
---------------------------------|--2-----------5-----------|
---------------------------5b----|--2--2--2--2--5--5--5--5--|
--0--7-5-0---0-5-3-0--0----3b----|--0--0--0--0--3--3--3--3--|
--0--7-5-0-x-0-5-3-0--0----------|--------------------------|


  PM                  PM            PM         PM PM PM                 
  S  S S S S S S S E  S  S Q        S  S S S S S  S  S  E  S S S S S S  
---------------------------------|-------------------------------------|
---------------------------------|-------------------------------------|
---------------------------------|-------------------------------------|
---------------------------5b----|----------------------2--7---6---5---|
--0--7-5-0---0-5-3-0--0----3b----|--0--3-2-0---0--3--0--0----8---8---8-|
--0--7-5-0-x-0-5-3-0--0----------|--0--3-2-0---0--3--0-----------------|


  PM                  PM               PM PM PM PM PM PM PM  
  S  S S S S S S S E  S  S Q        E  E  E  E  E  E  E  E   
---------------------------------|--------------------------|
---------------------------------|--------------------------|
---------------------------------|--2-----------------------|
---------------------------5b----|--2--2--2--2--5--5--5--5--|
--0--7-5-0---0-5-3-0--0----3b----|--0--0--0--0--3--3--3--3--|
--0--7-5-0-x-0-5-3-0--0----------|--------------------------|


                                                                  PM PM  
  E  E  E  E  E  E  E  E     W                   H        E  Q    S  S   
--------------------------|-------------------|-------------------------|
--------------------------|-------------------|-------------------------|
--------------------------|--5----------------|-------------------------|
--4--4--4--4--7--7--7--7--|--5----------------|--2--------L--L----------|
--2--2--2--2--5--5--5--5--|--3----------------|--2--------L--L----------|
--------------------------|-------------------|--2--------L--L----5--5--|


  H        H            H        H           W                 
--------------------|---------------------|-------------------|
--------------------|---------------------|-------------------|
--------------------|---------------------|--5----------------|
--7--------9--------|--10--------9--------|--5----------------|
--7--------9--------|--10--------9--------|--3----------------|
--7--------9--------|--10--------9--------|-------------------|


                   PM PM                                             
  H        E  Q    S  S     H        H           H        Q    Q     
-------------------------|--------------------|---------------------|
-------------------------|--------------------|---------------------|
-------------------------|--------------------|----------------7----|
--2--------L--L----------|--7--------9--------|--7--------5----7----|
--2--------L--L----------|--7--------9--------|--7--------5----5----|
--2--------L--L----5--5--|--7--------9--------|--7--------5---------|


  E  E  H        Q       W                   E  E  H        Q     
----------------------|-------------------|----------------------|
----------------------|-------------------|----------------------|
----------------------|-------------------|----------------------|
--2--2--L-------------|--L----------------|--2--2--L-------------|
--2--2--L-------------|--L----------------|--2--2--L-------------|
--2--2--L-------------|--L----------------|--2--2--L-------------|


  W                   E  E  H        Q       W                 
-------------------|----------------------|-------------------|
-------------------|----------------------|-------------------|
-------------------|----------------------|-------------------|
--L----------------|--2--2--L-------------|--L----------------|
--L----------------|--2--2--L-------------|--L----------------|
--L----------------|--2--2--L-------------|--L----------------|


                                                  PM          PM        
  H        Q    E  E     H        Q    Q       E  E  E  Q     E  E  E   
----------------------|---------------------|--------------------------|
----------------------|---------------------|--------------------------|
-----------4----L-----|-----------7----5----|--5-----5--7\-------------|
--2--------4----L--3--|--L------------------|--5--5--5--5--------------|
--2--------2----L--3--|--L--------5----3----|--3--3--3--5--------3--2--|
--2----------------3--|--L------------------|-----------------2--3--2--|


      PM PM       PM PM PM PM             PM          PM /0    
  S S S  S  Q     S  S  S  S  Q        E  E  E  Q     E  Q     
------------------------------------|-------------------------|
------------------------------------|-------------------------|
------------7~----------------7~----|--5-----5--7\------------|
------------5-----------------5-----|--5--5--5--5-------------|
----L-------5-----------------5-----|--3--3--3--5--------2----|
----L-2--2--------2--2--2--2--------|-----------------3--2----|


                                             PM      PM       
  S  S S S S S  E   S  S S S S S E     E  E  E  Q    E  Q     
------------------------------------|------------------------|
------------------------------------|------------------------|
--7s-9-9-9-9-9-12--12s-7-7-7-7-7-2--|------------------------|
--7s-9-9-9-9-9-12--12s-7-7-7-7-7-2--|--5--5-----4------------|
--5s-7-7-7-7-7-10--10s-5-5-5-5-5-0--|--3--2--0--2-------2----|
------------------------------------|----------------3--2----|


     PM PM         PM PM PM PM                          PM       
  E  S  S  S S S S S  S  S  S  S S S S    E  E  E  Q    E  Q     
---------------------------------------|------------------------|
-----------8-8-8-8-------------8-8-8-8-|------------------------|
-----------7-7-7-7-------------7-7-7-7-|------------------------|
-----------5-5-5-5-------------5-5-5-5-|--2--2--5--4-------7----|
--L------------------------------------|--0--0--3--2-------7----|
--L--2--2----------2--2--2--2----------|----------------5--7----|


                                      PM        PM PM    PM PM    PM PM  
   E   S  S  S E  S S S S S S E  S    E  S S E  S  S  E  S  S  E  S  S   
-----------------------------------|------------------------------------|
-----------------------------------|------------------------------------|
-----------------------------------|------------------------------------|
---L--12-12-12-7--L-7-9-9-9-9-7--L-|-----5-5-5--------4--------2--------|
---L--10-10-10-5--L-5-7-7-7-7-5--L-|-----5-5-5--------4--------2--------|
---L-------------------------------|--0--5-5-5--4--4--4--2--2--2--0--0--|


          NH  NH  NH  NH   PM   NH  NH  NH  NH                                 
  E  E    S   S   S   S E  E    S   S   S   S    E  E  S S S S S S S S S S E   
----------------------------------------------|-------------------------------|
----------------------------------------------|-------------------------------|
------------------------------<>7-------------|-------------------------------|
--0--0--<>7-<>7-<>7-<>7-0---------<>7---------|--0--0--5-7-5-7---5-7-8---7-8--|
--0--0------------------0-----------------<>7-|--0--0--5-7-5-7-x-5-7-8-x-7-8--|
--0--0------------------0--0----------<>7-----|--0--0--5-7-5-7-x-5-7-8-x-7-8--|


          NH  NH  NH  NH      PM PM PM PM                                     
  E  E    S   S   S   S E  E  S  S  S  S     E  E  S S S S S S S  S S S  S S  
------------------------------------------|----------------------------------|
------------------------------6--------9--|----------------------------------|
--------------------<>7----------7--------|----------------------------------|
--0--0--<>7-------------0--0--------7-----|--3--3--7-5-7-8---7-8-10---7-10---|
--0--0------<>7---------0--0--------------|--3--3--7-5-7-8-x-7-8-10-x-7-10---|
--0--0----------<>7-----0--0--------------|--3--3--7-5-7-8-x-7-8-10-x-7-10---|


          NH  NH  NH  NH      PM PM PM PM                                  
  E  E    S   S   S   S E  E  S  S  S  S     E  E  S S S S S S S S S S E   
------------------------------------------|-------------------------------|
------------------------------6--------5--|-------------------------------|
---------------------------------7--------|-------------------------------|
--0--0--<>7-<>7-<>7-<>7-0--0--------7-----|--0--0--5-7-5-7---5-7-8---7-8--|
--0--0------------------0--0--------------|--0--0--5-7-5-7-x-5-7-8-x-7-8--|
--0--0------------------0--0--------------|--0--0--5-7-5-7-x-5-7-8-x-7-8--|


          NH  NH  NH  NH      PM PM PM PM                                     
  E  E    S   S   S   S E  E  S  S  S  S     E  E  S S S S S S S  S S S  S S  
------------------------------------------|----------------------------------|
------------------------------6--------9--|----------------------------------|
--------------------<>7----------7--------|----------------------------------|
--0--0--<>7-------------0--0--------7-----|--3--3--7-5-7-8---7-8-10---7-10---|
--0--0------<>7---------0--0--------------|--3--3--7-5-7-8-x-7-8-10-x-7-10---|
--0--0----------<>7-----0--0--------------|--3--3--7-5-7-8-x-7-8-10-x-7-10---|


          NH  NH  NH  NH      PM PM PM PM                                  
  E  E    S   S   S   S E  E  S  S  S  S     E  E  S S S S S S S S S S E   
------------------------------------------|-------------------------------|
------------------------------6--------5--|-------------------------------|
---------------------------------7--------|-------------------------------|
--0--0--<>7-<>7-<>7-<>7-0--0--------7-----|--0--0--5-7-5-7---5-7-8---7-8--|
--0--0------------------0--0--------------|--0--0--5-7-5-7-x-5-7-8-x-7-8--|
--0--0------------------0--0--------------|--0--0--5-7-5-7-x-5-7-8-x-7-8--|


          NH  NH  NH  NH      PM PM PM PM                                     
  E  E    S   S   S   S E  E  S  S  S  S     E  E  S S S S S S S  S S S  S S  
----------------<>7-----------------------|----------------------------------|
--------------------<>7-------6--------9--|----------------------------------|
------------<>7------------------7--------|----------------------------------|
--0--0--<>7-------------0--0--------7-----|--3--3--7-5-7-8---7-8-10---7-10---|
--0--0------------------0--0--------------|--3--3--7-5-7-8-x-7-8-10-x-7-10---|
--0--0------------------0--0--------------|--3--3--7-5-7-8-x-7-8-10-x-7-10---|


                     PM            PM         PM PM PM                 
  S S S S S S S S E  S  S Q        S  S S S S S  S  S  E  S S S S S S  
--------------------------------|-------------------------------------|
--------------------------------|-------------------------------------|
--------------------------------|-------------------------------------|
--------------------------5b----|----------------------2--7---6---5---|
--0-7-5-0---5-3-2-0--0----3b----|--0--3-2-0---0--3--0--0----8---8---8-|
--0-7-5-0---5-3-2-0--0----------|--0--3-2-0---0--3--0-----------------|


                     PM               PM                    
  S S S S S S S S E  S  S Q        E  E  E  E  E  E  E  E   
--------------------------------|--------------------------|
--------------------------------|--------------------------|
--------------------------------|--2-----2--2--5--5--5--5--|
--------------------------5b----|--2--2--2--2--5--5--5--5--|
--0-7-5-0---5-3-2-0--0----3b----|--0--0--0--0--3--3--3--3--|
--0-7-5-0---5-3-2-0--0----------|--------------------------|


                     PM            PM         PM PM PM                 
  S S S S S S S S E  S  S Q        S  S S S S S  S  S  E  S S S S S S  
--------------------------------|-------------------------------------|
--------------------------------|-------------------------------------|
--------------------------------|-------------------------------------|
--------------------------5b----|----------------------2--7---6---5---|
--0-7-5-3-0-5-3-2-0--0----3b----|--0--3-2-0---0--3--0--0----8---8---8-|
--0-7-5-3-0-5-3-2-0--0----------|--0--3-2-0---0--3--0-----------------|


                     PM               PM                    
  S S S S S S S S E  S  S Q        E  E  E  E  E  E  E  E   
--------------------------------|--------------------------|
--------------------------------|--------------------------|
--------------------------------|--2-----2--2--5--5--5--5--|
--------------------------5b----|--2--2--2--2--5--5--5--5--|
--0-7-5-3-0-5-3-2-0--0----3b----|--0--0--0--0--3--3--3--3--|
--0-7-5-3-0-5-3-2-0--0----------|--------------------------|


     PM PM PM PM PM                                               PM PM  
  E  E  E  E  E  E  E  E     W                   H        Q    E  S  S   
--------------------------|-------------------|-------------------------|
--------------------------|-------------------|-------------------------|
--------------------------|--5----------------|-------------------------|
--4-----------------7--7--|--5----------------|--2-------------L--------|
--2--2--2--2--2--2--5--5--|--3----------------|--2-------------L--------|
--------------------------|-------------------|--2-------------L--5--5--|


  W                    H        H           W                 
-------------------|---------------------|-------------------|
-------------------|---------------------|-------------------|
-------------------|---------------------|--5----------------|
--7----------------|--10--------9--------|--5----------------|
--7----------------|--10--------9--------|--3----------------|
--7----------------|--10--------9--------|-------------------|


                   PM PM                                             
  H        Q    E  S  S     H        H            H        H         
-------------------------|--------------------|---------------------|
-------------------------|--------------------|---------------------|
-------------------------|--------------------|---------------------|
--2-------------L--------|--7--------9--------|--10--------9--------|
--2-------------L--------|--7--------9--------|--10--------9--------|
--2-------------L--5--5--|--7--------9--------|--10--------9--------|


                                       PM PM                       
  W                   H        Q    E  S  S     H        H         
-------------------|-------------------------|--------------------|
-------------------|-------------------------|--------------------|
--5----------------|-------------------------|--------------------|
--5----------------|--2-------------L--------|--7--------9--------|
--3----------------|--2-------------L--------|--7--------9--------|
-------------------|--2-------------L--5--5--|--7--------9--------|


                                                             PM PM  
   H        H           W                   H        E  Q    S  S   
---------------------|-------------------|-------------------------|
---------------------|-------------------|-------------------------|
---------------------|--5----------------|-------------------------|
--10--------9--------|--5----------------|--2--------L--L----------|
--10--------9--------|--3----------------|--2--------L--L----------|
--10--------9--------|-------------------|--2--------L--L----5--5--|


  H        H            H        H           W                 
--------------------|---------------------|-------------------|
--------------------|---------------------|-------------------|
--------------------|---------------------|-------------------|
--7--------9--------|--10--------9--------|--7----------------|
--7--------9--------|--10--------9--------|--7----------------|
--7--------9--------|--10--------9--------|--7----------------|


-------------------||
-------------------||
-------------------||
-------------------||
-------------------||
-------------------||


****************************************************************************
****************************************************************************
****************************************************************************

Guitar 2



     Q.     E  E  E  E   E     T   T  E.   E  Q    E   Q     
D||-------------------------|-------------------------------|
A||-------------------------|-------------------------------|
F||------------7-----7--10--|--9h-10p-9-------7----8--------|
C||---------7-----7---------|-------------10----------10----|
G||-------------------------|-------------------------------|
C||-------------------------|-------------------------------|


                                                SH     
  Q.     E  E  E  E   E     Q    E   Q     E    Q      
-------------------------|----------------------------|
---------------------10--|--L-------10----11--<>8~----|
------------7-----7------|-------7--------------------|
---------7-----7---------|----------------------------|
-------------------------|----------------------------|
-------------------------|----------------------------|


  Q.     E  E  E  E   E     T   T  E.   E  Q    E   Q     
-------------------------|-------------------------------|
-------------------------|-------------------------------|
------------7-----7--10--|--9h-10p-9-------7----8--------|
---------7-----7---------|-------------10----------10----|
-------------------------|-------------------------------|
-------------------------|-------------------------------|


                                                             SH     
  E  E  E   E  T   T  E.   E  E     E   E  E   S  S E   E    Q      
---------------------------------|---------------------------------|
---------------------------------|---------------------------------|
--7-----7--10--9h-10p-9----------|------------------9--10--<>7\----|
-----7--------------------10--9--|--L------9-----------------------|
---------------------------------|-----10-----10-10----------------|
---------------------------------|---------------------------------|


  E  E  E   E  T   T  E.   E  E     E   E  E  E  Q     Q         
---------------------------------|------------------------------|
---------------------------------|------------------------------|
--7-----7--10--9h-10p-9-------7--|--L------7--9--9b----9pbr~----|
-----7--------------------10-----|-----10-----------------------|
---------------------------------|------------------------------|
---------------------------------|------------------------------|


                                                PM PM        SH     
  E  E  E   E  T   T  E.   E  E      E   E  E   S  S Q       Q      
----------------------------------|--------------------------------|
----------------------------------|--------------------------------|
--7-----7--10--9h-10p-9-----------|------------------9b----<>7\----|
-----7--------------------10--9~--|--L------9----------------------|
----------------------------------|-----10-----10-10---------------|
----------------------------------|--------------------------------|


                                                         W     
  E  E  E   E  T   T  E.   E  E     E   E  E  E  Q       Q     
---------------------------------|----------------------------|
---------------------------------|----------------------------|
--7-----7--10--9h-10p-9-------7--|--L------7--9--9b----<>9----|
-----7--------------------10-----|-----10---------------------|
---------------------------------|----------------------------|
---------------------------------|----------------------------|


                                                PM PM        SH     
  E  E  E   E  T   T  E.   E  E      E   E  E   S  S Q       Q      
----------------------------------|--------------------------------|
----------------------------------|--------------------------------|
--7-----7--10--9h-10p-9-----------|------------------9b----<>7\----|
-----7--------------------10--9~--|--L------9----------------------|
----------------------------------|-----10-----10-10---------------|
----------------------------------|--------------------------------|


     PM PM       PM PM PM PM     PM PM PM PM  
  E  S  S   S  S S  S  S  S  S S S  S  S  S   
-----------10-10-----------------------------|
-----------------------------8-8-------------|
--7--7--7--------7--7--7--7------7--7--7--7--|
---------------------------------------------|
---------------------------------------------|
---------------------------------------------|


        PM PM PM PM     PM PM PM PM            PM                  PM          
   S  S S  S  S  S  S S S  S  S  S    Q        S  S S S S S S S E  S  S Q      
--------------------------------------------|---------------------------------|
--10-10-------------8-8-------------<>8b----|---------------------------------|
--------7--7--7--7------7--7--7--7----------|---------------------------------|
--------------------------------------------|---------------------------5b----|
--------------------------------------------|--0--7-5-0---0-5-3-0--0----3b----|
--------------------------------------------|--0--7-5-0-x-0-5-3-0--0----------|


                                    PM                  PM            
  S S S S S S S S E  S S S S S S    S  S S S S S S S E  S  S S S S S  
---------------------------------|-----------------------------------|
---------------------------------|-----------------------------------|
---------------------7-6-5---5-6-|-----------------------------------|
------------------2--------6-----|---------------------------5-5-5-5-|
--0-3-2-0---0-3-0-0--------------|--0--7-5-0---0-5-3-0--0----3-3-3-3-|
--0-3-2-0---0-3-0----------------|--0--7-5-0-x-0-5-3-0--0------------|


                                             PM                  PM          
  S S S S S S S S  S  S  S  S  S  S  S  S    S  S S S S S S S E  S  S Q      
------------------------------------------|---------------------------------|
------------------------------------------|---------------------------------|
----9-7-9-5-9---9----12----12----12----12-|---------------------------------|
--7-----------7---------10----12----10----|---------------------------5b----|
------------------10----------------------|--0--7-5-0---0-5-3-0--0----3b----|
------------------------------------------|--0--7-5-0-x-0-5-3-0--0----------|


                                    PM                  PM            
  S S S S S S S S E  S S S S S S    S  S S S S S S S E  S  S S S S S  
---------------------------------|-----------------------------------|
---------------------------------|-----------------------------------|
---------------------7-6-5---5-6-|-----------------------------------|
------------------2--------6-----|---------------------------5-5-5-5-|
--0-3-2-0---0-3-0-0--------------|--0--7-5-0---0-5-3-0--0----3-3-3-3-|
--0-3-2-0---0-3-0----------------|--0--7-5-0-x-0-5-3-0--0------------|


  S S S S S S S S  S  S  S  S  S  S  S  S    S S S S S S S S  
------------------------------------------|------------------|
------------------------------------------|----------------5-|
----9-7-9-5-9---9----12----12----12----12-|----------3-5-7---|
--7-----------7---------10----12----10----|--7-3-5-7---------|
------------------10----------------------|------------------|
------------------------------------------|------------------|


  E  E  E   E  T   T  E.   E  E     E   E  E  E  Q       Q       
---------------------------------|------------------------------|
---------------------------------|---------------------<>8\~----|
--7-----7--10--9h-10p-9-------7--|--L------7--9--9b-------------|
-----7--------------------10-----|-----10-----------------------|
---------------------------------|------------------------------|
---------------------------------|------------------------------|


                                                PM PM        SH     
  E  E  E   E  T   T  E.   E  E      E   E  E   S  S Q       Q      
----------------------------------|--------------------------------|
----------------------------------|--------------------------------|
--7-----7--10--9h-10p-9-----------|------------------9b----<>7\----|
-----7--------------------10--9~--|--L------9----------------------|
----------------------------------|-----10-----10-10---------------|
----------------------------------|--------------------------------|


                                                          W     
  E  E  E   E  T   T  E.   E  E     E   E  E  E  Q        Q     
---------------------------------|-----------------------------|
---------------------------------|-----------------------------|
--7-----7--10--9h-10p-9-------7--|--L------7--9--9b----<>10----|
-----7--------------------10-----|-----10----------------------|
---------------------------------|-----------------------------|
---------------------------------|-----------------------------|


                                         PM PM    PM PM        SH     
  E  E  E   E  T   T  E.   E  E      E   S  S E   S  S Q       Q      
----------------------------------|----------------------------------|
----------------------------------|----------------------------------|
--7-----7--10--9h-10p-9-----------|--------------------9b----<>7\----|
-----7--------------------10--9~--|--L--------9----------------------|
----------------------------------|-----10-10----10-10---------------|
----------------------------------|----------------------------------|


                   W                                                 
   E   E   E   E   Q     E   E      E   E   E   E   Q      Q         
---------------------------------|----------------------------------|
---------------------------------|----------------------------------|
--14------14--17--16--------14~--|--L------14--16--16b----16pbr~----|
------14----------------17-------|-----17---------------------------|
---------------------------------|----------------------------------|
---------------------------------|----------------------------------|


   E   E   E   E   Q      E   E      E   E   E    S  S  Q      Q     
----------------------------------|---------------------------------|
----------------------------------|---------------------------------|
--14------14--17--16~-------------|--------------------16b----14----|
------14-----------------17--16~--|--L------16~---------------------|
----------------------------------|-----17-------17-17--------------|
----------------------------------|---------------------------------|


                   W                                                 
   E   E   E   E   Q     E   E      E   E   E   E   Q      Q         
---------------------------------|----------------------------------|
---------------------------------|----------------------------------|
--14------14--17--16--------14~--|--L------14--16--16b----16pbr~----|
------14----------------17-------|-----17---------------------------|
---------------------------------|----------------------------------|
---------------------------------|----------------------------------|


   E   E   E   E   Q      E   E      E   E   E    S  S  Q      Q     
----------------------------------|---------------------------------|
----------------------------------|---------------------------------|
--14------14--17--16~-------------|--------------------16b----14----|
------14-----------------17--16~--|--L------16~---------------------|
----------------------------------|-----17-------17-17--------------|
----------------------------------|---------------------------------|


                     PM     W                                       
  S S S S S S S S E  S  S   Q       S S S S S S S S E  S S S S S S  
---------------------------------|---------------------------------|
--------------------------<>4----|---------------------------------|
---------------------------------|---------------------7-6-5---5-6-|
---------------------------------|------------------2--------6-----|
---------------------------------|--0-3-2-0---0-3-0-0--------------|
--0-7-5-0---0-5-3-0--0-----------|--0-3-2-0---0-3-0----------------|


  PM                  PM                                                       
  S  S S S S S S S E  S  S S S S S    S S S S S S S S  S  S  S  S  S  S  S  S  
-----------------------------------|------------------------------------------|
-----------------------------------|------------------------------------------|
-----------------------------------|----9-7-9-5-9---9----12----12----12----12-|
---------------------------5-5-5-5-|--7-----------7---------10----12----10----|
--0--7-5-0---0-5-3-0--0----3-3-3-3-|------------------10----------------------|
--0--7-5-0-x-0-5-3-0--0------------|------------------------------------------|


                     PM     W                                       
  S S S S S S S S E  S  S   Q       S S S S S S S S E  S S S S S S  
---------------------------------|---------------------------------|
--------------------------<>4----|---------------------------------|
---------------------------------|---------------------7-6-5---5-6-|
---------------------------------|------------------2--------6-----|
---------------------------------|--0-3-2-0---0-3-0-0--------------|
--0-7-5-0---0-5-3-0--0-----------|--0-3-2-0---0-3-0----------------|


  PM                  PM                                                       
  S  S S S S S S S E  S  S S S S S    S S S S S S S S  S  S  S  S  S  S  S  S  
-----------------------------------|------------------------------------------|
-----------------------------------|------------------------------------------|
-----------------------------------|----9-7-9-5-9---9----12----12----12----12-|
---------------------------5-5-5-5-|--7-----------7---------10----12----10----|
--0--7-5-0---0-5-3-0--0----3-3-3-3-|------------------10----------------------|
--0--7-5-0-x-0-5-3-0--0------------|------------------------------------------|


  S  S S  S S  S S  S  S  S  S  S  S  S  S  S  
----------------------------------------------|
----------------------------------------------|
----11-9-11-7-11---11----14----14----14----14-|
--9--------------9----------12----14----12----|
----------------------12----------------------|
----------------------------------------------|


  S S  S  S  S  S  S  S  S  S  S  S S S  S  S  
----------------------------------------------|
----------------------------------------------|
--9-9-------------12-12-------------9-9-12-12-|
------10-10-12-12-------10-10-12-12-----------|
----------------------------------------------|
----------------------------------------------|


  S S S S  S  S  S  S S S  S  S  S  S  S  S  
--------------------------------------------|
--------------------------------------------|
--9-9-----------12-12-----------11-11-12-12-|
------9-9-12-12-------9-9-12-12-------------|
--------------------------------------------|
--------------------------------------------|


  S S  S  S  S  S  S  S  S  S  S  S  S  S  S  S  
------------------------------------------------|
------------------------------------------------|
--9-9-------12-12-14-14-12-12-------------16-16-|
------12-12-------------------14-14-16-16-------|
------------------------------------------------|
------------------------------------------------|


   S  S  S  S  S  S  S  S  S  S  S  S  S  S  S  S  
--------------------------------------------------|
--------------------------------------------------|
--14-14-------------17-17-16-16-------14-14-------|
--------14-14-17-17-------------12-12-------12-12-|
--------------------------------------------------|
--------------------------------------------------|


  S S  S  S  S  S  S  S  S  S  S  S S S  S  S  
----------------------------------------------|
----------------------------------------------|
--9-9-------------12-12-------------9-9-12-12-|
------10-10-12-12-------10-10-12-12-----------|
----------------------------------------------|
----------------------------------------------|


  S S S S  S  S  S  S S S  S  S  S  S  S  S  
--------------------------------------------|
--------------------------------------------|
--9-9-----------12-12-----------11-11-12-12-|
------9-9-12-12-------9-9-12-12-------------|
--------------------------------------------|
--------------------------------------------|


  S S  S  S  S  S  S  S  S  S  S  S  S  S  S  S  
------------------------------------------------|
------------------------------------------------|
--9-9-------12-12-14-14-12-12-------------16-16-|
------12-12-------------------14-14-16-16-------|
------------------------------------------------|
------------------------------------------------|


   S  S  S  S  S  S  S  S  S  S  S  S  S  S  S  S    Q.     E  E  E  E   E   
--------------------------------------------------|-------------------------|
--------------------------------------------------|-------------------------|
--14-14-------------17-17-16-16-------14-14-------|------------9-----9--12--|
--------14-14-17-17-------------12-12-------12-12-|---------9-----9---------|
--------------------------------------------------|-------------------------|
--------------------------------------------------|-------------------------|


   T   T   E.   E  Q     E   Q        Q.     E  E  E  E   E    
-----------------------------------|--------------------------|
-----------------------------------|---------------------12~--|
--11h-12p-11-------9----10---------|------------9-----9-------|
---------------12-----------12~----|---------9-----9----------|
-----------------------------------|--------------------------|
-----------------------------------|--------------------------|


  Q    E   Q     S   S  Q        Q.     E  E  E  E   E   
------------------------------|-------------------------|
--L-------12----12s-13-10~----|-------------------------|
-------9----------------------|------------9-----9--12--|
------------------------------|---------9-----9---------|
------------------------------|-------------------------|
------------------------------|-------------------------|


   T   T   E.   E  Q     E   Q        E  E  E   E   T   T   E.   E   E   
-----------------------------------|------------------------------------|
-----------------------------------|------------------------------------|
--11h-12p-11-------9----10---------|--9-----9--12--11h-12p-11-----------|
---------------12-----------12~----|-----9----------------------12--10--|
-----------------------------------|------------------------------------|
-----------------------------------|------------------------------------|


              PM PM                    PM          PM        
  E   E   E   S  S  E   E  Q        E  E  E  Q     E  E  E   
---------------------------------|--------------------------|
---------------------------------|--------------------------|
-------------------11--12--9~----|--5-----5--7\-------------|
--L------10----------------------|--5--5--5--5--------------|
-----12------12-12---------------|--3--3--3--5--------3--2--|
---------------------------------|-----------------2--3--2--|


      PM PM       PM PM PM PM             PM          PM /0    
  S S S  S  Q     S  S  S  S  Q        E  E  E  Q     E  Q     
------------------------------------|-------------------------|
------------------------------------|-------------------------|
------------7~----------------7~----|--5-----5--7\------------|
------------5-----------------5-----|--5--5--5--5-------------|
----L-------5-----------------5-----|--3--3--3--5--------2----|
----L-2--2--------2--2--2--2--------|-----------------3--2----|


                                             PM      PM       
  S  S S S S S  E   S  S S S S S E     E  E  E  Q    E  Q     
------------------------------------|------------------------|
------------------------------------|------------------------|
--7s-9-9-9-9-9-12--12s-7-7-7-7-7-2--|------------------------|
--7s-9-9-9-9-9-12--12s-7-7-7-7-7-2--|--5--5-----4------------|
--5s-7-7-7-7-7-10--10s-5-5-5-5-5-0--|--3--2--0--2-------2----|
------------------------------------|----------------3--2----|


     PM PM         PM PM PM PM                          PM       
  E  S  S  S S S S S  S  S  S  S S S S    E  E  E  Q    E  Q     
---------------------------------------|------------------------|
-----------8-8-8-8-------------8-8-8-8-|------------------------|
-----------7-7-7-7-------------7-7-7-7-|------------------------|
-----------5-5-5-5-------------5-5-5-5-|--2--2--5--4-------7----|
--L------------------------------------|--0--0--3--2-------7----|
--L--2--2----------2--2--2--2----------|----------------5--7----|


                                      PM        PM PM    PM PM    PM PM  
   E   S  S  S E  S S S S S S E  S    E  S S E  S  S  E  S  S  E  S  S   
-----------------------------------|------------------------------------|
-----------------------------------|------------------------------------|
-----------------------------------|------------------------------------|
---L--12-12-12-7--L-7-9-9-9-9-7--L-|-----5-5-5--------4--------2--------|
---L--10-10-10-5--L-5-7-7-7-7-5--L-|-----5-5-5--------4--------2--------|
---L-------------------------------|--0--5-5-5--4--4--4--2--2--2--0--0--|


  E  E  E  E  E  E  E  E     E  E  S S S S S S S S S S E   
--------------------------|-------------------------------|
--------------------------|-------------------------------|
--------------------------|-------------------------------|
--0--0--------0--0--------|--0--0--5-7-5-7---5-7-8---7-8--|
--0--0--------0--0--------|--0--0--5-7-5-7-x-5-7-8-x-7-8--|
--0--0--------0--0--------|--0--0--5-7-5-7-x-5-7-8-x-7-8--|


  E  E  E  E  E  E  E  E     E  E  S S S S S S S  S S S  S S  
--------------------------|----------------------------------|
--------------------------|----------------------------------|
--------------------------|----------------------------------|
--0--0--------0--0--------|--3--3--7-5-7-8---7-8-10---7-10---|
--0--0--------0--0--------|--3--3--7-5-7-8-x-7-8-10-x-7-10---|
--0--0--------0--0--------|--3--3--7-5-7-8-x-7-8-10-x-7-10---|


  E  E  E  E  E  E  E  E     E  E  S S S S S S S S S S E   
--------------------------|-------------------------------|
--------------------------|-------------------------------|
--------------------------|-------------------------------|
--0--0--------0--0--------|--0--0--5-7-5-7---5-7-8---7-8--|
--0--0--------0--0--------|--0--0--5-7-5-7-x-5-7-8-x-7-8--|
--0--0--------0--0--------|--0--0--5-7-5-7-x-5-7-8-x-7-8--|


  E  E  E  E  E  E  E  E     E  E  S S S S S S S  S S S  S S  
--------------------------|----------------------------------|
--------------------------|----------------------------------|
--------------------------|----------------------------------|
--0--0--------0--0--------|--3--3--7-5-7-8---7-8-10---7-10---|
--0--0--------0--0--------|--3--3--7-5-7-8-x-7-8-10-x-7-10---|
--0--0--------0--0--------|--3--3--7-5-7-8-x-7-8-10-x-7-10---|


  E  E  E  E  E  E  E  E     E  E  S S S S S S S S S S E   
--------------------------|-------------------------------|
--------------------------|-------------------------------|
--------------------------|-------------------------------|
--0--0--------0--0--------|--0--0--5-7-5-7---5-7-8---7-8--|
--0--0--------0--0--------|--0--0--5-7-5-7-x-5-7-8-x-7-8--|
--0--0--------0--0--------|--0--0--5-7-5-7-x-5-7-8-x-7-8--|


  E  E  E  E  E  E  E  E     E  E  S S S S S S S  S S S  S S  
--------------------------|----------------------------------|
--------------------------|----------------------------------|
--------------------------|----------------------------------|
--0--0--------0--0--------|--3--3--7-5-7-8---7-8-10---7-10---|
--0--0--------0--0--------|--3--3--7-5-7-8-x-7-8-10-x-7-10---|
--0--0--------0--0--------|--3--3--7-5-7-8-x-7-8-10-x-7-10---|


                     PM                                            
  S S S S S S S S E  S  S Q        S S S S S S S S E  S S S S S S  
--------------------------------|---------------------------------|
--------------------------------|---------------------------------|
--------------------------------|---------------------7-6-5---5-6-|
--------------------------5b----|------------------2--------6-----|
--0-7-5-0---0-3-2-0--0----3b----|--0-3-2-0---0-3-0-0--------------|
--0-7-5-0---0-3-2-0--0----------|--0-3-2-0---0-3-0----------------|


                     PM               PM                    
  S S S S S S S S E  S  S Q        E  E  E  E  E  E  E  E   
--------------------------------|--------------------------|
--------------------------------|--------------------------|
--------------------------------|--2-----2--2--5--5--5--5--|
--------------------------5b----|--2--2--2--2--5--5--5--5--|
--0-7-5-3-0-5-3-2-0--0----3b----|--0--0--0--0--3--3--3--3--|
--0-7-5-3-0-5-3-2-0--0----------|--------------------------|


                     PM                                            
  S S S S S S S S E  S  S Q        S S S S S S S S E  S S S S S S  
--------------------------------|---------------------------------|
--------------------------------|---------------------------------|
--------------------------------|---------------------7-6-5---5-6-|
--------------------------5b----|------------------2--------6-----|
--0-7-5-3-0-5-3-2-0--0----3b----|--0-3-2-0---0-3-0-0--------------|
--0-7-5-3-0-5-3-2-0--0----------|--0-3-2-0---0-3-0----------------|


                     PM               PM                    
  S S S S S S S S E  S  S Q        E  E  E  E  E  E  E  E   
--------------------------------|--------------------------|
--------------------------------|--------------------------|
--------------------------------|--2-----2--2--5--5--5--5--|
--------------------------5b----|--2--2--2--2--5--5--5--5--|
--0-7-5-3-0-5-3-2-0--0----3b----|--0--0--0--0--3--3--3--3--|
--0-7-5-3-0-5-3-2-0--0----------|--------------------------|


     PM PM PM PM PM                                                       
  E  E  E  E  E  E  E  E     S S  S  S  S  S  S  S  S  S  S  S S S  S  S  
--------------------------|----------------------------------------------|
--------------------------|----------------------------------------------|
--------------------------|--9-9-------------12-12-------------9-9-12-12-|
--4-----------------7--7--|------10-10-12-12-------10-10-12-12-----------|
--2--2--2--2--2--2--5--5--|----------------------------------------------|
--------------------------|----------------------------------------------|


  S S S S  S  S  S  S S S  S  S  S  S  S  S  
--------------------------------------------|
--------------------------------------------|
--9-9-----------12-12-----------11-11-12-12-|
------9-9-12-12-------9-9-12-12-------------|
--------------------------------------------|
--------------------------------------------|


  S S  S  S  S  S  S  S  S  S  S  S  S  S  S  S  
------------------------------------------------|
------------------------------------------------|
--9-9-------12-12-14-14-12-12-------------16-16-|
------12-12-------------------14-14-16-16-------|
------------------------------------------------|
------------------------------------------------|


   S  S  S  S  S  S  S  S  S  S  S  S  S  S  S  S  
--------------------------------------------------|
--------------------------------------------------|
--14-14-------------17-17-16-16-------14-14-------|
--------14-14-17-17-------------12-12-------12-12-|
--------------------------------------------------|
--------------------------------------------------|


  S S  S  S  S  S  S  S  S  S  S  S S S  S  S  
----------------------------------------------|
----------------------------------------------|
--9-9-------------12-12-------------9-9-12-12-|
------10-10-12-12-------10-10-12-12-----------|
----------------------------------------------|
----------------------------------------------|


  S S S S  S  S  S  S S S  S  S  S  S  S  S  
--------------------------------------------|
--------------------------------------------|
--9-9-----------12-12-----------11-11-12-12-|
------9-9-12-12-------9-9-12-12-------------|
--------------------------------------------|
--------------------------------------------|


  S S  S  S  S  S  S  S  S  S  S  S  S  S  S  S  
------------------------------------------------|
------------------------------------------------|
--9-9-------12-12-14-14-12-12-------------16-16-|
------12-12-------------------14-14-16-16-------|
------------------------------------------------|
------------------------------------------------|


   S  S  S  S  S  S  S  S  S  S  S  S  S  S  S  S  
--------------------------------------------------|
--------------------------------------------------|
--14-14-------------17-17-16-16-------14-14-------|
--------14-14-17-17-------------12-12-------12-12-|
--------------------------------------------------|
--------------------------------------------------|


  S S  S  S  S  S  S  S  S  S  S  S S S  S  S  
----------------------------------------------|
----------------------------------------------|
--9-9-------------12-12-------------9-9-12-12-|
------10-10-12-12-------10-10-12-12-----------|
----------------------------------------------|
----------------------------------------------|


  S S S S  S  S  S  S S S  S  S  S  S  S  S  
--------------------------------------------|
--------------------------------------------|
--9-9-----------12-12-----------11-11-12-12-|
------9-9-12-12-------9-9-12-12-------------|
--------------------------------------------|
--------------------------------------------|


  S S  S  S  S  S  S  S  S  S  S  S  S  S  S  S  
------------------------------------------------|
------------------------------------------------|
--9-9-------12-12-14-14-12-12-------------16-16-|
------12-12-------------------14-14-16-16-------|
------------------------------------------------|
------------------------------------------------|


   S  S  S  S  S  S  S  S  S  S  S  S  S  S  S  S  
--------------------------------------------------|
--------------------------------------------------|
--14-14-------------17-17-16-16-------14-14-------|
--------14-14-17-17-------------12-12-------12-12-|
--------------------------------------------------|
--------------------------------------------------|


  S S  S  S  S  S  S  S  S  S  S  S S S  S  S  
----------------------------------------------|
----------------------------------------------|
--9-9-------------12-12-------------9-9-12-12-|
------10-10-12-12-------10-10-12-12-----------|
----------------------------------------------|
----------------------------------------------|


  S S S S  S  S  S  S S S  S  S  S  S  S  S    E   E   E   E   E   E   E   E   
--------------------------------------------|---------------------------------|
--------------------------------------------|---------------------------------|
--9-9-----------12-12-----------11-11-12-12-|--9------12--14--12----------16--|
------9-9-12-12-------9-9-12-12-------------|-----12--------------14--16------|
--------------------------------------------|---------------------------------|
--------------------------------------------|---------------------------------|


   E   E   E   E   E   E   E   E      W                                       
----------------------------------|---------------------|-------------------||
----------------------------------|---------------------|-------------------||
--14----------17--16------14------|--14~----------------|-------------------||
------14--17----------12------12--|---------------------|-------------------||
----------------------------------|---------------------|-------------------||
----------------------------------|---------------------|-------------------||

******************************************************************************
******************************************************************************
******************************************************************************

Lead(solo) Guitar



     E  E  E   H        E     Q     E   Q     E  Q       E  E  E   H        E   
D||------------------------|--------------------------|------------------------|
A||-----------10--------L--|--L-----L--10----11--8----|------------------------|
F||--7-----7---------------|--------------------------|--7-----7--10--------L--|
C||-----7------------------|--------------------------|-----7------------------|
G||------------------------|--------------------------|------------------------|
C||------------------------|--------------------------|------------------------|


  Q    E   Q    E  Q       E  E  E   H        E     Q     E   Q     E  Q     
------------------------|------------------------|--------------------------|
----------------8-------|-----------10--------L--|--L-----L--10----11--8----|
--L----L--10-------9----|--7-----7---------------|--------------------------|
------------------------|-----7------------------|--------------------------|
------------------------|------------------------|--------------------------|
------------------------|------------------------|--------------------------|


   E  E   E  E  Q      E  E      E   E  E  E   E  Q     E                   
------------------------------|----------------------------|-------|-------|
------------------------------|----------------------------|-------|-------|
--10--7--10--7--9~------------|------------9--10--7~----L--|-------|-------|
----------------------10--9~--|--L------9------------------|-------|-------|
------------------------------|--L--10---------------------|-------|-------|
------------------------------|----------------------------|-------|-------|


                                                                \1/      
                                                  H        E    Q    E   
-------|-------|-------|-------|-------|-------|------------------------|
-------|-------|-------|-------|-------|-------|------------------------|
-------|-------|-------|-------|-------|-------|--------------<>7----L--|
-------|-------|-------|-------|-------|-------|--0--------L------------|
-------|-------|-------|-------|-------|-------|--0--------L------------|
-------|-------|-------|-------|-------|-------|--0--------L------------|


  H        E  E    Q                                                      
-------------------------|-------|-------|-------|-------|-------|-------|
-------------------------|-------|-------|-------|-------|-------|-------|
--L--------L-------------|-------|-------|-------|-------|-------|-------|
-------------------------|-------|-------|-------|-------|-------|-------|
-------------------------|-------|-------|-------|-------|-------|-------|
--------------0s--12s----|-------|-------|-------|-------|-------|-------|


-------|-------|-------|-------|-------|-------|-------|-------|-------|-------|
-------|-------|-------|-------|-------|-------|-------|-------|-------|-------|
-------|-------|-------|-------|-------|-------|-------|-------|-------|-------|
-------|-------|-------|-------|-------|-------|-------|-------|-------|-------|
-------|-------|-------|-------|-------|-------|-------|-------|-------|-------|
-------|-------|-------|-------|-------|-------|-------|-------|-------|-------|


          H        Q    E  E     H        Q    Q       H        Q    E  E   
-------|----------------------|---------------------|----------------------|
-------|----------------------|---------------------|----------------------|
-------|--2-------------------|---------------------|--2----------------4--|
-------|--2--------2----L--3--|--L--------5----5----|--2--------2----L--4--|
-------|--0--------2----L--3--|--L--------3----2----|--0--------2----L--2--|
-------|-----------2----L--3--|--L------------------|-----------2----L-----|


  H        Q    Q       H        Q    E  E     H        Q    Q     
---------------------|----------------------|---------------------|
---------------------|----------------------|---------------------|
--L--------4----2----|--2-------------------|---------------------|
--L--------5----3----|--2--------2----L--3--|--L--------5----5----|
--L------------------|--0--------2----L--3--|--L--------3----2----|
---------------------|-----------2----L--3--|--L------------------|


                                 PM PM                                     
  H        Q    E  E     Q    E  S  S  E  E  Q                             
----------------------|---------------------------|-------|-------|-------|
----------------------|---------------------------|-------|-------|-------|
--2----------------4--|--L----L--------4--5--2----|-------|-------|-------|
--2--------2----L--4--|--L----L-------------------|-------|-------|-------|
--0--------2----L--2--|--L----L--2--2-------------|-------|-------|-------|
-----------2----L-----|---------------------------|-------|-------|-------|


-------|-------|-------|-------|-------|-------|-------|-------|-------|-------|
-------|-------|-------|-------|-------|-------|-------|-------|-------|-------|
-------|-------|-------|-------|-------|-------|-------|-------|-------|-------|
-------|-------|-------|-------|-------|-------|-------|-------|-------|-------|
-------|-------|-------|-------|-------|-------|-------|-------|-------|-------|
-------|-------|-------|-------|-------|-------|-------|-------|-------|-------|


                                  E  E  E   H        E   
-------|-------|-------|-------|------------------------|
-------|-------|-------|-------|-----------12--------L--|
-------|-------|-------|-------|--9-----9---------------|
-------|-------|-------|-------|-----9------------------|
-------|-------|-------|-------|------------------------|
-------|-------|-------|-------|------------------------|


  Q    E   Q     E   Q       E  E  E  H        E     Q    E  Q     E  Q     
--------------------------|-----------------------|------------------------|
--L----L--12----13--10----|-----------8--------L--|--L----L--8----10--7----|
--------------------------|--9-----9--------------|------------------------|
--------------------------|-----9-----------------|------------------------|
--------------------------|-----------------------|------------------------|
--------------------------|-----------------------|------------------------|


  E  E  E   H        E     Q    E   Q     E   Q     
------------------------|--------------------------|
-----------12--------L--|--L----L--12----13--10----|
--9-----9---------------|--------------------------|
-----9------------------|--------------------------|
------------------------|--------------------------|
------------------------|--------------------------|


   E  E   E  E   Q     E   E     E   E   E   E   E   E   Q     
------------------------------|-------------------------------|
------------------------------|-------------------------------|
--12--9--12--9----------------|-------------------------------|
----------------12------------|-----14------14--12--14--10----|
----------------------14--12--|--L------12--------------------|
------------------------------|-------------------------------|


      PM             /1                                              
   E  E   E   Q      E   E   E      E    E   E   Q      S  S  Q      
---------------------------------|----------20--19~----24-23-24\----|
---------------------------------|----------------------------------|
------------------------17--16~--|--L-------------------------------|
--10-----10--12\----14-----------|-----/14--------------------------|
------7--------------------------|----------------------------------|
---------------------------------|----------------------------------|


    E   S  S  S  S  Q      S  S  Q      
-------------17-15-17b----17-15--------|
--\13-----13--------------------17~----|
---------------------------------------|
-------14------------------------------|
---------------------------------------|
---------------------------------------|


     |--3--|  |--3--|  |--3--|  3  3  |--3--|  |--3--|  |--3--|  3  3  
  S  S  S  S  S  S  S  S  S  S  S  S. S  S  S  S  S  S  S  S  S  S  S  
-------------15-------17-15----15-19-17-15----------------------------|
--L-17-15-17----17-15-------17-------------19-17-15-------------------|
----------------------------------------------------17-16-14----------|
-------------------------------------------------------------17-16-14-|
----------------------------------------------------------------------|
----------------------------------------------------------------------|


   E    E      E   Q       S  S  S  S  E    
--21b--21pbr--19--19b~----17-13------------|
--------------------------------13---------|
-----------------------------------14-12~--|
-------------------------------------------|
-------------------------------------------|
-------------------------------------------|


   E   S  S  S  S  S  S  S  T   T  S  S  S  S  S  S  
---------------12-----------------------------------|
------------------15-13-12-13p-12-------------------|
---L--12-14-16--------------------14-12-------------|
----------------------------------------15-14-12----|
-------------------------------------------------15-|
----------------------------------------------------|


   S  S  S  S  S  S  S  S  S  S  S  S  S  S  S  S  
--------------------------------------------------|
--------------------------------------------17----|
--------------------19----------16-------16-------|
--14-16-17-14-16-17----16-17-19----17-19-------17-|
--------------------------------------------------|
--------------------------------------------------|


   S  S  S  S  S  S  S  S  S  S  S  S  S  S  S  S  
-----------17----15-17-19-17-19-20-22-19-20-22-24-|
--------17----17----------------------------------|
-----16-------------------------------------------|
--19----------------------------------------------|
--------------------------------------------------|
--------------------------------------------------|


   T  T  T  T  T  T  T  T  T  T  T  T  T  T  T  T  T  T  T  T  T  T  T  T  T  T 
--19-20-22-20-19----------------------------------------------------------------
-----------------22-20-19-20-22-20-19-22-19-17----------------------------------
-----------------------------------------------21-19-17-------17----------------
--------------------------------------------------------21-19----21-19-17-21-19-
--------------------------------------------------------------------------------
--------------------------------------------------------------------------------


   Q                                                                           
--------|-------|-------|-------|-------|-------|-------|-------|-----|-------|
--------|-------|-------|-------|-------|-------|-------|-------|-----|-------|
--------|-------|-------|-------|-------|-------|-------|-------|-----|-------|
--------|-------|-------|-------|-------|-------|-------|-------|-----|-------|
--17----|-------|-------|-------|-------|-------|-------|-------|-----|-------|
--------|-------|-------|-------|-------|-------|-------|-------|-----|-------|


                   H         Q     Q         H         Q     Q       
-------|-------|-------------------------|--------------------------|
-------|-------|--10---------L----12-----|--13---------L------------|
-------|-------|--12b--------L----14b----|--15b--------L----17br----|
-------|-------|-------------------------|--------------------------|
-------|-------|-------------------------|--------------------------|
-------|-------|-------------------------|--------------------------|


   Q      H          Q     
---------20b~--------L----|
--15----------------------|
--17b---------------------|
--------------------------|
--------------------------|
--------------------------|


   T  T  T  T  T  T  T  T  T  T  T  T  T  T  T  T  T  T  T  T  T  T  T  T  T  T 
--------------------------15-12-------17-12-------20-17-------20-17-------15-12-
--13-12-------13-12-------------15-13-------15-13-------20-17-------20-17-------
--------14-12-------14-12-------------------------------------------------------
--------------------------------------------------------------------------------
--------------------------------------------------------------------------------
--------------------------------------------------------------------------------


   S  E     S  S  S  E     E   T  T  T  T  Q      
-----17------------------------------------------|
-----20br-----------20br-------------------------|
--19-------19-19-19-------19-----------17-19\----|
------------------------------17-19-20----19\----|
-------------------------------------------------|
-------------------------------------------------|


    S  S  S  S  S  S  S  S  S  S  S    E     E   S  
---------------------------------------------------|
---------------------------------------------------|
------14----13----12----11----------<>15b--\14~--L-|
--/12----12----12----12----12-10-------------------|
---------------------------------12----------------|
---------------------------------------------------|


   S  S  S  E    S  S  S  S  S  S  S  Q      
----------------------------------12--------|
-------------------------------------13~----|
----------------------14-12-----------------|
--10----10-12~-----12-------12--------------|
-----12---------12-------------12-----------|
--------------------------------------------|


   |--3--|  |---3--|  |--3--|  |--3--|  |--3--|  |--3--|  |--3--|  |--3--|  
   S  S  S  S   S  S  S  S  S  S  S  S  S  S  S  S  S  S  S  S  S  S  S  S  
--15-12--------------------------------------------------------------------|
--------13-13b-13-12-13-12----12-------------------------------------------|
---------------------------14----14-12-14-12----14----12----12-------------|
---------------------------------------------14----14----14----14-12-------|
---------------------------------------------------------------------15-14-|
---------------------------------------------------------------------------|


  T  T T T  T T T  T T T  T T T  T T T  T T T  T T T  T T T  T T  T  T T  T  T  
-------------------------------------------------------------------------------|
--------------------------------------------------------8------8-10----8-10-12-|
----------------------------7------7-9----7-9-10-7-9-10---9-10------10---------|
-------7-9----7-9-10-7-9-10---9-10-----10--------------------------------------|
--8-10-----10------------------------------------------------------------------|
-------------------------------------------------------------------------------|


   W                    W                    W                 
--------------------|--------------------|--------------------|
--13----------------|--12----------------|--10----------------|
--------------------|--------------------|--------------------|
--------------------|--------------------|--------------------|
--------------------|--------------------|--------------------|
--------------------|--------------------|--------------------|


  H        H                                                                 
--------------------|-------|-------|-------|-------|-------|-------|-------|
--L-----------------|-------|-------|-------|-------|-------|-------|-------|
--------------------|-------|-------|-------|-------|-------|-------|-------|
--------------------|-------|-------|-------|-------|-------|-------|-------|
--------------------|-------|-------|-------|-------|-------|-------|-------|
--------------------|-------|-------|-------|-------|-------|-------|-------|


-------|-------|-------|-------|-------|-------|-------||
-------|-------|-------|-------|-------|-------|-------||
-------|-------|-------|-------|-------|-------|-------||
-------|-------|-------|-------|-------|-------|-------||
-------|-------|-------|-------|-------|-------|-------||
-------|-------|-------|-------|-------|-------|-------||




Duration Legend
---------------
W - whole
H - half
Q - quarter
E - 8th
S - 16th
T - 32nd
X - 64th
. - note dotted
|-n-|  - n-tuplets


Tablature Legend
----------------
L - tied note
x - dead note
g - grace note
(n) - ghost note
> - accentuded note
NH - natural harmonic
AH - artificial harmonic
TH - tapped harmonic
SH - semi harmonic
PH - pitch harmonic
h - hammer on
p - pull off
b - bend
br - bendRelease
pb - preBend
pbr - preBendRelease
brb - bendReleaseBend
\n/ - tremolo bar dip
\n - tremolo bar dive
-/n - tremolo bar Release up
/n\ - tremolo bar inverted dip
/n - tremolo bar return
-\n - tremolo bar Release down
S - shift slide
s - legato slide
/ -  slide into from below or out of upwards
\ -  slide into from above or out of downwards
~ - vibrato
W - wide vibrato
tr - trill
TP - tremolo picking
T - tapping
S - slap
P - pop
< - fade in
^ - brush up
v - brush down
comments
print report bad tab
7 comments total. Showing first comments.
0 reply
Blooddawning wrote on April 26 2008, 04:07 pm

Thanks Emad =]

0 reply
metal_devil wrote on May 24 2008, 12:08 am

hey great job witht this tabature man it works really well and really follows the song really well a bit off but great : )

0 reply
Wilkesy1000 wrote on June 26 2008, 10:13 pm

its well done, a bit confusing but still good

I want to post or [tab]
guest
You may want to rate the tab now too:
select rating
Please do not post tabs as comments. Select "correction" instead!