Oops, an error
Loading. Please wait.

Bastards Of Bodom Tab

ver2
ver2

Solo

Whole song

Interactive

More versions @911Tabs.com
12,447 views 18 this week
3 commentsread comments
1 2 3 4 5
excellent!
x 9
Autoscroll
+/-
esc
set tempo
stop
Contributor
Difficulty
Tuning
intermediate
C G C F A D
Hey! There's an official Ultimate Guitar app which is ideal
for learning songs when you're away from computer. Get the app
WARNING: You are trying to view
                                    content from Ultimate-Guitar.com
                                    in an unauthorized application,
                                    which is prohibited.

                                    Please use an official Ultimate
                                    Guitar Tabs application for iPhone,
                                    iPad or Android to access legitimate
                                    chords, guitar, bass, and drum tabs
                                    from Ultimate-Guitar.com database.

                                    Type "ultimate guitar tabs" in Apple
                                    App Store's or Android Market's
                                    search to find the application.
----------------------------------------------------------------------------

                 Bastards Of Bodom - Children Of Bodom

----------------------------------------------------------------------------

Tabbed by: c0bhc


Tuning: CGCFAD

Band: Children Of Bodom
Album: Are You Dead Yet? (2005)
Music: Alexi Laiho and Roope Latvala
Lyrics:  Alexi Laiho and Kimberly Gloss

This is every single note played through the song and is 100& correct
I covered the song and posted it on youtube if you want to see how it is played

http://www.youtube.com/watch?v=HQ6blu7SqZA


  Intro
  0:00 - 0:26

  zig-zag across the CGC strings with the pick for slide
D|-------------------------------------------------------------------------|
A|---------------------------------------------7~--------------------------|
F|---------------------------------------------7~--------------------------|
C|-------------------------------------------------------------------------|
G|---pick-slide->>>>>>>---------0-0-0-0-0----------------------------------|
C|-------------->>>>>>>----3p0--0-0-0-0-0----------------------------------|
                                . . . . .

D|-------------------------------------------------------------------------|
A|-------------------------------------------------------------------------|
F|-------------------------------------------------------------------------|
C|-------------------------------------3---3h5--2---2h3---7---7h8--5---5h7-|
G|--------0-0-0-0-0--3---0-0-0-0-0-0---------------------------------------|
C|---3p0--0-0-0-0-0--3---0-0-0-0-0-0-----0--------0---------0--------0-----|
          . . . . .      . . . . . .     .        .         .        .

D|-------------------------------------------------------------------------|
A|-------------------------------------------------------------------------|
F|------------------------------------8h10-8h10-10h12-10h12-12b14-10h12\---|
C|-------------------------------------------------------------------------|
G|--------0-0-0-0-0--3---0-0-0-0-0-0---------------------------------------|
C|---3p0--0-0-0-0-0--3---0-0-0-0-0-0---------------------------------------|
          . . . . .      . . . . . .

D|-------------------------------------------------------------------------|
A|-------------------------------------------------------------------------|
F|-------------------------------------------------------------------------|
C|-------------------------------------3---3h5--2---2h3---7---7h8--5---5h7-|
G|--------0-0-0-0-0--3---0-0-0-0-0-0---------------------------------------|
C|---3p0--0-0-0-0-0--3---0-0-0-0-0-0-----0--------0---------0--------0-----|
          . . . . .      . . . . . .     .        .         .        .


D|-------------------------------------------------------------------------|
A|-------------------------------------------------------------------------|
F|-------------------------------------------------------------------------|
C|---------------------------------------3-3-3-3---------5-5-5-5-----------|
G|--------0-0-0-0-0--3---0-0-0-0-0-0-----1-1-1-1--3--3---3-3-3-3--5--5-----|
C|---3p0--0-0-0-0-0--3---0-0-0-0-0-0--------------3--3------------5--5-----|
          . . . . .      . . . . . .
  Theme 1st time
  Lead/Keyboards
  0:27 - 0:38

D|----7----------------------------------------------10--------10-----------|
A|------------8---7-------------8----------8h10/12--------10----------------|
F|--------9-----------------7----------9------------------------------------|
C|----------------------9---------------------------------------------------|
G|--------------------------------------------------------------------------|
C|--------------------------------------------------------------------------|

D|----7---------------------------------------------------------------------|
A|------------8---7-------------7---------12--------------------------------|
F|--------9-----------------7-------7/9-------11b12----7--------------------|
C|----------------------9---------------------------------------------------|
G|--------------------------------------------------------------------------|
C|--------------------------------------------------------------------------|

D|----7----------------------------------------------10--------10-----------|
A|------------8---7-------------8----------8h10/12--------10----------------|
F|--------9-----------------7----------9------------------------------------|
C|----------------------9---------------------------------------------------|
G|--------------------------------------------------------------------------|
C|--------------------------------------------------------------------------|

D|-----7-------------------------------------------------------------------|
A|-------------8---7-------------7-----------------------------------------|
F|---------9-----------------7---------------------------------------------|
C|-----------------------9-------------------------------------------------|
G|-------------------------------------------------------------------------|
C|-------------------------------------------------------------------------|


  Rythym
  0:27 - 0:38

D|----------------------------------------------------------------------|
A|----------------------------------------------------------------------|
F|----------------------------------------------------------------------| X2
C|----------4---4-4-5---5-5-5-5---7-----------4---4-4-2---2-2-4-4-4-4---|
G|---0-2-5--2---2-2-3---3-3-3-5---5----0-2-5--2---2-2-0---0-0-2-2-2-2---|
C|---0-2-5-----------------------------0-2-5----------------------------|
     . . .                             . . .
  Verse 1
  0:39 - 0:57

D|-------------------------------------------------------------------------|
A|-------------------------------------------------------------------------|
F|---------------------------------------10--8--10/12-10/12--8--7----------|
C|---7-------8---5---7-----------------------------------------------------|
G|---5-------6---3---5--0-0-0-0-0-0----------------------------------------|
C|------0-0----0---0----0-0-0-0-0-0----------------------------------------|
        . .    .   .    . . . . . .

D|-------------------------------------------------------------------------|
A|-------------------------------------------------------------------------|
F|--------------------------------------14/12-10/12-14/12-10/12--9----10\--|
C|---10------9---8---7---------------------------------------------10------|
G|---8-------7---6---5----0-0-0-0-0-0--------------------------------------|
C|------0-0----0---0------0-0-0-0-0-0--------------------------------------|
        . .    .   .      . . . . . .

D|-------------------------------------------------------------------------|
A|-------------------------------------------------------------------------|
F|---------------------------------------10--8--10/12-10/12--8--7----------|
C|---7-------8---5---7-----------------------------------------------------|
G|---5-------6---3---5--0-0-0-0-0-0----------------------------------------|
C|------0-0----0---0----0-0-0-0-0-0----------------------------------------|
        . .    .   .    . . . . . .


D|-------------------------------------------------------------------------|
A|-------------------------------------------------------------------------|
F|--------------------------------------14/12-10/12-14/12-10/12--9----10\--|
C|---10------9---8---7---------------------------------------------10------|
G|---8-------7---6---5----0-0-0-0-0-0--------------------------------------|
C|------0-0----0---0------0-0-0-0-0-0--------------------------------------|
        . .    .   .      . . . . . .

  Theme 2nd time
  Lead/Keyboards
  0:58 - 1:07

D|----7----------------------------------------------10--------10-----------|
A|------------8---7-------------8----------8h10/12--------10----------------|
F|--------9-----------------7----------9------------------------------------|
C|----------------------9---------------------------------------------------|
G|--------------------------------------------------------------------------|
C|--------------------------------------------------------------------------|


D|----7---------------------------------------------------------------------|
A|------------8---7-------------7---------12--------------------------------|
F|--------9-----------------7-------7/9-------11b12----7--------------------|
C|----------------------9---------------------------------------------------|
G|--------------------------------------------------------------------------|
C|--------------------------------------------------------------------------|


D|----7---------------------------------------------------------14--15--17--|
A|------------8---7-------------8----------8h10/12--13--15--17--------------|
F|--------9-----------------7----------9------------------------------------|
C|----------------------9---------------------------------------------------|
G|--------------------------------------------------------------------------|
C|--------------------------------------------------------------------------|


D|----19------15--14-----------14----------19------------------------------|
A|--------17---------------15-------15/17-------17b19---15~----------------|
F|---------------------16--------------------------------------------------|
C|-------------------------------------------------------------------------|
G|-------------------------------------------------------------------------|
C|-------------------------------------------------------------------------|


  Theme 2nd time
  Rythym
  0:58 - 1:07

D|----------------------------------------------------------------------|
A|----------------------------------------------------------------------|
F|----------------------------------------------------------------------| X2
C|----------4---4-4-5---5-5-5-5---7-----------4---4-4-2---2-2-4-4-4-4---|
G|---0-2-5--2---2-2-3---3-3-3-5---5----0-2-5--2---2-2-0---0-0-2-2-2-2---|
C|---0-2-5-----------------------------0-2-5----------------------------|
     . . .                             . . .
  Verse 2
  1:08 - 1:26

D|-------------------------------------------------------------------------|
A|-------------------------------------------------------------------------|
F|---------------------------------------10--8--10/12-10/12--8--7----------|
C|---7-------8---5---7-----------------------------------------------------|
G|---5-------6---3---5--0-0-0-0-0-0----------------------------------------|
C|------0-0----0---0----0-0-0-0-0-0----------------------------------------|
        . .    .   .    . . . . . .


D|-------------------------------------------------------------------------|
A|-------------------------------------------------------------------------|
F|--------------------------------------14/12-10/12-14/12-10/12--9----10\--|
C|---10------9---8---7---------------------------------------------10------|
G|---8-------7---6---5----0-0-0-0-0-0--------------------------------------|
C|------0-0----0---0------0-0-0-0-0-0--------------------------------------|
        . .    .   .      . . . . . .

D|-------------------------------------------------------------------------|
A|-------------------------------------------------------------------------|
F|--------------------------------------12--10--12/14-12/14--12--11--------|
C|---9--X-X--10--X-5-X-7---------------------------------------------------|
G|---7--X-X--8---X-3-X-5--2-2-2-2-2-2--------------------------------------|
C|------------------------2-2-2-2-2-2--------------------------------------|
                          . . . . . .

D|-------------------------------------------------------------------------|
A|-------------------------------------------------------------------------|
F|---------------------------------------16/14-12/14-16/14-12/14-11----12\-|
C|---12--X-X--11--X-10-X-9------------------------------------------12-----|
G|---10--X-X--9---X-8--X-7--2-2-2-2-2-2------------------------------------|
C|--------------------------2-2-2-2-2-2------------------------------------|
                            . . . . . .
  Chorus
  Rythym (played twice)
  1:27 - 1:46

D|--------------------------------------------------------------------------|
A|--------------------------------------------------------------------------|
F|--------------------------------------------------------------------------|
C|---3-3-3-3----3-3-3-3----3-3-3-3--------------------------5----5----------|
G|---1-1-1-1----1-1-1-1----1-1-1-1----0-0-0-0----3-3-3-3----3----3----------|
C|------------------------------------0-0-0-0----3-3-3-3--------------------|

D|-------------------------------------------------------------------------|
A|-------------------------------------------------------------------------|
F|-------------------------------------------------------------------------|
C|---3-3-3-3----3-3-3-3---------------------------------5----5-------------|
G|---1-1-1-1----1-1-1-1----0-0-0-0----1-1-1-1----3-3----3----3-------------|
C|-------------------------0-0-0-0----1-1-1-1----3-3-----------------------|

  Chorus
  Lead/Keyboards (slightly palm muted)
  1:27 - 1:46

D|------------------------------------8-------------------------------------|
A|--------------------------------------------------------------------------|
F|------9---10--------9---10-----9-10--------7---10--------7---10-------8-9-|
C|-8-10---10--10-8-10---10--10-8--------7-10---10--10-7-10---10--10-7-10----|
G|--------------------------------------------------------------------------|
C|--------------------------------------------------------------------------|

D|--------------------------------------------------------------------------|
A|--------------------------------------------------------------------------|
F|-----9--10-------9--10-------7--10--7---8-12-10-12--10-9-10-10-7-8-10\----|
C|-8-10-10--10-8-10-10--10-7-10-10--10-10-----------10----------------------|
G|--------------------------------------------------------------------------|
C|--------------------------------------------------------------------------|


  1:47 - 1:55

D|---------------------------------------3*--------------------------------|
A|----------------------------------------3*-------------------------------|
F|-----------------------------------------3*------------------------------|
C|---3-3h5-2-2h3-7-7h8-5-5h7----------------3*---3-3-3-3------5-5-5-5------|
G|---------------------------0-0--3--0-0-----3*--1-1-1-1-3-3--3-3-3-3-5-5--|
C|-0-------------------------0-0--3--0-0------3*---------3-3----------5-5--|
   .


  Verse 3
  1:56 - 2:14

D|-------------------------------------------------------------------------|
A|-------------------------------------------------------------------------|
F|---------------------------------------10--8--10/12-10/12--8--7----------|
C|---7-------8---5---7-----------------------------------------------------|
G|---5-------6---3---5--0-0-0-0-0-0----------------------------------------|
C|------0-0----0---0----0-0-0-0-0-0----------------------------------------|
        . .    .   .    . . . . . .

D|-------------------------------------------------------------------------|
A|-------------------------------------------------------------------------|
F|--------------------------------------14/12-10/12-14/12-10/12--9----10\--|
C|---10------9---8---7---------------------------------------------10------|
G|---8-------7---6---5----0-0-0-0-0-0--------------------------------------|
C|------0-0----0---0------0-0-0-0-0-0--------------------------------------|
        . .    .   .      . . . . . .

D|-------------------------------------------------------------------------|
A|-------------------------------------------------------------------------|
F|---------------------------------------10--8--10/12-10/12--8--7----------|
C|---7-------8---5---7-----------------------------------------------------|
G|---5-------6---3---5--0-0-0-0-0-0----------------------------------------|
C|------0-0----0---0----0-0-0-0-0-0----------------------------------------|
        . .    .   .    . . . . . .


D|-------------------------------------------------------------------------|
A|-------------------------------------------------------------------------|
F|--------------------------------------14/12-10/12-14/12-10/12--9----10\--|
C|---10------9---8---7---------------------------------------------10------|
G|---8-------7---6---5----0-0-0-0-0-0--------------------------------------|
C|------0-0----0---0------0-0-0-0-0-0--------------------------------------|
        . .    .   .      . . . . . .


  Breakdown
  2:15 - 2:33

D|--------------------------------------------------------------------------|
A|--------------------------------------------------------------------------|
F|--------------------------------------------------------------------------|
C|--------------------------------------------------------------------------|
G|--------2------2-0------------1---------2------2-0------------------------|
C|--0-2-3-2--0-3------3-2-0-3-2-1---0-2-3-2--0-3-----3-2-0-5-3-2~-----------|

D|--------------------------------------------------------------------------|
A|--------------------------------------------------------------------------|
F|--------------------------------------------------------------------------|
C|--------------------------------------------------------------------------|
G|--------2------2-0------------1---------2------2-0------5-3-2-0-----------|
C|--0-2-3-2--0-3------3-2-0-3-2-1---0-2-3-2--0-3------3-2---------5~--------|

D|-------------------------------------------------------------------------|
A|-------------------------------------------------------------------------|
F|-------------------------------------------------------------------------|
C|-------------------------------------------------------------------------|
G|--0-2-3-2------2-0-----------------0-2-3-2------2-0----------------------|
C|--0-2-3-2--0-3-----3-2-0-3-2-3*----0-2-3-2--0-3-----3-2-0-5-3------------|
             . . . . . . . . .              . . . . . . . . .


D|-------------------------------------------------------------------------|
A|-------------------------------------------------------------------------|
F|-------------------------------------------------------------------------|
C|-------------------------------------------------------------------------|
G|--0-2-3-2------2-0----------------0-2-3-2------2-0------5-3-2-0----------|
C|--0-2-3-2--0-3------3-2-0-3-2--3*-0-2-3-2--0-3------3-2------------------|
             . . . .  . . . . .              . . . .


  Chorus 2
  Rythym (played twice and through solo)
  2:34 - 3:12

D|--------------------------------------------------------------------------|
A|--------------------------------------------------------------------------|
F|--------------------------------------------------------------------------|
C|---3-3-3-3----3-3-3-3----3-3-3-3--------------------------5----5----------|
G|---1-1-1-1----1-1-1-1----1-1-1-1----0-0-0-0----3-3-3-3----3----3----------|
C|------------------------------------0-0-0-0----3-3-3-3--------------------|

D|-------------------------------------------------------------------------|
A|-------------------------------------------------------------------------|
F|-------------------------------------------------------------------------|
C|---3-3-3-3----3-3-3-3---------------------------------5----5-------------|
G|---1-1-1-1----1-1-1-1----0-0-0-0----1-1-1-1----3-3----3----3-------------|
C|-------------------------0-0-0-0----1-1-1-1----3-3-----------------------|

  Chorus
  Lead/Keyboards (slightly palm muted)
  2:34 - 2:52

D|------------------------------------8-------------------------------------|
A|--------------------------------------------------------------------------|
F|------9---10--------9---10-----9-10--------7---10--------7---10-------8-9-|
C|-8-10---10--10-8-10---10--10-8--------7-10---10--10-7-10---10--10-7-10----|
G|--------------------------------------------------------------------------|
C|--------------------------------------------------------------------------|

D|--------------------------------------------------------------------------|
A|--------------------------------------------------------------------------|
F|-----9--10-------9--10-------7--10--7---8-12-10-12--10-9-10-10-7-8--------|
C|-8-10-10--10-8-10-10--10-7-10-10--10-10-----------10----------------------|
G|--------------------------------------------------------------------------|
C|--------------------------------------------------------------------------|

  Solo
  2:53 - 3:13

D|--------------------------------------------------------------------------|
A|--------------------------------------------------------------------------|
F|--10-10-9--10-10-9--10-9--14--14-12--14--14-12--14--14-12-----------------|
C|----8-----8--8--------8-----12---------12---------12----------------------|
G|--------------------------------------------------------------------------|
C|--------------------------------------------------------------------------|

    whammy
    ^    ^    ^      ^       ^       ^      ^        ^       ^
D|--------------------------------------------------------------------------|
A|--------------------------------------------------------------------------|
F|--757--979--10910--121012--141214--151415--171517--191719--201920-20b-----|
C|--------------------------------------------------------------------------|
G|--------------------------------------------------------------------------|
C|--------------------------------------------------------------------------|

D|-10--10--12-13-12-10------------------------------------------------------|
A|-10--10-------------13-12-10-13-12-10--10-12-10-13-10-12-10--10-12-10-----|
F|-------------------------------------13--------------------13-------------|
C|--------------------------------------------------------------------------|
G|--------------------------------------------------------------------------|
C|--------------------------------------------------------------------------|

D|--------------------------------------------------------------------------|
A|--13-12-10-12-------------------------------------------------------------|
F|-------------12*b--12p10------------------------------------17-17-15-15---|
C|------------------------12p10-------------15-15-15-14-14-14---------------|
G|-----------------------------12p10-13\------------------------------------|
C|--------------------------------------------------------------------------|

D|-------------------------17-18-20-17-18-20----|
A|-18-18-16-18-20-16-18-20----------------------|
F|----------------------------------------------|
C|----------------------------------------------|
G|----------------------------------------------|
C|----------------------------------------------|

D|---22-18-20-22-20-18-22-18-20-22-20-18-22-18-20-22-18-20-22-18-20~-------|
A|-------------------------------------------------------------------------|
F|-------------------------------------------------------------------------|
C|-------------------------------------------------------------------------|
G|-------------------------------------------------------------------------|
C|-------------------------------------------------------------------------|

  Outro
  3:14 - 3:29
                       whammy
                    ^ ^ ^ ^ ^ ^ ^
D|-------------------------------------------------------------------------|
A|-------------------------------------------------------------------------|
F|------------------6-6-6-6-6-6-6------------------------------------------|
C|---------------------------------------------------------7\\-------------|
G|-------0-0-0-0-0----------------------------0-0-0-0-0----5\\-------------|
C|---3p0-0-0-0-0-0------------------------3p0-0-0-0-0-0--------------------|
         . . . . .                            . . . . .

| /  slide up
| \  slide down
| h  hammer-on
| p  pull-off
| ~  vibrato
| +  harmonic
| x  Mute note
============================================================================
comments
print report bad tab
3 comments total.
0 reply
Hedbanguh wrote on September 15 2009, 09:38 pm

perfect 5/5

0 reply
metallica2296 wrote on March 1 2010, 06:10 pm

intro is wrong

0 reply
metallica2296 wrote on March 1 2010, 06:13 pm

actually theres mistakes everywere in this song

I want to post or [tab]
guest
You may want to rate the tab now too:
select rating
Please do not post tabs as comments. Select "correction" instead!