Oops, an error
Loading. Please wait.

Bed Of Nails Tab

ver1
ver1

Whole song

More versions @911Tabs.com
7,839 views 12 this week
6 commentsread comments
1 2 3 4 5
not so good
x 4
Autoscroll
+/-
esc
set tempo
stop
Hey! There's an official Ultimate Guitar app which is ideal
for learning songs when you're away from computer. Get the app
WARNING: You are trying to view
                                    content from Ultimate-Guitar.com
                                    in an unauthorized application,
                                    which is prohibited.

                                    Please use an official Ultimate
                                    Guitar Tabs application for iPhone,
                                    iPad or Android to access legitimate
                                    chords, guitar, bass, and drum tabs
                                    from Ultimate-Guitar.com database.

                                    Type "ultimate guitar tabs" in Apple
                                    App Store's or Android Market's
                                    search to find the application.
Band: Children Of Bodom
Song: Bed Of Nails (Alice Cooper's cover)
tabbed by yash


guitar1: alexis- wildchild
guitar2: alexander


intro
guitar1
e------------------------------------------------12s0------------------------|
B------------------------------------------------12s0------------------------|
G------------------------------------------------12s0------------------------|
D--9~~---7~~---5~~----4~~--2~~--5~~--4~~-------------------------------------|
A--9~~---7~~---5~~----4~~--2~~--5----4~~-------------------------------------|
E--7~~---5~~---3~~----2~~--0~~--3----2~~-------------------------------------|

guitar2
e----------------------------------------------------------------------------|
B----------------------------------------------------------------------------|
G----------------------------------------------------------------------------|
D--9~~---7~~---5~~----4~~--2~~--5~~--4~~-------------------------------------|
A--9~~---7~~---5~~----4~~--2~~--5----4~~-------------------------------------|
E--7~~---5~~---3~~----2~~--0~~--3----2~~-------------------------------------|

verse-(when he shouts "oh yeah")
guitar1
e----------------------------------------------------------------------------|
B--10s-----------------------------------------------------------------------|
G--xs------------------------------------------------------------------------|
D--7s------9--------9---------9----9-8-7-5~--5-7-8-9~------------------------|
A----------7--------7---------7----------------------------------------------|
E-----0--0-----0--0-----0--0-------------------------------------------------|
   .  .     .  .     .  .

guitar2
e----------------------------------------------------------------------------|
B----------------------------------------------------------------------------|
G----------------------------------------------------------------------------|
D-------same as guitar1------------------------------------------------------|
A----------------------------------------------------------------------------|
E----------------------------------------------------------------------------|

guitar pick(not sure- too many effects)
guitar1
e-------------15^13^15^13^15^---13-10----------10-15^-10--------15^----------|
B---15^15^15^-------------------------11----11-----------11------------------|
G----------------------------------------10-----------------10---------------|
D----------------------------------------------------------------------------|
A----------------------------------------------------------------------------|
E----------------------------------------------------------------------------|

guitar2
e----------------------------------------------------------------------------|
B----------------------------------------------------------------------------|
G----------------------------------------------------------------------------|
D--------9--------9---------9----9-8-7-5~--5-7-8-9~--------------------------|
A--------7--------7---------7------------------------------------------------|
E--0--0-----0--0-----0--0----------------------------------------------------|

guitar1 (continued)
e--13^^-13-11-10-------------------------------------------------------------|
B----------------13-11-10----------------------------------------------------|
G-------------------------12-11-9--------------------------------------------|
D---------------------------------12-11--------------------------------------|
A----------------------------------------------------------------------------|
E----------------------------------------------------------------------------|

guitar2
e----------------------------------------------------------------------------|
B----------------------------------------------------------------------------|
G----------------------------------------------------------------------------|
D----------------------------------------------------------------------------|
A----------------------------------------------------------------------------|
E----------------------------------------------------------------------------|

verse2(when he starts to sing)
guitar1
e----------------------------------------------------------------------------|
B----------------------------------------------------------------------------|
G--9---9-12-12-9---9---9-12-12-9----7---7-11-11-7---9---9-12-12-9------------|(x2)
D----------------------------------------------------------------------------|
A----------------------------------------------------------------------------|
E----------------------------------------------------------------------------|

guitar2
e----------------------------------------------------------------------------|
B--7---7-10-10-7---7---7-10-10-7----5---5-9-9-5----7----7-10-10-7------------|(x2)
G----------------------------------------------------------------------------|
D----------------------------------------------------------------------------|
A----------------------------------------------------------------------------|
E----------------------------------------------------------------------------|

pre-chorus
guitar1
e-----------------------------------------------------15^--------------------|
B----------------------------------------------------------------------------|
G----------------------------------------------------------------------------|
D--4-4-4-4-4-4-6-6-6-6-7-7-7-7-9-9-9-9---9--9--9--9--------------------------|
A--2-2-2-2-2-2-4-4-4-4-5-5-5-5-7-7-7-7---7--7--7--7--------------------------|
E--.-.---.-.-.---.-.-.---.-.-.---.-.-.---------------------------------------|

guitar2
e----------------------------------------------------------------------------|
B----------------------------------------------------------------------------|
G----------------------------------------------------------------------------|
D--4-4-4-4-4-4-6-6-6-6-7-7-7-7-9-9-9-9---9--9--9--9--------------------------|
A--2-2-2-2-2-2-4-4-4-4-5-5-5-5-7-7-7-7---7--7--7--7--------------------------|
E--.-.---.-.-.---.-.-.---.-.-.---.-.-.---------------------------------------|

guitar1
e----------------------------------------------------------------------------|
B----------------------------------------------------------------------------|
G----------------------------------------------------------------------------|
D--4-4-4-4-4-4-6-6-6-6-7-7-7-7-9-9-9-9---9--9--9--9----------------------9s3-|
A--2-2-2-2-2-2-4-4-4-4-5-5-5-5-7-7-7-7---7--7--7--7----------------------7s1-|
E--.-.---.-.-.---.-.-.---.-.-.---.-.-.---------------------------------------|

guitar2
e----------------------------------------------------------------------------|
B----------------------------------------------------------------------------|
G----------------------------------------------------------------------------|
D--4-4-4-4-4-4-6-6-6-6-7-7-7-7-9-9-9-9---9--9--9--9--------9-10-9-10-9-10----|
A--2-2-2-2-2-2-4-4-4-4-5-5-5-5-7-7-7-7---7--7--7--7--------------------------|
E--.-.---.-.-.---.-.-.---.-.-.---.-.-.---------------------------------------|

chorus
guitar1
e----------------------------------------------------------------------------|
B----------------------------------------------------------------------------|
G----------------------------------------------------------------------------|
D------------------------(7)-------------------------------------------------|
A--9~--5~--7~--9~-----5~--5~---7~~-------------------------------------------|
E--7~--3~--5~--7~-----3~--5~---5~~-------------------------------------------|

guitar2
e----------------------------------------------------------------------------|
B--12~-10~-10-8-10~-10~-10-5-5~--------5~-12~-12~-10~------------------------|
G----------------------------------------------------------------------------|
D----------------------------------------------------------------------------|
A----------------------------------------------------------------------------|
E----------------------------------------------------------------------------|

guitar1
e------------------------------------15^^------------------------------------|
B----------------------------------------------------------------------------|
G----------------------------------------------------------------------------|
D----------------------------------------------------------------------------|
A--9~--5~--7~---9~-----5~~~~~~~~~~~~-----------------------------------------|
E--7~--3~--5~---7~-----3~~~~~~~~~~~~-----------------------------------------|

guitar2
e------------------------------------15^^------------------------------------|
B---14~--17^17^17------------------------------------------------------------|
G----------------------------------------------------------------------------|
D----------------------------------------------------------------------------|
A----------------------------------------------------------------------------|
E----------------------------------------------------------------------------|

riff
guitar1
e--------------19^19^---19^-----15^-1514151412--------17^-1715171514------15--|
B--17^17^17^17^------17^----------------------151312----------------171513----|
G-----------------------------------------------------------------------------|
D-----------------------------------------------------------------------------|
A-----------------------------------------------------------------------------|
E-----------------------------------------------------------------------------|

guitar2
e----------------------------------------------------------------------------|
B----------------------------------------------------------------------------|
G----------------------------------------------------------------------------|
D-----same as verse(when he shouts"oh yeah")---------------------------------|
A----------------------------------------------------------------------------|
E----------------------------------------------------------------------------|

verse3
guitar1
e----------------------------------------------------------------------------|
B----------------------------------------------------------------------------|
G----same as verse 2(when he starts to sing)---------------------------------|
D----------------------------------------------------------------------------|
A----------------------------------------------------------------------------|
E----------------------------------------------------------------------------|

guitar2
e----------------------------------------------------------------------------|
B----------------------------------------------------------------------------|
G----------------------------------------------------------------------------|
D----same as verse 2---(wah wah effect)--------------------------------------|
A----------------------------------------------------------------------------|
E----------------------------------------------------------------------------|


pre-chorus
guitar1
e-----------------------------------------------------12s--------------------|
B----------------------------------------------------------------------------|
G----------------------------------------------------------------------------|
D--4-4-4-4-4-4-6-6-6-6-7-7-7-7-9-9-9-9---9--9--9--9--------------------------|
A--2-2-2-2-2-2-4-4-4-4-5-5-5-5-7-7-7-7---7--7--7--7--------------------------|
E--.-.---.-.-.---.-.-.---.-.-.---.-.-.---------------------------------------|

guitar2
e----------------------------------------------------------------------------|
B----------------------------------------------------------------------------|
G----------------------------------------------------------------------------|
D--4-4-4-4-4-4-6-6-6-6-7-7-7-7-9-9-9-9---9--9--9--9--------------------------|
A--2-2-2-2-2-2-4-4-4-4-5-5-5-5-7-7-7-7---7--7--7--7--------------------------|
E--.-.---.-.-.---.-.-.---.-.-.---.-.-.---------------------------------------|

guitar1
e----------------------------------------------------------------------------|
B----------------------------------------------------------------------------|
G----------------------------------------------------------------------------|
D--4-4-4-4-4-4-6-6-6-6-7-7-7-7-9-9-9-9---9--9--9--9----------------------9s3-|
A--2-2-2-2-2-2-4-4-4-4-5-5-5-5-7-7-7-7---7--7--7--7----------------------7s1-|
E--.-.---.-.-.---.-.-.---.-.-.---.-.-.---------------------------------------|

guitar2
e-----------------------------------------------------------------------------|
B-------------------------------------------------------------------------12--|
G-----------------------------------------------------------------------------|
D--4-4-4-4-4-4-6-6-6-6-7-7-7-7-9-9-9-9---9--9--9--9--------9-10-9-10-9-10-----|
A--2-2-2-2-2-2-4-4-4-4-5-5-5-5-7-7-7-7---7--7--7--7---------------------------|
E--.-.---.-.-.---.-.-.---.-.-.---.-.-.----------------------------------------|

chorus
guitar1
e----------------------------------------------------------------------------|
B----------------------------------------------------------------------------|
G----------------------------------------------------------------------------|
D------------------------(7)-------------------------------------------------|
A--9~--5~--7~--9~-----5~--5~---7~~-------------------------------------------|
E--7~--3~--5~--7~-----3~--5~---5~~-------------------------------------------|

guitar2
e----------------------------------------------------------------------------|
B--12~-10~-10-8-10~-10~-10-5-5~--------5~-12~-12~-10~------------------------|
G----------------------------------------------------------------------------|
D----------------------------------------------------------------------------|
A----------------------------------------------------------------------------|
E----------------------------------------------------------------------------|

guitar1
e----------------------------------------------------------------------------|
B----------------------------------------------------------------------------|
G----------------------------------------------------------------------------|
D----------------------------------------------------------------------------|
A--9~--5~--7~---9~-----5~~~~~~~~~~~~-----------------------------------------|
E--7~--3~--5~---7~-----3~~~~~~~~~~~~-----------------------------------------|

guitar2
e------------------------------------15^^------------------------------------|
B---14~--17^17^17------------------------------------------------------------|
G----------------------------------------------------------------------------|
D----------------------------------------------------------------------------|
A----------------------------------------------------------------------------|
E----------------------------------------------------------------------------|

pre-solo
guitar1
e-------------------12^^-----------------------------------------------------|
B----------15^^--------------------------------------------------------------|
G----------------------------------------------------------------------------|
D--------------------------------9-8-7-5~--5-7-8-9~--------------------------|
A----------------------------------------------------------------------------|
E-----0--0-----0--0-----0--0-------------------------------------------------|
   .  .     .  .     .  .

guitar2
e----------------------------------------------------------------------------|
B----------------------------------------------------------------------------|
G----------------------------------------------------------------------------|
D----------9--------9---------9----9-8-7-5~--5-7-8-9~------------------------|
A----------7--------7---------7----------------------------------------------|
E-----0--0-----0--0-----0--0-------------------------------------------------|
   .  .     .  .     .  .

guitar1
e-------------------12^^-----------------------------12s0--------------------|
B----------15^^--------------------------------------12s0--------------------|
G----------------------------------------------------12s0--------------------|
D--------------------------------9-8-7-5~--5-7-8-9~--------------------------|
A----------------------------------------------------------------------------|
E-----0--0-----0--0-----0--0-------------------------------------------------|
   .  .     .  .     .  .

guitar2
e----------------------------------------------------------------------------|
B----------------------------------------------------------------------------|
G----------------------------------------------------------------------------|
D----------9--------9---------9----9-8-7-5~--5-7-8-9~------------------------|
A----------7--------7---------7----------------------------------------------|
E-----0--0-----0--0-----0--0-------------------------------------------------|

keyboard solo
guitar1
e----------------------------------------------------------------------------|
B----------------------------------------------------------------------------|
G----------------------------------------------------------------------------|
D----same as verse 1(when he shouts"oh yeah")--------------------------------|
A----------------------------------------------------------------------------|
E----------------------------------------------------------------------------|

guitar2
e----------------------------------------------------------------------------|
B----------------------------------------------------------------------------|
G----------------------------------------------------------------------------|
D----same as guitar 1--------------------------------------------------------|
A----------------------------------------------------------------------------|
E----------------------------------------------------------------------------|


guitar solo (ALEXI IS THE FUCKING MAN)
guitar1
e----------------------------------------------------------------------------|
B--------18----------18-------18---------18------(18----------18^~^)---------|
G--17-19----19-17-19----17-19----19-17-19---17-19----19-17-19----------------|
D----------------------------------------------------------------------------|
A----------------------------------------------------------------------------|
E----------------------------------------------------------------------------|
                                            (WAH-WAH IS TURNED ON THIS POINT)
guitar2
e----------------------------------------------------------------------------|
B----------------------------------------------------------------------------|
G----------------------------------------------------------------------------|
D---same as verse 1("oh yeah")-----------------------------------------------|
A----------------------------------------------------------------------------|
E----------------------------------------------------------------------------|

pre-chorus
guitar1
e--------------------------------------------------------15^^----------------|
B----------------------------------------------------------------------------|
G----------------------------------------------------------------------------|
D--4-4-4-4-4-4-6-6-6-6-7-7-7-7-9-9-9-9---9--9--9--9--------------------------|
A--2-2---2-2-2---4-4-4---5-5-5---7-7-7---7--7--7--7--------------------------|
E--.-.---.-.-.---.-.-.---.-.-.---.-.-.---------------------------------------|

guitar2
e----------------------------------------------------------------------------|
B----------------------------------------------------------------------------|
G----------------------------------------------------------------------------|
D--4-4-4-4-4-4-6-6-6-6-7-7-7-7-9-9-9-9---9--9--9--9--------------------------|
A--2-2-2-2-2-2-4-4-4-4-5-5-5-5-7-7-7-7---7--7--7--7--------------------------|
E--.-.---.-.-.---.-.-.---.-.-.---.-.-.---------------------------------------|

guitar1
e----------------------------------------------------------------------------|
B----------------------------------------------------------------------------|
G----------------------------------------------------------------------------|
D--4-4-4-4-4-4-6-6-6-6-7-7-7-7-9-9-9-9---9--9--9--9-------------------9s-----|
A--2-2---2-2-2---4-4-4---5-5-5---7-7-7---7--7--7--7-------------------7s-----|
E--.-.---.-.-.---.-.-.---.-.-.---.-.-.---------------------------------------|

guitar2
e----------------------------------------------------------------------------|
B----------------------------------------------------------------------------|
G----------------------------------------------------------------------------|
D--4-4-4-4-4-4-6-6-6-6-7-7-7-7-9-9-9-9---9--9--9--9--------9-10-9-10-9-10----|
A--2-2-2-2-2-2-4-4-4-4-5-5-5-5-7-7-7-7---7--7--7--7--------------------------|
E--.-.---.-.-.---.-.-.---.-.-.---.-.-.---------------------------------------|

chorus
guitar1
e----------------------------------------------------------------------------|
B----------------------------------------------------------------------------|
G----------------------------------------------------------------------------|
D------------------------(7)-------------------------------------------------|
A--9~--5~--7~--9~-----5~--5~---7~~-------------------------------------------|
E--7~--3~--5~--7~-----3~--5~---5~~-------------------------------------------|
played with flanger effect

guitar2
e----------------------------------------------------------------------------|
B--no guitar-----------------------------------------------------------------|
G----------------------------------------------------------------------------|
D----------------------------------------------------------------------------|
A----------------------------------------------------------------------------|
E----------------------------------------------------------------------------|

guitar1
e----------------------------------------------------------------------------|
B----------------------------------------------------------------------------|
G----------------------------------------------------------------------------|
D----------------------------------------------------------------------------|
A--9~--5~--7~---9~-----5~~~~~~~~~~~~--------------7-4-7-4-7-4----------------|
E--7~--3~--5~---7~-----3~~~~~~~~~~~~-----------------------------------------|

guitar2
e------------------------------------15^^------------------------------------|
B---14~--17^17^17------------------------------------------------------------|
G----------------------------------------------------------------------------|
D----------------------------------------------------------------------------|
A----------------------------------------------------------------------------|
E----------------------------------------------------------------------------|

chorus
guitar1
e----------------------------------------------------------------------------|
B----------------------------------------------------------------------------|
G----------------------------------------------------------------------------|
D------------------------(7)-------------------------------------------------|
A--9~--5~--7~--9~-----5~--5~---7~~-------------------------------------------|
E--7~--3~--5~--7~-----3~--5~---5~~-------------------------------------------|

guitar2
e----------------------------------------------------------------------------|
B--12~-10~-10-8-10~-10~-10-5-5~--------5~-12~-12~-10~------------------------|
G----------------------------------------------------------------------------|
D----------------------------------------------------------------------------|
A----------------------------------------------------------------------------|
E----------------------------------------------------------------------------|

guitar1
e-----------------------------------------------------------------2s11-------|
B----------------------------------------------------------------------------|
G----------------------------------------------------------------------------|
D----------------------------------------------------------------------------|
A--9~--5~--7~---9~-----5~~~~~~~~~~~~----------------7-4-7-4-7-4--------------|
E--7~--3~--5~---7~-----3~~~~~~~~~~~~-----------------------------------------|

guitar2
e------------------------------------15^^------------------------------------|
B---14~--17^17^17------------------------------------------------------------|
G----------------------------------------------------------------------------|
D----------------------------------------------------------------------------|
A----------------------------------------------------------------------------|
E----------------------------------------------------------------------------|

last part
guitar1
e----------------------------------------------------------------------------|
B----------------------------------------------------------------------------|
G----------------------------------------------------------------------------|
D-------9-9------9--9----5-7-8-9---------------------------------------------|
A-------7-7------7--7--------------------------------------------------------|
E---0-0------00--------------------------------------------------------------|

guitar2
e----------------------------------------------------------------------------|
B----------------------------------------------------------------------------|
G----------------------------------------------------------------------------|
D-----same as guitar1--------------------------------------------------------|
A----------------------------------------------------------------------------|
E----------------------------------------------------------------------------|

ending
guitar1
e----------------------------------------------------------------------------|
B----------------------------------------------------------------------------|
G----------------------------------------------------------------------------|
D----------------------------7777--------------------------------------------|
A--9999-5555-7777-9999--5555------7777---------------------------------------|
E----------------------------------------------------------------------------|

guitar2
e----------------------------------------------------------------------------|
B----------------------------8888--------------------------------------------|
G--9999-5555-7777-9999--5555------7777---------------------------------------|
D----------------------------------------------------------------------------|
A----------------------------------------------------------------------------|
E----------------------------------------------------------------------------|

guitar1
e----------------------------------------------------------------------------|
B----------------------------------------------------------------12s---------|
G----------------------------------------------------------------------------|
D----------------------------7777--------------------------------------------|
A--9999-5555-7777-9999--5555------7777---------------------------------------|
E----------------------------------------------------------------------------|

guitar2
e----------------------------------------------------------------------------|
B----------------------------8888--------------------------------------------|
G--9999-5555-7777-9999--5555------7777---------------------------------------|
D----------------------------------------------------------------------------|
A----------------------------------------------------------------------------|
E----------------------------------------------------------------------------|

guitar1
e----------------------------------------------------------------------------|
B----------------------------------------------------------------------------|
G----------------------------------------------------------------------------|
D------------------------(7)-------------------------------------------------|
A--9~--5~--7~--9~-----5~--5~---7~~-------------------------------------------|
E--7~--3~--5~--7~-----3~--5~---5~~-------------------------------------------|

guitar2
guitar1
e----------------------------------------------------------------------------|
B----------------------------------------------------------------------------|
G----------------------------------------------------------------------------|
D------------------------(7)-------------------------------------------------|
A--9~--5~--7~--9~-----5~--5~---7~~-------------------------------------------|
E--7~--3~--5~--7~-----3~--5~---5~~-------------------------------------------|

guitar1
e----------------------------------------------------------------------------|
B----------------------------------------------------------------------------|
G----------------------------------------------------------------------------|
D----------------------------------------------------------------------------|
A--9~--5~--7~---9~-----5~~~~~~~~~~~~-----------------------------------------|
E--7~--3~--5~---7~-----3~~~~~~~~~~~~-----------------------------------------|

guitar2
e----------------------------------------------------------------------------|
B----------------------------------------------------------------------------|
G----------------------------------------------------------------------------|
D----------------------------------------------------------------------------|
A--9~--5~--7~---9~-----5~~~~~~~~~~~~-----------------------------------------|
E--7~--3~--5~---7~-----3~~~~~~~~~~~~-----------------------------------------|


guitar1
e----------------------------------------------------------------------------|
B----------------------------------------------------------------------------|
G----------------------------------------------------------------------------|
D----------------------------------------------------------------------------|
A----9----9--------9---------------------------------------------------------|
E----7----7--------7---------------------------------------------------------|

guitar2
e----------------------------------------------------------------------------|
B----------------------------------------------------------------------------|
G----------------------------------------------------------------------------|
D-----same as guitar1--------------------------------------------------------|
A----------------------------------------------------------------------------|
E----------------------------------------------------------------------------|


very cool song and a fuckin good tab. so please rate.
comments
print report bad tab
6 comments total. Showing first comments.
0 reply
metal_man696 wrote on April 20 2006, 07:30 pm

yea um for the record its Alexi not Alexis. god damn man.

0 reply
youllcallmedadd wrote on October 19 2006, 05:11 pm

sorry bro, try again.

0 reply
youllcallmedadd wrote on October 19 2006, 05:13 pm

its missing a lot! and there are a lot of single notes where you should have chords.

I want to post or [tab]
guest
You may want to rate the tab now too:
select rating
Please do not post tabs as comments. Select "correction" instead!