Oops, an error
Loading. Please wait.

Bed Of Razors Tab

ver3
ver3
More versions @911Tabs.com
11,739 views 10 this week
4 commentsread comments
1 2 3 4 5
excellent!
x 6
Autoscroll
+/-
esc
set tempo
stop
Contributor
Hey! There's an official Ultimate Guitar app which is ideal
for learning songs when you're away from computer. Get the app
WARNING: You are trying to view
                                    content from Ultimate-Guitar.com
                                    in an unauthorized application,
                                    which is prohibited.

                                    Please use an official Ultimate
                                    Guitar Tabs application for iPhone,
                                    iPad or Android to access legitimate
                                    chords, guitar, bass, and drum tabs
                                    from Ultimate-Guitar.com database.

                                    Type "ultimate guitar tabs" in Apple
                                    App Store's or Android Market's
                                    search to find the application.
Riff 1 guitar 1
|-----------------------------------------------------10----------------|
|-12---------------11---------------12-------10-12-13----13-12-10-------|
|----12-11-9-11-12----12-11-9-11-12----12-11----------------------12-11-|
|-----------------------------------------------------------------------|
|-----------------------------------------------------------------------|
|-----------------------------------------------------------------------|
|                                                                       |
|      guitar 2                                                         |
|-----------------------------------------------------------------------|
|-----------------------------------------------------------------------|
|-----------------------------------------------------------------------|
|------------------3----------------------------------5--------7--------|
|-2----------------1----------------2-----------------3--------5--------|
|-0---------------------------------0-----------------------------------|
  x                x                x


Riff 2 guitar 1
|-----------------------------------------------------10----------------|
|-12---------------11---------------12-------10-12-13----13-12-10-------|
|----12-11-9-11-12----12-11-9-11-12----12-11----------------------12-11-|
|-----------------------------------------------------------------------|
|-----------------------------------------------------------------------|
|-----------------------------------------------------------------------|
|
|      guitar 2
|-----------------------------------------------------------------------|
|-----------------------------------------------------------------------|
|-----------------------------------------------------------------------|
|------------------3---3---3---3----------------------5--------7--------|
|-2---2---2---2----1---1---1---1----2---2---2---2-----3--------5--------|
|-0---0---0---0---------------------0---0---0---0-----------------------|
  x   .   .   .    x   .   .   .    x   .   .   .


Riff 3 guitar 1
|\-----------\----------------------/----------|
|-\----------4\------------------ah/-----------|
|-0\-----------\-----------------3/------------|
|----------------------------------------------|
|----------------------------------------------|
|----------------------------------------------|
|dive w/bar  dive with bar       raise w/bar
|      guitar 2
|----------------------------------------------|
|----------------------------------------------|
|----------------------------------------------|
|----------------------------------------------|
|-2--------------------------------------------|
|-0--------------------------------------------|



Riff 4 guitar 1
|-----------------------------------------------------10----------------|
|-12---------------11---------------12-------10-12-13----13-12-10-------|
|----12-11-9-11-12----12-11-9-11-12----12-11----------------------12-11-|
|-----------------------------------------------------------------------|
|-----------------------------------------------------------------------|
|-----------------------------------------------------------------------|
|
|      guitar 2                                                          3x
|-----------------------------------------------------------------------|
|-----------------------------------------------------------------------|
|-4----------------6----------------4-----------------------------------|
|-2----------------4----------------2-----------------5--------7--------|
|-----------------------------------------------------3--------5--------|
|-----------------------------------------------------------------------|


Riff 5 guitar 1
|-----------------------------------|
|-12---------------11---------------|
|----12-11-9-11-12----12-11-9-11-12-|
|-----------------------------------|
|-----------------------------------|
|-----------------------------------|
|
|      guitar 2
|-----------------------------------|
|-----------------------------------|
|-4----------------6----------------|
|-2----------------4----------------|
|-----------------------------------|
|-----------------------------------|

       guitar 1
|-15------------14p13-----------------12---------------------------|
|---14-------13-------12-----------11------------------------------|
|-----15-----------------13------------------------------12-14-15~-|
|-------16------------------14------------------------12-----------|
|---------15-------------------13------------10-12-13--------------|
|------------------------------------------------------------------|
|
|
|      guitar 2
|-12------------11p10-----------------9----------------------------|
|---11-------10-------9------------8-------------------------------|
|-----12-----------------10------------------------------9-10-12~--|
|-------13------------------11------------------------9------------|
|---------12-------------------8-------------7--9--10--------------|
|------------------------------------------------------------------|



Riff 6 guitar 1
|---------------------------------------|-------|
|---------------------------------------|-------|
|---------------------------------------|-------|
|-------10---9-------7---9-------10---9-|-77777-|
|-------8----7-------5---7-------8----7-|-55555-|
|-0-0-0----0---0-0-0---0---0-0-0----0---|-------|
| . . .    .   . . .   .   . . .    .
|
|      guitar 2
|---------------------------------------|-------|
|---------------------------------------|-------|
|---------------------------------------|-22222-|
|---------------------------------------|-00000-|
|-2-2-2-2--2-2-2-2-2-2-2-2-2-2-2-2--2-2-|-------|
|-0-0-0-0--0-0-0-0-0-0-0-0-0-0-0-0--0-0-|-------|
  . . . .  . . . . . . . . . . . .  . .
Riff 7 guitar 1
|---------------------------------------|-----------|
|---------------------------------------|-----------|
|---------------------------------------|-----------|
|-------10---9-------7---9-------10---9-|-7-9-10-9~-|
|-------8----7-------5---7-------8----7-|-----------|
|-0-0-0----0---0-0-0---0---0-0-0----0---|-----------|
| . . .    .   . . .   .   . . .    .     . . .
|
|      guitar 2
|---------------------------------------|-----------|
|---------------------------------------|-----------|
|---------------------------------------|-----------|
|---------------------------------------|-----------|
|-2-2-2-2--2-2-2-2-2-2-2-2-2-2-2-2--2-2-|-----------|
|-0-0-0-0--0-0-0-0-0-0-0-0-0-0-0-0--0-0-|-5-7-8--7~-|
  . . . .  . . . . . . . . . . . .  . .   . . .

Riff 8 guitar 1
|-8----7----------------------------------|
|-----------10----7p8----7----------------|
|-----------------------------9----8------|
|--------------------------------------/9-|
|-----------------------------------------|
|-----------------------------------------|
|
|      guitar 2
|-----------------------------------------|
|-----------------------------------------|
|-----------------------------------------|
|-----------------------------------------|
|-3-3-3-3-3-3-3-3-3-------------2-2-2-2-2-|
|-------------------2-2-2-2-2-2-----------|
  . . . . . . . . . . . . . . . . . . . .

Repeat
riff 6

Riff 9
|---------------------------------------|-------|
|---------------------------------------|-------|
|---------------------------------------|-------|
|-------10---9-------7---9-------10---9-|-----4-|
|-------8----7-------5---7-------8----7-|-0-2-2-|
|-0-0-0----0---0-0-0---0---0-0-0----0---|-------|
| . . .    .   . . .   .   . . .    .     . . x
|
|      guitar 2
|---------------------------------------|-------|
|---------------------------------------|-------|
|---------------------------------------|-------|
|---------------------------------------|-----4-|
|-2-2-2-2--2-2-2-2-2-2-2-2-2-2-2-2--2-2-|-0-2-2-|
|-0-0-0-0--0-0-0-0-0-0-0-0-0-0-0-0--0-0-|-------|
  . . . .  . . . . . . . . . . . .  . .   . . x

Repeat
Riff 4 3x


Riff 10
|--------------------------------------------12-------15-14~-|
|-12---------------11---------------12-13-15----15-13--------|
|----12-11-9-11-12----12-11-9-11-12--------------------------|
|------------------------------------------------------------|
|------------------------------------------------------------|
|------------------------------------------------------------|
|
|      guitar 2
|------------------------------------------------------------|
|--------------------------------------------14-------13-----|
|-4----------------6----------------12-14-16----16-14----15~-|
|-2----------------4-----------------------------------------|
|------------------------------------------------------------|
|------------------------------------------------------------|

Riff 11 both guitars
|------------------------------------------------|
|------------------------------------------------|
|------------------------------------------------|
|-9---------9---------5----7---------5--9--7-----|
|-7----9----7----9----3----5----5-------------9~-|
|------7---------7--------------3----------------|
                                     .  .  .

Riff 12 guitar 1
|----------------------------------------|
|----------------------------------------|
|--9-/9--11-12-11------9-/9--11-12-11----|
|-----------------12------------------12-|
|----------------------------------------|
|----------------------------------------|
|
|      guitar 2
|----------------------------------------|
|----------------------------------------|
|----------------------------------------|
|-9----(9)--------------9----(9)---------|
|-7----(7)----9---(9)---7----(7)----9----|
|-------------7---(7)---------------7----|



       guitar 1
|-----------------------------------|
|--------------------11-12----------|
|-9---11-12-11---12--------12-9-11~-|
|-----------------------------------|
|-----------------------------------|
|-----------------------------------|
|
|      guitar 2
|-----------------------------------|
|-----------------------------------|
|-----------------------------------|
|-5---(5)---7--(7)-------------7----|
|-3---(3)---5--(5)--5---(5)----5----|
|-------------------3---(3)---------|


Riff 13 both guitars
|---------------------------------|
|---------------------------------|
|---------------------------------|
|-9---------9-------------------7-|
|-7----9----7----9----5----7----5-|
|------7---------7----3----5------|

Riff 14 guitar 1
|----------------------------------------|
|----------------------------------------|
|--9-/9--11-12-11------9-/9--11-12-11----|
|-----------------12------------------12-|
|----------------------------------------|
|----------------------------------------|
|
|      guitar 2
|----------------------------------------|
|----------------------------------------|
|----------------------------------------|
|-9----(9)----------------9--(9)---------|
|-7----(7)------9---(9)---7--(7)-----9---|
|---------------7---(7)--------------7---|


       guitar 1
|-----------------------------------|
|-----------------------------------|
|-------------------9-11--9---------|
|-/9--11-12-11---12---------12-/11~-|
|-----------------------------------|
|-----------------------------------|
|
|      guitar 2
|-----------------------------------|
|-----------------------------------|
|-----------------------------------|
|---------------------7--(7)--------|
|-5--(5)----7--(7)----5--(5)--------|
|-3--(3)----5--(5)------------------|


Riff 15 guitar 1
|-------------------------------------|
|-------------------------------------|
|--9-/9--11-12-11------9-/9--11-12-11-|
|-----------------12------------------|
|-------------------------------------|
|-------------------------------------|
|
|       guitar 2
|------------------------------------|
|------------------------------------|
|------------------------------------|
|-9----(9)----------------9--(9)-----|
|-7----(7)------9---(9)---7--(7)-9---|
|---------------7---(7)----------7---|


        guitar 1
|--------------------------12-14---17-15-14-----|
|----10-12---14-15-14---15------------------17--|
|-12--------------------------------------------|
|-----------------------------------------------|
|-----------------------------------------------|
|-----------------------------------------------|
|
|       guitar 2
|-----------------------------------------------|
|-----------------------------------------------|
|-----------------------------------------------|
|--------------------------7---(7)--------------|
|-5---(5)-------7---(7)----5---(5)-----7--------|
|-3---(3)-------5---(5)----------------5--------|


Riff 16 guitar 1
|-/12-12--14-15-14------/12-12--14-15-14----|
|------------------15--------------------15-|
|-------------------------------------------|
|-------------------------------------------|
|-------------------------------------------|
|-------------------------------------------|
|
|       guitar 2
|-------------------------------------------|
|-------------------------------------------|
|-------------------------------------------|
|-9----(9)-------------------9--(9)---------|
|-7----(7)------9----(9)-----7--(7)-----9---|
|---------------7----(7)----------------7---|


Riff 17 guitar 1
|-14-15-17-19-17-15-17-15----15-|
|-------------------------19----|
|-------------------------------|
|-------------------------------|
|-------------------------------|
|-------------------------------|
|
|       guitar 2
|-------------------------------|
|-------------------------------|
|-------------------------------|
|----------------7--------------|
|--5-------------5--------------|
|--3----------------------------|


        guitar 1
|--------------------------------------------------|
|-19-17----17-19-17-15-----------------------------|
|-------16-------------16-14----14-16--------------|
|----------------------------17-------14-14-14-14--|
|--------------------------------------------------|
|--------------------------------------------------|
|                                     .  .  .
|
|--------------------------------------------------|
|--------------------------------------------------|
|--------------------------------------------------|
|-9----------7-----------5---7-----------------9---|
|-7----------5-----------3---5--------7--7--7--7---|
|-------------------------------------0--0--0------|
                                      .  .  .

Repeat
Riff 16
Riff 17


Riff 18
|---------------------------------------|-------|
|---------------------------------------|-------|
|---------------------------------------|-------|
|-------10---9-------7---9-------10---9-|-77777-|
|-------8----7-------5---7-------8----7-|-55555-|
|-0-0-0----0---0-0-0---0---0-0-0----0---|-------|
| . . .    .   . . .   .   . . .    .
|
|      guitar 2
|---------------------------------------|-------|
|---------------------------------------|-------|
|---------------------------------------|-22222-|
|---------------------------------------|-00000-|
|---------------------------------------|-------|
|---------------------------------------|-------|

Repeat
Riff 6 2x
Riff 7
Riff 8
riff 6 2x

Riff 19 both guitars (under the keyboard)
|--------------------------------------------------|
|--------------------------------------------------|
|--------------------------------------------------|
|-------------2-2-2-2-2-2--------------------------|4x
|-3-3-3-3-3-3-------------------------2-2-2-2-2-2--|
|-------------------------3-3-3-3-3-3--------------|
  . . . . . . . . . . . . . . . . . . . . . . . .

Alexi after keyboard sweeps
|-------------------19----------------------------14----------|
|-------------17-20----20-------------------12-15----15-12----|
|----------17-------------21-------------12----------------11-|
|-------17-------------------21-------12----------------------|
|----19----------------------------14-------------------------|
|-20----------------------------15----------------------------|


|-------------------19----------|
|-------------17-20----20-------|
|----------17-------------21----|
|-------17-------------------21-|
|----19-------------------------|
|-20----------------------------|

The solo
 guitar 1
|--------------------------------------------------------|
|-------15-------15-------------------16-16~-------------|
|-14-16----16-16----16-16-16-15-15-14--------------------|
|--------------------------------------------------------|
|--------------------------------------------------------|
|--------------------------------------------------------|
|
|guitar 2
|--------------------------------------------------------|
|--------------------------------------------------------|
|---------------4----------------------------------------|
|-5-------------2---------------------------4------------|
|-3---------------------------5-------------2------------|
|-----------------------------3--------------------------|


 guitar 1
|-15-14----------14-15-14----19-17----20-19-17--------------|
|-------17-15-17----------17-------20----------20-19-17-19~-|
|-----------------------------------------------------------|
|-----------------------------------------------------------|
|-----------------------------------------------------------|
|-----------------------------------------------------------|
|
|guitar 2
|-----------------------------------------------------------|
|-----------------------------------------------------------|
|---------------4-------------------------------------------|
|-5-------------2---------------------------4---------------|
|-3---------------------------5-------------2---------------|
|-----------------------------3-----------------------------|


 guitar 1
|----------19----------22-20-19-20----19-20-22-24-22-20-19-22----19-------|
|-17-19-20----20-19-20-------------22-------------------------19-------19-|
|-------------------------------------------------------------------19----|
|-------------------------------------------------------------------------|
|-------------------------------------------------------------------------|
|-------------------------------------------------------------------------|
|
|guitar 2
|-------------------------------------------------------------------------|
|-------------------------------------------------------------------------|
|---------------4---------------------------------------------------------|
|-5-------------2---------------------------4-----------------------------|
|-3---------------------------5-------------2-----------------------------|
|-----------------------------3-------------------------------------------|


 guitar 1
|-19-24----19----------------------------------19-15---------------------------|
|-------20-------20----------------------17----------17------------------------|
|-------------21----16-21----16-------16----16----------16-------14------------|
|-------------------------17-------17----------------------17-14----17-16-14-\-|
|-------------------------------19---------------------------------------------|
|------------------------------------------------------------------------------|
|
|
|------------------------------------------------------------------------------|
|------------------------------------------------------------------------------|
|-------------------4----------------------------------------------------------|
|-5-----------------2----------------------------------------------------------|
|-3--------------------------------------2-------------------------------------|
|----------------------------------------0-------------------------------------|
                                         x

Rhythm under Keyboard solo solo. Both guitars
|-----------------------------------------------------------------------|
|-----------------------------------------------------------------------|
|-----------------------------------------------------------5-----------|
|-2-2-2-2-2-2-2-2-2-2-2-2-----------------------2-2-2-2-2-2---2-2-2-2-2-|
|-------------------------------------5-5-5-5-5-------------------------|
|-------------------------3-3-3-3-3-3-----------------------------------|
  . . . . . . . . . . . . . . . . . . . . . . . . . . . . . . . . . . .

|-------------------------------------------------------------------------|
|-------------------------------------------------------------------------|
|-------------------------------------------------------------------------|
|-5-5-5-5-5-5-0-0-0-0-0-0-2-2-2-2-2-2-2-2-2-2-2-2-------------------------|
|-------------------------------------------------------------5-5-5-5-5-5-|
|-------------------------------------------------3-3-3-3-3-3-------------|
  . . . . . . . . . . . . . . . . . . . . . . . . . . . . . . . . . . . .

|----------------------------|
|----------------------------|
|----------------------------|
|-2-2-2-2-2-2-2-2-2-2-2------|
|-----------------------2----|
|-----------------------0----|
  . . . . . . . . . . . x

Repeat
Riff 11
Riff 12
Riff 13
Riff 14
Riff 15
Riff 16
Riff 17
Riff 16
Riff 17
Riff 17

The End...

comments
print report bad tab
4 comments total. Showing first comments.
0 reply
metallicax6 wrote on June 22 2007, 12:48 am

Amazing tab!!!!! Do you think you could put in Keyboard solo 2?

0 reply
espshredder13 wrote on August 29 2008, 01:11 pm

nice tab man good job on the intro

0 reply
Trivium_Child wrote on July 27 2009, 02:29 pm

best intro yet

I want to post or [tab]
guest
You may want to rate the tab now too:
select rating
Please do not post tabs as comments. Select "correction" instead!