Oops, an error
Loading. Please wait.

Bodom After Midnight Tab

ver2
ver2

Whole song

More versions @911Tabs.com
23,312 views 30 this week
7 commentsread comments
1 2 3 4 5
excellent!
x 15
Autoscroll
+/-
esc
set tempo
stop
Contributor
WARNING: You are trying to view
                                    content from Ultimate-Guitar.com
                                    in an unauthorized application,
                                    which is prohibited.

                                    Please use an official Ultimate
                                    Guitar Tabs application for iPhone,
                                    iPad or Android to access legitimate
                                    chords, guitar, bass, and drum tabs
                                    from Ultimate-Guitar.com database.

                                    Type "ultimate guitar tabs" in Apple
                                    App Store's or Android Market's
                                    search to find the application.
                              BODOM AFTER MIDNIGHT
                        As recorded by Children of Bodom
                     (From the 2001 Album FOLLOW THE REAPER)

Words and Music by Children of Bodom
Transcribed by XeroX.

Gtr I (D G C F A D) - 'Untitled'
Gtr II (D G C F A D) - 'Untitled'
Gtr III (D G C F A D) - 'Untitled'

   Intro
    Q=135                                1.
    D  B             D  B     C# B E  B                        E5 D5
   4/4
    Gtr I
     PM------------------------------------------------------|
     S S S S S S S S  S S S S  S S  S S    S S S S S S S S S S E. E.
||--------------------------------------|-----------------------------||
||o-------------------------------------|----------------------------o||
||--------------------------------------|-----------------------------||
||--12p9-9-9-9-9-9-9-12p9-9-9-11p9-14p9-|-12p9-9-9-9-9-9-9-9-9-9--7---||
||o-------------------------------------|----------------------------o||
||--------------------------------------|-----------------------------||
|
|   Gtr II
|    PM------------------------------------------------------|
|    S S S S S S S S  S S S S  S S  S S    S S S S S S S S S S E. E.
||--------------------------------------|-----------------------------||
||o-------------------------------------|----------------------------o||
||--------------------------------------|----------------------9--7---||
||--------------------------------------|----------------------9--7---||
||o-10p7-7-7-7-7-7-7-10p7-7-7--9p7-12p7-|-10p7-7-7-7-7-7-7-7-7-7--5--o||
||--------------------------------------|-----------------------------||


  2.
                       C5 D5
   PM----------------|
   S S S S S S S S S S E. E.
|----------------------------||
|----------------------------||
|----------------------------||
|-12p9-9-9-9-9-9-9-9-9-5--7--||
|----------------------------||
|----------------------------||
|
|  PM----------------|
|  S S S S S S S S S S E. E.
|----------------------------||
|----------------------------||
|----------------------5--7--||
|----------------------5--7--||
|-10p7-7-7-7-7-7-7-7-7-3--5--||
|----------------------------||


  E5                      E5          C5    C5
   S  S  S  S  S  S  S  S  S  S  S  S  S  S  S  S
|-15-14-12----14-12-------12----------------------|
|----------15-------15-13----15-13-12-15-13-12----|
|----------------------------------------------14-|
|-------------------------------------------------|
|-------------------------------------------------|
|-------------------------------------------------|
|
|        PM------------|         PM|
|  E     S  S  S  S  S  S  E     S  S  E     E
|-------------------------------------------------|
|-------------------------------------------------|
|--9-----------------------9-----------5-----5----|
|--9-----------------------9-----------5-----5----|
|--7-----7--7--7--7--7--7--7-----5--5--3-----3----|
|-------------------------------------------------|


  E5                            E5        D5
   S  S  S  S  S  S  S  S  S  S  S   S  S  S   S  S
|---------------------------------------------------|
|-13-12---------------------------------------------|
|-------14-12-16-14-12-11-14-12-11-----12-11--------|
|-----------------------------------14--------14-12-|
|---------------------------------------------------|
|---------------------------------------------------|
|
|        PM------------------|
|  E     S  S  S  S  S  S  S  S  E.        E.
|---------------------------------------------------|
|---------------------------------------------------|
|--9-----------------------------9---------7--------|
|--9-----------------------------9---------7--------|
|--7-----7--7--7--7--7--7--7--7--7---------5--------|
|---------------------------------------------------|


  E5                E5        C5  C5
  S S  S S S  S S S  S S S  S S S  S S
|--------------------------------------|
|------------------------------------8-|
|--------7------7-9----7-9-11-7-9-11---|
|-7-9-10---9-10-----10-----------------|
|--------------------------------------|
|--------------------------------------|
|
|      PM---------|      PM|
| E    S S S  S S S  E   S  S E    E
|--------------------------------------|
|--------------------------------------|
|-9------------------9--------5----5---|
|-9------------------9--------5----5---|
|-7----7-7-7--7-7-7--7---5--5-3----3---|
|--------------------------------------|


                                               Pre verse
  E5                        E5       D5                                 D5G5/D
  S  S S  S  S S  S  S S  S  S  S  S  S  S  S    H.                     E E
|-------------------------------8--------8-10-|-12\-------------------------|
|------8-10----8-10-12-8-10-12----10-12-------|-------------------------7-7-|
|-9-11------11--------------------------------|-----------------------------|
|---------------------------------------------|-----------------------------|
|---------------------------------------------|-----------------------------|
|---------------------------------------------|-----------------------------|
|
|      PM----------------|                       PM-------------------|
| E    S  S  S S  S  S S  S  E.       E.         E  S S S S S S S S S S E E
|---------------------------------------------|-----------------------------|
|---------------------------------------------|-----------------------------|
|-9--------------------------9--------7-------|-------------------------7-7-|
|-9--------------------------9--------7-------|-------------------------7-5-|
|-7----7--7--7-7--7--7-7--7--7--------5-------|--7--7-7-7-7-7-7-7-7-7-7-5-5-|
|---------------------------------------------|-----------------------------|


                         G5 F#5                         D5D5
  H.                      E  E   H.                     E E
|------------------------------|----------------------------|
|-------------------------8--7-|------------------------7-7-|
|------------------------------|----------------------------|
|------------------------------|----------------------------|
|------------------------------|----------------------------|
|------------------------------|----------------------------|
|
| PM-------------------|         PM-------------------|
| E  S S S S S S S S S S  E  E   E  S S S S S S S S S S E E
|------------------------------|----------------------------|
|------------------------------|----------------------------|
|------------------------12-11-|------------------------7-7-|
|------------------------12-11-|------------------------7-7-|
|-7--7-7-7-7-7-7-7-7-7-7-10--9-|-7--7-7-7-7-7-7-7-7-7-7-5-5-|
|------------------------------|----------------------------|


                                               Verse
  E5          D5         C5        A5                                 D5D5
   S  S  S  S  S  S  S S  S  S S S  S S S S     E S S S S S S S S S S E E
|-15-14-12-10-14-12-10-8-12-10-8-7----------||----------------------------|
|----------------------------------10-8-7-5-||o-----------------------7-7-|
|-------------------------------------------||----------------------------|
|-------------------------------------------||----------------------------|
|-------------------------------------------||o---------------------------|
|-------------------------------------------||--0-0-0-0-0-0-0-0-0-0-0-----|
|
|                                               PM------------------|
|  Q           Q          Q         Q           E S S S S S S S S S S E E
|-------------------------------------------||----------------------------|
|-------------------------------------------||o---------------------------|
|--9-----------7----------5---------2-------||------------------------7-7-|
|--9-----------7----------5---------2-------||------------------------7-7-|
|--7-----------5----------3---------0-------||o-----------------------5-5-|
|-------------------------------------------||--0-0-0-0-0-0-0-0-0-0-0-----|


                        G5 F#5                        D5
  PM------------------|         PM------------------|
  E S S S S S S S S S S  E  E   E S S S S S S S S S S E E
|-----------------------------|---------------------------|
|------------------------8--7-|-----------------------7-7-|
|-----------------------------|---------------------------|
|-----------------------------|---------------------------|
|-----------------------------|---------------------------|
|-0-0-0-0-0-0-0-0-0-0-0-------|-0-0-0-0-0-0-0-0-0-0-0-----|
|
| PM------------------|         PM------------------|
| E S S S S S S S S S S  E  E   E S S S S S S S S S S E E
|-----------------------------|---------------------------|
|-----------------------------|---------------------------|
|-----------------------12-11-|-----------------------7-7-|
|-----------------------12-11-|-----------------------7-7-|
|-----------------------10--9-|-----------------------5-5-|
|-0-0-0-0-0-0-0-0-0-0-0-------|-0-0-0-0-0-0-0-0-0-0-0-----|


  1.
  E5          D5         C5        A5
   S  S  S  S  S  S  S S  S  S S S  S S S S
|-15-14-12-10-14-12-10-8-12-10-8-7-----------||
|----------------------------------10-8-7-5-o||
|--------------------------------------------||
|--------------------------------------------||
|-------------------------------------------o||
|--------------------------------------------||
|
|  Q           Q          Q         Q
|--------------------------------------------||
|-------------------------------------------o||
|--9-----------7----------5---------2--------||
|--9-----------7----------5---------2--------||
|--7-----------5----------3---------0-------o||
|--------------------------------------------||


 2.
  E5                D5                E5                C5       D5
   |--3--|  |--3--|  |--3--|  |--3--|  |--3--|  |--3--|  |--3--|  |--3--|
   S  S  S  S  S  S  S  S  S  S  S  S  S  S  S  S  S  S  S  S  S  S  S  S
|-19p17p15-19p17p15-------------------------------------------------------|
|-------------------19p17p15-19p17p15-------------------------------------|
|-------------------------------------19p17p16-19p17p16-------------------|
|-------------------------------------------------------19p17p16-19p17p16-|
|-------------------------------------------------------------------------|
|-------------------------------------------------------------------------|
|
|  Q                 Q                 Q                 E        E
|-------------------------------------------------------------------------|
|-------------------------------------------------------------------------|
|--9-----------------7-----------------9-----------------5--------7-------|
|--9-----------------7-----------------9-----------------5--------7-------|
|--7-----------------5-----------------7-----------------3--------5-------|
|-------------------------------------------------------------------------|


              Pre Chorus
  C5    D5
                PM-------------------------------|
   H    H       S S S S S S S S  S S S S  S S  S S
|------------|-------------------------------------|
|------------|-------------------------------------|
|------------|-------------------------------------|
|-14---------|-12p9-9-9-9-9-9-9-12p9-9-9-11p9-14p9-|
|------------|-------------------------------------|
|------------|-------------------------------------|
|
|               PM-------------------------------|
|  H    H       S S S S S S S S  S S S S  S S  S S
|------------|-------------------------------------|
|------------|-------------------------------------|
|--5----7----|-------------------------------------|
|--5----7----|-------------------------------------|
|--3----5----|-10p7-7-7-7-7-7-7-10p7-7-7--9p7-12p7-|
|------------|-------------------------------------|


  C5   D5     B5   D5     E5 D5 E5 C5
  Gtrs I, II
  H    H      H    H      Q  Q  Q  Q
|-----------|-----------|-------------|
|-----------|-----------|-------------|
|-5----7----|------7----|-9--7--9--5--|
|-5----7----|-9----7----|-9--7--9--5--|
|-3----5----|-9----5----|-7--5--7--3--|
|-----------|-7---------|-------------|


            C5C5        E5E5          C5C5        E5
    Gtr I
    PM----|   PM------|       PM----|   PM  PM--|
    S S S S E E S S S S E E   S S S S E E S S S S  Q
||--------------------------|--------------------------|
||o-------------------------|--------------------------|
||--------------------------|---------------------<9>--|
||----------5-----------9-5-|---------5----------------|
||o-3-3-3-3---7---7-7-7-----|-3-3-3-3---7---7-7-7------|
||--------------------------|--------------------------|
|
|   Gtr II
|   PM----|       PM--|       PM----|       PM--|
|   S S S S E E S S S S E E   S S S S E E S S S S  Q
||--------------------------|--------------------------|
||o-------------------------|--------------------------|
||--------------------------|--------------------------|
||----------5-5---------9-9-|---------5-5----------9---|
||o-3-3-3-3-3-3---7-7-7-7-7-|-3-3-3-3-3-3---7-7-7--7---|
||--------------------------|--------------------------|


                           1.
          C5C5        E5E5          C5C5        Eb5
  PM----|   PM------|       PM----|   PM  PM--|
  S S S S E E S S S S E E   S S S S E E S S S S Q
|-------------------------|---------------------------||
|-------------------------|--------------------------o||
|-------------------------|---------------------8-----||
|---------5-----------9-5-|---------5-----------8-----||
|-3-3-3-3---7---7-7-7-----|-3-3-3-3---7---7-7-7-6----o||
|-------------------------|---------------------------||
|
| PM----|       PM--|       PM----|       PM--|
| S S S S E E S S S S E E   S S S S E E S S S S Q
|-------------------------|---------------------------||
|-------------------------|--------------------------o||
|-------------------------|---------------------8-----||
|---------5-5---------9-9-|---------5-5---------8-----||
|-3-3-3-3-3-3---7-7-7-7-7-|-3-3-3-3-3-3---7-7-7-6----o||
|-------------------------|---------------------------||


  2.
                  G5     G5   E5               E5      Eb5 Eb5
  PM----|   PM--|    PM|
  S S S S E E S S  E S S  E   E   Q.           E   E   E   E
|---------------------------|----------------------------------|
|---------------------------|----------------------------------|
|-----------------12-----12-|-9----------------9-------8---8---|
|---------5-------12-----12-|-9----------------9-------8---8---|
|-3-3-3-3---7-7-7-10-7-7-10-|-7----------------7-------6---6---|
|---------------------------|----------------------------------|
|
| PM----|     PM|    PM|      PM--------------------------------
| S S S S E E S S  E S S  E   S S S  S S S S S S S S S S S S S
|---------------------------|----------------------------------|
|---------------------------|----------------------------------|
|-----------------12-----12-|----------------------------------|
|---------5-5-----12-----12-|----------------------------------|
|-3-3-3-3-3-3-7-7-10-7-7-10-|----------------------------------|
|---------------------------|-0-0-0--0-0-0-0-0-0-0-0-0-0-0-0-0-|


  E5
  E   H               E   S S S S
|----------------------------------|
|----------------------------------|
|-9--------------------------------|
|-9-----------------------------5--|
|-7-----------------------3-5-7----|
|----------------------------------|
|
|-------------------------------|
| S S S S S S S S S S S S S S S S
|----------------------------------|
|----------------------------------|
|----------------------------------|
|----------------------------------|
|----------------------------------|
|-0-0-0-0-0-0-0-0-0-0-0-0-0-0-0-0--|


  E5               E5      Eb5 Eb5   E5
                                     |-3-| |-3-| |-3-| |-3-| |-3--|
  E   Q.           E   E   E   E     S S S S S S S S S S S S Q Q  Q
|----------------------------------|---------------------------------|
|----------------------------------|---------------------------------|
|-9----------------9-------8---8---|-9-7-5---------------------------|
|-9----------------9-------8---8---|-------9-7-5-------------5-7--9--|
|-7----------------7-------6---6---|-------------9-7-5---------------|
|----------------------------------|-------------------8-7-5---------|
|
| PM-----------------------------|
|                                                |-3-| |-3-| |-3--|
| S S S  S S S S S S S S S S S S S   E     E     S S S S S S Q Q  Q
|----------------------------------|---------------------------------|
|----------------------------------|---------------------------------|
|----------------------------------|-9-------------------------------|
|----------------------------------|-9-------------------------------|
|----------------------------------|-7-----------7-7-7-7-7-7-7-9-10--|
|-0-0-0--0-0-0-0-0-0-0-0-0-0-0-0-0-|-0-------------------------------|


 Verse 2
                        G5 G5                         D5 G5
  PM------------------|         PM------------------|
  E S S S S S S S S S S  E  E   E S S S S S S S S S S  E  E
|-----------------------------|-----------------------------|
|-----------------------------|-----------------------------|
|-----------------------------|-----------------------------|
|------------------------9--9-|-----------------------10--9-|
|-0-0-0-0-0-0-0-0-0-0-0-------|-0-0-0-0-0-0-0-0-0-0-0-------|
|-----------------------------|-----------------------------|
|
| PM------------------|         PM------------------|
| E S S S S S S S S S S  E  E   E S S S S S S S S S S  E  E
|-----------------------------|-----------------------------|
|-----------------------------|-----------------------------|
|-----------------------12-12-|--------------------------12-|
|-----------------------12-12-|-----------------------12-12-|
|-0-0-0-0-0-0-0-0-0-0-0-10-10-|-0-0-0-0-0-0-0-0-0-0-0-12-10-|
|-----------------------------|-----------------------10----|


                        G5      A5          G5         F5        D5
  PM------------------|
  E S S S S S S S S S S  E  E    S  S  S  S  S  S  S S  S  S S S  S S S S
|-----------------------------|-15-14-12-10-14-12-10-8-12-10-8-7----------|
|-----------------------------|----------------------------------10-8-7-5-|
|-----------------------------|-------------------------------------------|
|------------------------9--9-|-------------------------------------------|
|-0-0-0-0-0-0-0-0-0-0-0-------|-------------------------------------------|
|-----------------------------|-------------------------------------------|
|
| PM------------------|
| E S S S S S S S S S S  E  E    Q           Q          Q         Q
|-----------------------------|-------------------------------------------|
|-----------------------------|-------------------------------------------|
|-----------------------12-12-|-14----------12---------10---------7-------|
|-----------------------12-12-|-14----------12---------10---------7-------|
|-0-0-0-0-0-0-0-0-0-0-0-10-10-|-12----------10----------8---------5-------|
|-----------------------------|-------------------------------------------|


                           G5                            D5 G5
           PM------------|         PM------------------|
  S E.     S S S S S S S S  E  E   E S S S S S S S S S S  E  E
|--------------------------------|------------------------------|
|--------------------------------|------------------------------|
|-7h9----------------------------|------------------------------|
|---------------------------9--9-|-----------------------10--9--|
|----------0-0-0-0-0-0-0-0-------|-0-0-0-0-0-0-0-0-0-0-0--------|
|--------------------------------|------------------------------|
|
| PM---------------------|         PM------------------|
| E    S S S S S S S S S S  E  E   E S S S S S S S S S S  E  E
|--------------------------------|------------------------------|
|--------------------------------|------------------------------|
|--------------------------12-12-|--------------------------12--|
|--------------------------12-12-|-----------------------12-12--|
|-0----0-0-0-0-0-0-0-0-0-0-10-10-|-0-0-0-0-0-0-0-0-0-0-0-12-10--|
|--------------------------------|-----------------------10-----|


  A5                G5                              F5     G5
   |--3--|  |--3--|
   S  S  S  S  S  S  S  S  S  S  S  S  S  S  E  E    Q  Q   H
|-12-14-15-19-15-14-12----------------------------|--------------|
|----------------------15-13-12-13-12-------------|--------------|
|-------------------------------------14-12-14-12-|--------12----|
|-------------------------------------------------|--------12----|
|-------------------------------------------------|-15-----10----|
|-------------------------------------------------|--------------|
|
|                                PM------|
|  Q                 Q           S  S  S  S  E  E    H      H
|-------------------------------------------------|--------------|
|-------------------------------------------------|--------------|
|-14----------------12----------------------14-12-|-10-----12----|
|-14----------------12----------------------14-12-|-10-----12----|
|-12----------------10----------12-12-12-12-12-10-|--8-----10----|
|-------------------------------------------------|--------------|


                                          F5    G5
        PM--------|       PM|       PM|
   S  S S S S S S S  S  S S S  S  S S S    H     H
|---------------------------------------|-------------|
|---------------------------------------|-------------|
|---------------------------------------|-10----12----|
|--9h10--------------9h10------9h10-----|-10----12----|
|-------0-0-0-0-0-0-------0-0-------0-0-|--8----10----|
|---------------------------------------|-------------|
|
|       PM--------|       PM|       PM|
|  S  S S S S S S S  S  S S S  S  S S S    H     H
|---------------------------------------|-------------|
|---------------------------------------|-------------|
|---------------------------------------|-10----12----|
|---------------------------------------|-10----12----|
|-10h12-0-0-0-0-0-0-10h12-0-0-10h12-0-0-|--8----10----|
|---------------------------------------|-------------|


  E5                G5                   A5  G5  A5  F5
  S S S  S S S  S S  S S S  S S S  S S    Q   Q   Q   Q
|--------------------------------------|-----------------|
|--------------------------------------|-----------------|
|-9---9-10-9-7-------9---9-10-9-7------|-14--12--14--10--|
|--------------10-9---------------10-9-|-14--12--14--10--|
|--------------------------------------|-12--10--12---8--|
|--------------------------------------|-----------------|
|
| Q        Q         Q        Q           Q   Q   Q   Q
|--------------------------------------|-----------------|
|--------------------------------------|-----------------|
|-9-----------------12-----------------|-14--12--14--10--|
|-9-----------------12-----------------|-14--12--14--10--|
|-7-----------------10-----------------|-12--10--12---8--|
|--------------------------------------|-----------------|


 Pre Chorus 2
          F5 F5            A5
  PM----|          PM---|
  S S S S  E  E S  S  S  S  E  E
|--------------------------------|
|--------------------------------|
|--------------------------------|
|---------10---------------14-10-|
|-8-8-8-8----12---12-12-12-------|
|--------------------------------|
|
| PM----|          PM---|
| S S S S  E  E S  S  S  S  E  E
|--------------------------------|
|--------------------------------|
|--------------------------------|
|---------10-10------------14-14-|
|-8-8-8-8--8--8---12-12-12-12-12-|
|--------------------------------|


          F5               A5              F5               A5
  PM----|       PM------|          PM----|          PM---|
  S S S S  E  E S  S  S  S   Q     S S S S  E  E S  S  S  S  E  E
|--------------------------------|---------------------------------|
|--------------------------------|---------------------------------|
|--------------------------<14>--|---------------------------------|
|---------10---------------------|---------10---------------14-10--|
|-8-8-8-8----12---12-12-12-------|-8-8-8-8----12---12-12-12--------|
|--------------------------------|---------------------------------|
|
| PM----|          PM---|          PM----|          PM---|
| S S S S  E  E S  S  S  S   Q     S S S S  E  E S  S  S  S  E  E
|--------------------------------|---------------------------------|
|--------------------------------|---------------------------------|
|--------------------------------|---------------------------------|
|---------10-10-------------14---|---------10-10------------14-14--|
|-8-8-8-8--8--8---12-12-12--12---|-8-8-8-8--8--8---12-12-12-12-12--|
|--------------------------------|---------------------------------|


              C5                E5
   PM------|      PM---------|
   S  S  S  S  E  E  S  S  S  S  E  E
|-------------------------------------|
|-------------------------------------|
|-------------12----------------16-12-|
|-10-10-10-10----14-14-14-14-14-------|
|-------------------------------------|
|-------------------------------------|
|
|  PM------|            PM---|
|  S  S  S  S  E  E  S  S  S  S  E  E
|-------------------------------------|
|-------------------------------------|
|-------------------------------------|
|--------------5--5--------------9--9-|
|--3--3--3--3--3--3-----7--7--7--7--7-|
|-------------------------------------|


              C5               E5                  C5               E5
   PM------|           PM---|           PM------|           PM---|
   S  S  S  S  E  E S  S  S  S  E  E    S  S  S  S  E  E S  S  S  S  E  E
|------------------------------------|-------------------------------------|
|------------------------------------|-------------------------------------|
|-------------12---------------16-12-|-------------12---------------16-12--|
|-10-10-10-10----14---14-14-14-------|-10-10-10-10----14---14-14-14--------|
|------------------------------------|-------------------------------------|
|------------------------------------|-------------------------------------|
|
|  PM------|           PM---|           PM------|           PM---|
|  S  S  S  S  E  E S  S  S  S  Q       S  S  S  S  E  E S  S  S  S  Q
|------------------------------------|-------------------------------------|
|------------------------------------|-------------------------------------|
|------------------------------------|-------------------------------------|
|--------------5--5-------------9----|--------------5--5-------------9-----|
|--3--3--3--3--3--3----7--7--7--7----|--3--3--3--3--3--3----7--7--7--7-----|
|------------------------------------|-------------------------------------|


   |------3-------| |-----3------|
   E  E  E  E  E  E E  E  E E E  E
|----------------------------------|
|----------------------------------|
|----------------------------------|
|----------------------------------|
|-12-14-15-10-12-14-9-10-12-7-9-10-|
|----------------------------------|
|
|  |------3-------| |-----3------|
|  E  E  E  E  E  E E  E  E E E  E
|----------------------------------|
|----------------------------------|
|----------------------------------|
|----------------------------------|
|-12-14-15-10-12-14-9-10-12-7-9-10-|
|----------------------------------|


   Chorus
                                  1.
    E5/B             C5/G          E5/B             C5/G    D5/A
    |--3--|  |--3--|  |-3--|       |--3--|  |--3--| |--3--|
    E  E  E  E  E  E  E E  E  Q    E  E  E  E  E  E E  E  E Q
||-------------------------------|------------------------------||
||o---------10-------------------|---------10------------------o||
||--9-11-12----12-11----9-11-12--|-9-11-12----12-11-9-------9---||
||-------------------12----------|--------------------10-12-----||
||o------------------------------|-----------------------------o||
||-------------------------------|------------------------------||
|
|   H                 H            H                Q       Q
||-------------------------------|------------------------------||
||o------------------------------|-----------------------------o||
||--9-----------------5----------|-9----------------5-------7---||
||--9-----------------5----------|-9----------------5-------7---||
||o-7-----------------3----------|-7----------------3-------5--o||
||--7-----------------3----------|-7----------------3-------5---||


  2.
  E5/B             G5/DF#5/C#  E5/B             C5/G
  |--3--|  |--3--|             |--3--|  |--3--|  |-3--|
  E  E  E  E  E  E  Q   Q      E  E  E  E  E  E  E E  E  Q
|--------------------------||-------------------------------|
|---------10---------------||o---------10-------------------|
|-9-11-12----12-11-12--11--||--9-11-12----12-11----9-11-12--|
|--------------------------||-------------------12----------|
|--------------------------||o------------------------------|
|--------------------------||-------------------------------|
|
| H                 Q   Q      H                 H
|--------------------------||-------------------------------|
|--------------------------||o------------------------------|
|-9----------------12--11--||--9-----------------5----------|
|-9----------------12--11--||--9-----------------5----------|
|-7----------------10---9--||o-7-----------------3----------|
|-7----------------10---9--||--7-----------------3----------|


 1.
  E5/B             C5/G    D5/A
  |--3--|  |--3--| |--3--|
  E  E  E  E  E  E E  E  E Q
|-------------------------------||
|---------10-------------------o||
|-9-11-12----12-11-9-------9----||
|--------------------10-12------||
|------------------------------o||
|-------------------------------||
|
| H                Q       Q
|-------------------------------||
|------------------------------o||
|-9----------------5-------7----||
|-9----------------5-------7----||
|-7----------------3-------5---o||
|-7----------------3-------5----||


  2.
  E5/B             G5/DF#5/C#E5/D5/A
                            2/4
  |--3--|  |--3--|
  E  E  E  E  E  E  Q   Q    Q  Q
|--------------------------|-------|
|---------10---------------|-------|
|-9-11-12----12-11-12--11--|-9--7--|
|--------------------------|-------|
|--------------------------|-------|
|--------------------------|-------|
|
| H                 Q   Q    Q  Q
|--------------------------|-------|
|--------------------------|-------|
|-9----------------12--11--|-9--7--|
|-9----------------12--11--|-9--7--|
|-7----------------10---9--|-7--5--|
|-7----------------10---9--|-7--5--|


 Interlude
  E5
 4/4
   PM------------------------------------------------
   S   S  S  S  S   S  S  S  S  S  S  S  S  S  S  S
|---------------------------------------------------|
|---------------------------------------------------|
|---------------------------------------------------|
|---------------------------------------------------|
|-10--10-12-10-13--10-15-10-10-12-10-10-13-10-10-10-|
|---------------------------------------------------|
|
|  Q            H.
|---------------------------------------------------|
|---------------------------------------------------|
|--9------------------------------------------------|
|--9\-----------------------------------------------|
|--7------------------------------------------------|
|---------------------------------------------------|


                     G5        F5        G5
 -------------------------------------------------|
   S   S  S  S  S  S  S   S  S  S   S  S  S  S  S  S
|-----------------------------------------------------|
|-----------------------------------------------------|
|-----------------------------------------------------|
|-----------------------------------------------------|
|-10--10-12-10-13-10-12--10-10-----10-10-10-10-10-10--|
|------------------------------13---------------------|
|
|  Q.                 E.        E.        Q
|-----------------------------------------------------|
|-----------------------------------------------------|
|-----------------------------------------------------|
|---------------------5---------3---------5-----------|
|---------------------5---------3---------5-----------|
|---------------------3---------1---------3-----------|


   PM----------------------------------------------
   S  S  S  S  S  S  S  S  S  S  S  S  S  S  S  S
|-------------------------------------------------|
|-------------------------------------------------|
|-------------------------------------------------|
|-------------------------------------------------|
|-10-10-12-10-13-10-15-10-10-12-10-10-13-10-10-10-|
|-------------------------------------------------|
|
|  W
|-------------------------------------------------|
|-------------------------------------------------|
|-------------------------------------------------|
|-------------------------------------------------|
|-------------------------------------------------|
|-------------------------------------------------|


                     G5        F5        G5
 -------------------------------------------------|
   S   S  S  S  S  S  S   S  S  S   S  S  S  S  S  S
|----------------------------------------------------|
|----------------------------------------------------|
|----------------------------------------------------|
|----------------------------------------------------|
|-10--10-12-10-13-10-12--10-10-----10-10-10-10-10-10-|
|------------------------------13--------------------|
|
|  Q.                 E.        E.        Q
|----------------------------------------------------|
|----------------------------------------------------|
|--------------------12--------10--------12----------|
|--------------------12--------10--------12----------|
|--------------------10---------8--------10----------|
|----------------------------------------------------|


    G
     PM----------------------------------------------
     S  S  S  S  S  S  S  S  S  S  S  S  S  S  S  S
||--------------------------------------------------|
||o-------------------------------------------------|
||--------------------------------------------------|
||--------------------------------------------------|
||o-10-10-10-10-10-10-10-10-10-10-10-10-10-10-10-10-|
||--------------------------------------------------|
|
|    PM----------------------------------------------
|    E     S  S  E     S  S  E     S  S  E     S  S
||--------------------------------------------------|
||o-------------------------------------------------|
||--------------------------------------------------|
||--------------------------------------------------|
||o-------------------------------------------------|
||---3-----3--3--3-----3--3--3-----3--3--3-----3--3-|


                          G5        F5        G5
 ------------------------------------------------|
   S  S  S  S  S  S  S  S  S   S  S  S   S  S  S  S
|-----------------------------------------------------||
|----------------------------------------------------o||
|-----------------------------------------------------||
|-----------------------------------------------------||
|-10-10-10-10-10-10-10-10-10--10-10-10--10-10-10-10--o||
|-----------------------------------------------------||
|
|----------------------|
|  E     S  S  E     S  S  E.        E.        E
|-----------------------------------------------------||
|----------------------------------------------------o||
|-----------------------------------------------------||
|--------------------------5---------3---------5------||
|--------------------------5---------3---------5-----o||
|--3-----3--3--3-----3--3--3---------1---------3------||


    B                                 G
     PM------------------------------------
     S S  S S  S S  S S S  S S S  S S S S
||----------------------------------------|
||o-12-0-14-0-15-0-17-0-0-14-0-0-15-0-0-0-|
||----------------------------------------|
||----------------------------------------|
||o---------------------------------------|
||----------------------------------------|
|
|    PM------------------------------------
|    E    S S  E    S S E    S S  E   S S
||----------------------------------------|
||o---------------------------------------|
||----------------------------------------|
||----------------------------------------|
||o--2----2-2--2----2-2-2----2-2--2-------|
||------------------------------------3-3-|


                 A                  B
 -------------------------------------|
   S S  S S  S S  S S S  S S S  S S S S
|-----------------------------------------||
|-12-0-14-0-15-0-14-0-0-10-0-0-12-0-0-0--o||
|-----------------------------------------||
|-----------------------------------------||
|----------------------------------------o||
|-----------------------------------------||
|
|-------------------------------------|
|  E    S S  E    S S E    S S  E   S S
|-----------------------------------------||
|----------------------------------------o||
|-----------------------------------------||
|-----------------------------------------||
|-----------------------------------2-2--o||
|--3----3-3--3----5-5-5----5-5--5---------||


    E5        E5        C    E   D    B
     PM------------------------------------
     S S  S S  S S  S S S  S S S  S S S S
||--12-0-14-0-15-0-17-0-0-14-0-0-15-0-0-0-|
||o---------------------------------------|
||----------------------------------------|
||----------------------------------------|
||o---------------------------------------|
||----------------------------------------|
|
|         PM        PM---------------------
|    E    E    E    E   E    E    E   E
||----------------------------------------|
||o---------------------------------------|
||---9---------9------------------7-------|
||---9---------9----------------------9---|
||o--7----7----7----7--------7------------|
||----------------------8-----------------|


 1.
  G    A    B    D5            D5
 -------------------------------------|
   S S  S S  S S  S S S  S S S  S S S S
|-12-0-14-0-15-0-14-0-0-10-0-0-12-0-0-0---||
|----------------------------------------o||
|-----------------------------------------||
|-----------------------------------------||
|----------------------------------------o||
|-----------------------------------------||
|
|-----------|              PM|      PM|
|  E    E    E    Q        S S  E   S S
|-----------------------------------------||
|----------------------------------------o||
|-----------------7-------------7---------||
|-----------------7-------------7---------||
|-----------------5--------5-5--5---5-5--o||
|--3----5----7----------------------------||


  2.
                 D5        D5  E5
   PM--------------------------|
   S S  S S  S S  S S S  S S S  Q     +W
|-12-0-14-0-15-0-14-0-0-10-0-0-12--|-(12)----|
|----------------------------------|---------|
|----------------------------------|---------|
|----------------------------------|---------|
|----------------------------------|---------|
|----------------------------------|---------|
|
|  PM-------|
|  E    E    E    Q        E    Q     +W
|----------------------------------|---------|
|----------------------------------|---------|
|-----------------7--------7----9--|--(9)----|
|-----------------7--------7----9--|--(9)----|
|-----------------5--------5----7--|--(7)----|
|--3----5----7---------------------|---------|


                 Re Intro
         E5 D5
                   PM----------------------------------
  W                S S S S S S S S  S S S S  S S  S S
|---------------|-------------------------------------|
|---------------|-------------------------------------|
|---------------|-------------------------------------|
|---------------|-12p9-9-9-9-9-9-9-12p9-9-9-11p9-14p9-|
|---------------|-------------------------------------|
|---------------|-------------------------------------|
|
|                  PM----------------------------------
| H    E E. E.     S S S S S S S S  S S S S  S S  S S
|---------------|-------------------------------------|
|---------------|-------------------------------------|
|--------9--7---|-------------------------------------|
|--------9--7---|-------------------------------------|
|--------7--5---|-10p7-7-7-7-7-7-7-10p7-7-7--9p7-12p7-|
|---------------|-------------------------------------|


                       C5 D5
 --------------------|
   S S S S S S S S S S E. E.
|-----------------------------|
|-----------------------------|
|-----------------------------|
|-12p9-9-9-9-9-9-9-9-9-5--7---|
|-----------------------------|
|-----------------------------|
|
|--------------------|
|  S S S S S S S S S S E. E.
|-----------------------------|
|-----------------------------|
|----------------------5--7---|
|----------------------5--7---|
|-10p7-7-7-7-7-7-7-7-7-3--5---|
|-----------------------------|


 Keyboard Solo
  C5             C5    BbBb5 C5                            Eb5       Bb5
  Gtr III
   W                          S  S  S  S  S  S  S  S  S  S  S   S  S  S   S  S
|--------------------------|---------------------------------------------------|
|--------------------------|-----------------------------------18-20-18--------|
|--------------------------|-------------------------17-19-20------------20-19-|
|--------------------------|-------------15-17-18-20---------------------------|
|-15-----------------------|-13-15-17-18---------------------------------------|
|--------------------------|---------------------------------------------------|
|
| Gtrs I, II
|    PM--------|   PM|              PM------------------|
|  E S S S S S S E S S E E    E     S  S  S  S  S  S  S  S  E.        E.
|--------------------------|---------------------------------------------------|
|--------------------------|---------------------------------------------------|
|--5-------------5-----3-3-|--5-----------------------------8---------3--------|
|--5-------------5-----3-3-|--5-----------------------------8---------3--------|
|--3-3-3-3-3-3-3-3-3-3-1-1-|--3-----3--3--3--3--3--3--3--3--6---------1--------|
|--------------------------|---------------------------------------------------|


  C5             Eb5
   H             E  S  S  S  S  S  S
|------------------------------------|
|------------------13-13-15-13-16-13-|
|-17---------------------------------|
|------------------------------------|
|------------------------------------|
|------------------------------------|
|
|    PM--------|    PM------------|
|  E S S S S S S E  S  S  S  S  S  S
|------------------------------------|
|------------------------------------|
|--5-------------8-------------------|
|--5-------------8-------------------|
|--3-3-3-3-3-3-3-6--6--6--6--6--6--6-|
|------------------------------------|


  F5                      G#5
   S  S  S  S  S  S  S  S  S  S  S  S  S  S  S  S
|-------------------------15-13-11-10-15-13-11-10-|
|-18-16-15-13-18-16-15-13-------------------------|
|-------------------------------------------------|
|-------------------------------------------------|
|-------------------------------------------------|
|-------------------------------------------------|
|
|        PM------------|         PM------------|
|  E     S  S  S  S  S  S  E     S  S  S  S  S  S
|-------------------------------------------------|
|-------------------------------------------------|
|-10----------------------13----------------------|
|-10----------------------13----------------------|
|--8-----8--8--8--8--8--8-11----11-11-11-11-11-11-|
|-------------------------------------------------|


  D5
   S  S  S  S  S  S  S  S  S  S  S  S  S  S  S  S
|-17-15-13-10-17-15-13-10-17-15-13-10-17-15-13-10-|
|-------------------------------------------------|
|-------------------------------------------------|
|-------------------------------------------------|
|-------------------------------------------------|
|-------------------------------------------------|
|
|        PM------------------------------------|
|  E     S  S  E     S  S  E     S  S  S  S  S  S
|-------------------------------------------------|
|-------------------------------------------------|
|--7----------------------------------------------|
|--7----------------------------------------------|
|--5-----5--5--5-----5--5--5-----5--5--3--3--3--3-|
|-------------------------------------------------|


  D5                            Bb5       C5
   S  S  S  S  S  S  S  S  S  S  S   S  S  S   S  S
|-17-15-13-10-17-15-13-10-17-15-13--10-17-15--13-10-|
|---------------------------------------------------|
|---------------------------------------------------|
|---------------------------------------------------|
|---------------------------------------------------|
|---------------------------------------------------|
|
|        PM------------------|
|  E     S  S  E     S  S  S  S  E.        E.
|---------------------------------------------------|
|---------------------------------------------------|
|--7-----------------------------3---------5--------|
|--7-----------------------------3---------5--------|
|--5-----5--5--5-----5--5--5--5--1---------3--------|
|---------------------------------------------------|


  D5                             B
  E  S  S  S  S  S  S  S  S  S S  S  S  S  S
|---10-10-12-10-13-10-12-10-10-8-10-10-10-10-|
|--------------------------------------------|
|--------------------------------------------|
|--------------------------------------------|
|--------------------------------------------|
|--------------------------------------------|
|
|    PM---------------------------------------
| E  S  S  E     S  S  E     S S  S  S  S  S
|--------------------------------------------|
|--------------------------------------------|
|-7------------------------------------------|
|-7------------------------------------------|
|-5--5--5--5-----5--5--5-----5-5--3--3--3--3-|
|--------------------------------------------|


  C#
   S  S  S  S  S  S  S  S  S  S  S  S  S  S  S  S
|-22-20-18-17--------------------------------------|
|-------------20-18-17-15-18-17-15-13--------------|
|-------------------------------------15-14-12-10--|
|--------------------------------------------------|
|--------------------------------------------------|
|--------------------------------------------------|
|
|-------------------------------------------|
|  E     E     E     S  E     E     S  E     E
|--------------------------------------------------|
|--------------------------------------------------|
|--------------------------------------------------|
|--------------------------------------------------|
|--5-----5-----5-----5--5-----5-----5--5-----5-----|
|--------------------------------------------------|


 Guitar Solo
                                                                  D5       D5
  Gtr I
   |-------3--------|  |--------3---------|  |--------3---------|  |------3-------|
   S  S  S  S  S    S  S  S    S  S  S    S  S  S    S  S  S    S  S  S  S  S  S  S
|------------------14h15p14---12h14h15---17h19p17p==15------------15p14p12----------|
|-17p15p13-15h17---------------------------------------19p17p==15----------15p13p12-|
|-----------------------------------------------------------------------------------|
|-----------------------------------------------------------------------------------|
|-----------------------------------------------------------------------------------|
|-----------------------------------------------------------------------------------|
|
| Gtr II
|  PM--------------------------------------------------------|
|  E        S    S     S    S     S    S     S    S     S    S     E        E
|-----------------------------------------------------------------------------------|
|-----------------------------------------------------------------------------------|
|------------------------------------------------------------------7--------7-------|
|------------------------------------------------------------------7--------7-------|
|------------------------------------------------------------------5--------5-------|
|--0--------0----0-----0----0-----0----0-----0----0-----0----0----------------------|


                                                    C5    D5
   |------3-------| |------3------| |------3------| |----3----|
   S  S S  S  S   S S S   S S S   S S S   S S S   S S S S S S S
|-12p10p8-----------8p7p==5-------------------------------5h7h8-|
|---------12p10p==8---------8p7p==5-----------------5h7h8-------|
|-------------------------------------------4h5h==7-------------|
|-----------------------------------4h5h==7---------------------|
|---------------------------------------------------------------|
|---------------------------------------------------------------|
|
|  PM-------------------------------------------|
|  E       S    S   S   S   S   S   S   S   S   S   E     E
|---------------------------------------------------------------|
|---------------------------------------------------------------|
|---------------------------------------------------5-----7-----|
|---------------------------------------------------5-----7-----|
|---------------------------------------------------3-----5-----|
|--0-------0----0---0---0---0---0---0---0---0---0---------------|


                                                 D5    D5
                                 |---3---|
   S  S  E       E       E       S  S    S  S  S  S  S  S  S
|------------------------------------------------12h14h15h17-|
|-17-17-17b18---17b18---17b18---12h13p==12h13h15-------------|
|------------------------------------------------------------|
|------------------------------------------------------------|
|------------------------------------------------------------|
|------------------------------------------------------------|
|
|  PM-----------------------------------------|
|  E     S    S  S    S  S    S  S    S     S  S  E     E
|------------------------------------------------------------|
|------------------------------------------------------------|
|-------------------------------------------------7-----7----|
|-------------------------------------------------7-----7----|
|-------------------------------------------------5-----5----|
|--0-----0----0--0----0--0----0--0----0-----0--0-------------|


  E5                D5                C5                A5
   T        T
   |------3-------|  |------3-------|  |------3-------|  |------3-------|
   S  S  S  S  S  S  S  S  S  S  S  S  S  S  S  S  S  S  S  S  S  S  S  S
|-19p17p15----------17p15p14----------15p14p12----------17p15p14-----------|
|----------19p17p15----------17p15p13----------15p13p12----------17p15p13--|
|--------------------------------------------------------------------------|
|--------------------------------------------------------------------------|
|--------------------------------------------------------------------------|
|--------------------------------------------------------------------------|
|
|  Q                 Q                 Q                 Q
|--------------------------------------------------------------------------|
|--------------------------------------------------------------------------|
|--9-----------------7-----------------5-----------------2-----------------|
|--9-----------------7-----------------5-----------------2-----------------|
|--7-----------------5-----------------3-----------------0-----------------|
|--------------------------------------------------------------------------|


                                                                 D5
  |-------3--------|  |--------3---------|  |--------3---------|  |------3-------|
  S  S  S  S  S    S  S  S    S  S  S    S  S  S    S  S  S    S  S  S  S  S  S  S
|----------------------------------------------------------------------------------|
|----------------------------------------------------------------------------------|
|-9-11-12-11-12S==14-12-14---16-14-16---17-16-17S==19-17-19---21-19-17-16-17-16-14-|
|----------------------------------------------------------------------------------|
|----------------------------------------------------------------------------------|
|----------------------------------------------------------------------------------|
|
| PM--------------------------------------------------------|
| E        S    S     S    S     S    S     S    S     S    S     E        E
|----------------------------------------------------------------------------------|
|----------------------------------------------------------------------------------|
|-----------------------------------------------------------------7--------7-------|
|-----------------------------------------------------------------7--------7-------|
|-----------------------------------------------------------------5--------5-------|
|-0--------0----0-----0----0-----0----0-----0----0-----0----0----------------------|


                                                              C5    D5
   |-------3--------| |--------3---------|  |-------3-------| |----3----|
   S  S  S  S  S    S S  S    S  S  S    S  S  S   S  S S   S S S S S S S
|-------------------------------------------------------------------------|
|-------------------------------------------------------------------------|
|-16S14-12-14-12---11-9-11---12-11-12---14-12-11---9-11-9S==7S9-7S5S7S5p4-|
|-------------------------------------------------------------------------|
|-------------------------------------------------------------------------|
|-------------------------------------------------------------------------|
|
|  PM-----------------------------------------------------|
|  E        S    S    S    S     S    S     S    S    S   S   E     E
|-------------------------------------------------------------------------|
|-------------------------------------------------------------------------|
|-------------------------------------------------------------5-----7-----|
|-------------------------------------------------------------5-----7-----|
|-------------------------------------------------------------3-----5-----|
|--0--------0----0----0----0-----0----0-----0----0----0---0---------------|


  E5
   E  S  S  S   S  S  S  E  S  S  S  S  S  S
|--------------------14-19-19-20-19-17-15-14-|
|-----------------15-------------------------|
|--------------16----------------------------|
|----------16--------------------------------|
|-14-14-17-----------------------------------|
|--------------------------------------------|
|
|  Q        H.
|--------------------------------------------|
|--------------------------------------------|
|--------------------------------------------|
|--2-----------------------------------------|
|--2-----------------------------------------|
|--0-----------------------------------------|


  E5          D5          C5          A5
   S  S  S  S  S  S  S  S  S  S  S  S  S  S  S  S
|-17-15-14-17-15-14-------14----------------------|
|-------------------17-15----17-15-13-17-15-13-12-|
|-------------------------------------------------|
|-------------------------------------------------|
|-------------------------------------------------|
|-------------------------------------------------|
|
|  Q           Q           Q           Q
|-------------------------------------------------|
|-------------------------------------------------|
|--9-----------7-----------5-----------2----------|
|--9-----------7-----------5-----------2----------|
|--7-----------5-----------3-----------0----------|
|-------------------------------------------------|


 Pre-Chorus
              C5              E5                   C5          E5
   Q.            Q.            Q         +W
|-20b22---------22b24---------24b26---|-(24)----------------------|
|-------------------------------------|---------------------------|
|-------------------------------------|---------------------------|
|-------------------------------------|---------------------------|
|-------------------------------------|---------------------------|
|-------------------------------------|---------------------------|
|
|  PM-------|           PM--|             PM-----|       PM--|
|  S    S S S E  E    S S S S  E    E     S  S S S E E S S S S Q
|-------------------------------------|---------------------------|
|-------------------------------------|---------------------------|
|-------------------------------------|---------------------------|
|-------------5--5-------------9----9-|------------5-5---------9--|
|--3----3-3-3-3--3------7-7-7--7----7-|---3--3-3-3-3-3---7-7-7-7--|
|-------------------------------------|---------------------------|


          C5          E5            C5          Eb5
  PM----|   PM------|       PM----|   PM  PM--|
  S S S S E E S S S S E E   S S S S E E S S S S Q
|-------------------------|--------------------------|
|-------------------------|--------------------------|
|-------------------------|---------------------8----|
|---------5-----------9-5-|---------5-----------8----|
|-3-3-3-3---7---7-7-7-----|-3-3-3-3---7---7-7-7-6----|
|-------------------------|--------------------------|
|
| PM----|       PM--|       PM----|       PM--|
| S S S S E E S S S S E E   S S S S E E S S S S Q
|-------------------------|--------------------------|
|-------------------------|--------------------------|
|-------------------------|---------------------8----|
|---------5-5---------9-9-|---------5-5---------8----|
|-3-3-3-3-3-3---7-7-7-7-7-|-3-3-3-3-3-3---7-7-7-6----|
|-------------------------|--------------------------|


          C5          E5            C5          E5
  PM----|   PM------|
  S S S S E E S S S S E E   S S S S E E S S S S  Q
|-------------------------|--------------------------|
|-------------------------|--------------------------|
|-------------------------|---------------------<9>--|
|---------5-----------9-5-|---------5----------------|
|-3-3-3-3---7---7-7-7-----|-3-3-3-3---7---7-7-7------|
|-------------------------|--------------------------|
|
| PM----|       PM--|       PM----|       PM--|
| S S S S E E S S S S E E   S S S S E E S S S S  Q
|-------------------------|--------------------------|
|-------------------------|--------------------------|
|-------------------------|--------------------------|
|---------5-5---------9-9-|---------5-5----------9---|
|-3-3-3-3-3-3---7-7-7-7-7-|-3-3-3-3-3-3---7-7-7--7---|
|-------------------------|--------------------------|


          C5          E5
  PM----|   PM------|
                             |------3-------| |-----3------|
  S S S S E E S S S S E E    E  E  E  E  E  E E  E  E E E  E
|-------------------------|-------------------------------------|
|-------------------------|-------------------------------------|
|-------------------------|-------------------------------------|
|---------5-----------9-5-|-------------------------------------|
|-3-3-3-3---7---7-7-7-----|-12-14-15-10-12-14-9-10-12-7-9-10----|
|-------------------------|-------------------------------------|
|
| PM----|       PM--|
|                            |------3-------| |-----3------|
| S S S S E E S S S S E E    E  E  E  E  E  E E  E  E E E  E
|-------------------------|-------------------------------------|
|-------------------------|-------------------------------------|
|-------------------------|-------------------------------------|
|---------5-5---------9-9-|-------------------------------------|
|-3-3-3-3-3-3---7-7-7-7-7-|-12-14-15-10-12-14-9-10-12-7-9-10----|
|-------------------------|-------------------------------------|


   End Chorus
    E5/B             C5/G
    |--3--|  |--3--|  |-3--|
    E  E  E  E  E  E  E E  E  Q
||-------------------------------|
||o---------10-------------------|
||--9-11-12----12-11----9-11-12--|
||-------------------12----------|
||o------------------------------|
||-------------------------------|
|
|   H                 H
||-------------------------------|
||o------------------------------|
||--9-----------------5----------|
||--9-----------------5----------|
||o-7-----------------3----------|
||--7-----------------3----------|


 1.                              2.
  E5/B             C5/G    D5/A   E5/B             G5/DF#5/C#
  |--3--|  |--3--| |--3--|        |--3--|  |--3--|
  E  E  E  E  E  E E  E  E Q      E  E  E  E  E  E  Q   Q
|------------------------------||--------------------------|
|---------10------------------o||---------10---------------|
|-9-11-12----12-11-9-------9---||-9-11-12----12-11-12--11--|
|--------------------10-12-----||--------------------------|
|-----------------------------o||--------------------------|
|------------------------------||--------------------------|
|
| H                Q       Q      H                 Q   Q
|------------------------------||--------------------------|
|-----------------------------o||--------------------------|
|-9----------------5-------7---||-9----------------12--11--|
|-9----------------5-------7---||-9----------------12--11--|
|-7----------------3-------5--o||-7----------------10---9--|
|-7----------------3-------5---||-7----------------10---9--|


                                  1.
    E5/B             C5/G          E5/B             C5/G    D5/A
    |--3--|  |--3--|  |-3--|       |--3--|  |--3--| |--3--|
    E  E  E  E  E  E  E E  E  Q    E  E  E  E  E  E E  E  E Q
||-------------------------------|------------------------------||
||o---------10-------------------|---------10------------------o||
||--9-11-12----12-11----9-11-12--|-9-11-12----12-11-9-------9---||
||-------------------12----------|--------------------10-12-----||
||o------------------------------|-----------------------------o||
||-------------------------------|------------------------------||
|
|   H                 H            H                Q       Q
||-------------------------------|------------------------------||
||o------------------------------|-----------------------------o||
||--9-----------------5----------|-9----------------5-------7---||
||--9-----------------5----------|-9----------------5-------7---||
||o-7-----------------3----------|-7----------------3-------5--o||
||--7-----------------3----------|-7----------------3-------5---||


 2.
  E5/B             G5/DF#5/C#E5/D5/E5/B
                            3/4
  |--3--|  |--3--|
  E  E  E  E  E  E  Q   Q    Q  Q  E  S S
|--------------------------|---------12-0---|
|---------10---------------|----------------|
|-9-11-12----12-11-12--11--|-9--7--9--------|
|--------------------------|----------------|
|--------------------------|----------------|
|--------------------------|----------------|
|
| H                 Q   Q    Q  Q  Q
|--------------------------|----------------|
|--------------------------|----------------|
|-9----------------12--11--|-9--7--9--------|
|-9----------------12--11--|-9--7--9--------|
|-7----------------10---9--|-7--5--7--------|
|-7----------------10---9--|-7--5--7--------|


 Outro
 4/4
   S S  S S  S S S  S S S  S S S S  S S
|-14-0-15-0-17-0-0-14-0-0-15-0-0-0-12-0-|
|---------------------------------------|
|---------------------------------------|
|---------------------------------------|
|---------------------------------------|
|---------------------------------------|
|
|  W
|---------------------------------------|
|---------------------------------------|
|---------------------------------------|
|---------------------------------------|
|---------------------------------------|
|---------------------------------------|


            E5      D5      E5
   S S  S S  S  S S  S  S S  S  S S S  S S
|-14-0-15-0-14--0-0-10--0-0-12--0-0-0-12-0--|
|-------------------------------------------|
|-------------------------------------------|
|-------------------------------------------|
|-------------------------------------------|
|-------------------------------------------|
|
|  Q         E.      E.      Q.
|-------------------------------------------|
|-------------------------------------------|
|------------9-------7-------9--------------|
|------------9-------7-------9--------------|
|------------7-------5-------7--------------|
|-------------------------------------------|


                                B5
                                 T        T
                                 |--3--|  |--3--|
   S  S 
7 comments total. Showing first comments.
0 reply
Kevin67 wrote on January 21 2007, 08:06 pm

very nice

0 reply
metallicax6 wrote on June 26 2007, 08:45 pm

Amazing tab, but I was playing with it, and the first half of the first solo sounded really bad when I played with it. So I listened more carefully and it sounded like an F minor pentatonic scale...
I figured out the scale pattern, It goes like this...
d|-15-13-11----13-11-------11----------------------|
A|----------13-------13-11----13-11----13-11-------|
F|----------------------------------12-------12-10-|
C|-------------------------------------------------|
G|-------------------------------------------------|
D|-------------------------------------------------|

|-------------------------------------------|
|-11----------------------------------------|
|----12-10-8-12-10-8----10-8------8---------|
|--------------------10------10-8---10-8----|
|----------------------------------------10-|
|-------------------------------------------|

You got this part perfect though.
|--------------------------------------|
|------------------------------------8-|
|--------7------7-9----7-9-11-7-9-11---|
|-7-9-10---9-10-----10-----------------|
|--------------------------------------|
|--------------------------------------|

|-------------------------------8--------8-10-|-12\-
|------8-10----8-10-12-8-10-12----10-12-------|-----
|-9-11------11--------------------------------|-----
|---------------------------------------------|-----
|---------------------------------------------|-----
|---------------------------------------------|-----

+1 reply
metallicax6 wrote on July 16 2007, 09:48 pm

Wait sorry.. it's a Bb minor pentatonic.

I want to post or [tab]
guest
You may want to rate the tab now too:
select rating
Please do not post tabs as comments. Select "correction" instead!