Oops, an error
Loading. Please wait.

Bodom Beach Terror Bass Tab

ver1
ver1
More versions @911Tabs.com
2,700 views 3 this week
1 commentread comment
1 2 3 4 5
worth learning
x 4
Autoscroll
+/-
esc
set tempo
stop
Contributor
WARNING: You are trying to view
                                    content from Ultimate-Guitar.com
                                    in an unauthorized application,
                                    which is prohibited.

                                    Please use an official Ultimate
                                    Guitar Tabs application for iPhone,
                                    iPad or Android to access legitimate
                                    chords, guitar, bass, and drum tabs
                                    from Ultimate-Guitar.com database.

                                    Type "ultimate guitar tabs" in Apple
                                    App Store's or Android Market's
                                    search to find the application.
Children of Bodom
Bodom Beach Terror (Bass)
Hatecrew Death Roll
Tabbed By Kevin Cruz
Originally From Taborama.com

5-string Bass
Tunning: A D G C F

F-------|---|--------------------------|---------------------------|
C-------|---|-------------------------0|---------------------------|
G-------|---|-----------------------4--|-----------------------5--7|
D-------|-14|-2----2-2-2-2-----2-2-----|-2-----2-2-2-2----2-2------|
A-------|---|--------------------------|---------------------------|

F---------------------------|------------------------------|
C---------------------------|------------------------------|
G---------------------------|------------------------------|
D-2-----2-2-2-2----2-2---2-3|-2-----2-2-2-2----------------|
A---------------------------|---------------5----5---5----5|

F-------------------------|---------------------------|
C------------------------0|---------------------------|
G----------------------4--|-----------------------5--7|
D-2-----2-2-2-2---2-2-----|-2-----2-2-2-2----2-2------|
A-------------------------|---------------------------|

F---------------------------|------------------------------|
C---------------------------|------------------------------|
G---------------------------|------------------------------|
D-2-----2-2-2-2----2-2---2-3|-2-----2-2-2-2----------------|
A---------------------------|---------------5----5---5----5|

F--------------------------|--------------------------|
C--------------------------|--------------------------|
G--------------------------|--------------------------|
D-0--0---0--0---0--0---0--0|-0--0---0--0---0--0---3--1|
A--------------------------|--------------------------|

F--------------------------|--------------------------|
C--------------------------|--------------------------|
G--------------------------|---------------0----------|
D-0--0---0--0---0--0---0--0|-0--0---0--0----------3---|
A--------------------------|------------------3------0|

F--------------------------|--------------------------|
C--------------------------|--------------------------|
G--------------------------|--------------------------|
D-0--0---0--0---0--0---0--0|-0--0---0--0---0--0---3--1|
A--------------------------|--------------------------|

F--------------------------|--------------------------|
C--------------------------|--------------------------|
G--------------------------|---------------3--1-------|
D-0--0---0--0---0--0---0--0|-0--0---0--0--------------|
A--------------------------|----------------------4--3|

F--------------------------|--------------------------|
C--------------------------|--------------------------|
G--------------------------|--------------------------|
D-0--0---0--0---0--0---0--0|-0--0---0--0---0--0---3--1|
A--------------------------|--------------------------|

F--------------------------|--------------------------|
C--------------------------|--------------------------|
G--------------------------|---------------3--1-------|

D-0--0---0--0---0--0---0--0|-0--0---0--0--------------|
A--------------------------|----------------------4--3|

F------------------------------|----------|
C------------------------------|----------|
G------------------------------|----------|
D-0-2-2-2-2-----2-2-2-2-0-0-0-0|-0-2-2-2-2|
A------------------------------|----------|

F------------------------------|----------------------|
C------------------------------|----------------------|
G------------------------------|---------------------1|
D-0-2-2-2-2-----2-2-2-2-0-0-0-0|-0-2-2-2-2-----3-2-0--|
A------------------------------|----------------------|

F------------------------------|----------|
C------------------------------|----------|
G------------------------------|----------|
D-0-2-2-2-2-----2-2-2-2-0-0-0-0|-0-2-2-2-2|
A------------------------------|----------|

F------------------------------|----------4--6-----------|
C------------------------------|-4--4-4---------4--4--(2)|
G------------------------------|-------------------------|
D-0-2-2-2-2-----2-2-2-2-0-0-0-0|-------------------------|
A------------------------------|-------------------------|

F--|--------------------------------|--|
C--|--------------4--4-4-4-4-7---7-7|--|
G-4|--5---5-5-5-5-------------------|-4|
D--|--------------------------------|--|
A--|--------------------------------|--|

F--|--------------------------------|-------------------------------|
C--|--------------4--4-4-4-4-7---7-7|-------------------------------|
G-4|--5---5-5-5-5-------------------|-4--4-4-4-4-4---4-4-4-4-4---4-4|
D--|--------------------------------|-------------------------------|
A--|--------------------------------|-------------------------------|

F-----------------------------|-----------------------------|--|
C-----------------------------|-----------------------------|--|
G-5--5-5-5-5-7--7-7-7-7-9--9-9|-7--7-7-7-7-7--7-7-7-7-7--7-7|-7|
D-----------------------------|-----------------------------|--|
A-----------------------------|-----------------------------|--|

F----------------------|---------------------|
C----------------------|---------------------|
G----------------------|---------------------|
D-2----5--9--9----9--10|--10--10--12-12---12-|
A----------------------|---------------------|

F---------------------------|--------------------------------|-------|
C---------------------------|--------------------------------|-------|
G---------------------------|--------------------------------|------4|
D--2--2---2--5---5--5---5--7|--7--7---7--10---10--10---10--10|-2-----|
A---------------------------|--------------------------------|-------|


F------|-------|-------|---------------------------|
C------|-------|-------|--------------------------0|
G------|--5---7|--2---4|-----------------------4---|
D-2---0|-------|-------|-2----2-2-2-2----2-2-------|
A------|-------|-------|---------------------------|

F--------------------------|--------------------------|
C--------------------------|--------------------------|
G----------------------5--7|--------------------------|
D-2-----2-2-2-2---2-2------|-2-----2-2-2-2---2-2--2--3|
A--------------------------|--------------------------|

F-------------------------|--------------------------|
C-------------------------|-------------------------0|
G-------------------------|----------------------4---|
D-2----2-2-2-2------------|-2-----2-2-2-2---2-2------|
A--------------5--5---5--5|--------------------------|

F--------------------------|--------------------------|
C--------------------------|--------------------------|
G----------------------5--7|--------------------------|
D-2-----2-2-2-2---2-2------|-2-----2-2-2-2---2-2--2--3|
A--------------------------|--------------------------|

F-------------------------|--------------------------|
C-------------------------|--------------------------|
G-------------------------|--------------------------|
D-2----2-2-2-2------------|-0--0--0--0--0--0--0--0---|
A--------------5--5---5--5|--------------------------|

F--------------------------|--------------------------|
C--------------------------|--------------------------|
G--------------------------|--------------------------|
D-0--0---0--0---0--0---3--1|-0--0---0--0---0--0---0--0|
A--------------------------|--------------------------|

F--------------------------|--------------------------|
C--------------------------|--------------------------|
G---------------3--1-------|--------------------------|
D-0--0---0--0--------------|-0--0---0--0---0--0---0--0|
A----------------------4--3|--------------------------|

F--------------------------|--------------------------|
C--------------------------|--------------------------|
G--------------------------|--------------------------|
D-0--0---0--0---0--0---3--1|-0--0---0--0---0--0---0--0|
A--------------------------|--------------------------|

F--------------------------|--|----------------|--|
C--------------------------|--|----------------|--|
G---------------3--1-------|--|----------------|--|
D-0--0---0--0--------------|-2|-2--------0---0-|-2|
A----------------------4--3|--|----------------|--|

F-----------------|
C-----------------|
G-----------------|
D-2-----0--0--0--2|
A-----------------|

F-----------------------------------|
C-----------------------------------|
G-----------------------------------|  X3
D-2-2-2-2--2-2-2-2--2-2-2-2--2-2-2-2|
A-----------------------------------|

F-------------------------------|
C-------------------------------|
G-------------------------------|
D-2-2-2-2--2-2-2-2--0---0---0--2|
A-------------------------------|

F-----------------------------------|
C-----------------------------------|
G-----------------------------------|  X3
D-2-2-2-2--2-2-2-2--2-2-2-2--2-2-2-2|
A-----------------------------------|


F-------------------------------|
C-------------------------------|
G-------------------------------|
D-2-2-2-2--2-2-2-2--0---0---0--2|
A-------------------------------|

F------|------|
C------|------|
G------|------|
D--0--2|--0--2|
A------|------|

F-----------------------------|----------|
C-----------------------------|----------|
G-----------------------------|----------|
D-0-2-2-2-2----2-2-2-2-0-0-0-0|-0-2-2-2-2|
A-----------------------------|----------|

F-----------------------------|------------------------|
C-----------------------------|------------------------|
G-----------------------------|-----------------------1|
D-0-2-2-2-2----2-2-2-2-0-0-0-0|-0-2-2-2-2----3--2--0---|
A-----------------------------|------------------------|

F-----------------------------|----------|
C-----------------------------|----------|
G-----------------------------|----------|
D-0-2-2-2-2----2-2-2-2-0-0-0-0|-0-2-2-2-2|
A-----------------------------|----------|

F-----------------------------|---------4--6-----------|
C-----------------------------|-4--4-4--------6--4--(2)|
G-----------------------------|------------------------|
D-0-2-2-2-2----2-2-2-2-0-0-0-0|------------------------|
A-----------------------------|------------------------|

F-------|----------|----------6--9--6------|
C-------|-----4---7|-------6-----------6---|
G-4----4|-5--------|-4--7-----------------7|
D-------|----------|-----------------------|
A-------|----------|-----------------------|

F-----------------------------------|
C-----------------------------------|
G-4-4-4-4--4-4-4-4--4-4-4-4--4-4-4-4|
D-----------------------------------|
A-----------------------------------|

F-----------------------------------|
C-----------------------------------|
G-5-5-5-5--5-5-7-7--7-7-7-7--9-9-9-9|
D-----------------------------------|
A-----------------------------------|

F---------------------------------------|
C---------------------------------------|
G-7-7-7-7--7-7-9-9--9-9-9-9--11-11-11-11|
D---------------------------------------|
A---------------------------------------|

F-------------------------------------------------|
C-------------------------------------------------|
G-12-12-12-12--12-12-14-14-14-14-14-14-14-14-14-14|
D-------------------------------------------------|
A-------------------------------------------------|

F--------------------|-------------------|-----------------------|
C--------------------|-------------------|-----------------------|
G--------------------|-------------------|-----------------------|
D-2---2--9--9---9--10|-10---10--12-12--12|-2--2--2--5--5--5--5--7|
A--------------------|-------------------|-----------------------|

F------|------|------|--------------------|------------------|
C------|------|------|--------------------|------------------|
G-----4|-5---7|-2---4|--------------------|------------------|
D-2----|------|------|-2---2--9--9---9--10|-10--10-12-12---12|
A------|------|------|--------------------|------------------|

F-----------------------|------------------------|-----|-----|
C-----------------------|------------------------|-----|-----|
G-----------------------|------------------------|----4|-----|
D-2--2--2--5--5--5--5--7|-7--7--7--10-10-10-10-10|-2---|-2--0|
A-----------------------|------------------------|-----|-----|

F------|------|--------------------------|--------------------------|
C------|------|--------------------------|--------------------------|
G-5---7|-2---4|--------------------------|--------------------------|
D------|------|-2-----2-2-2-2---2-2--2--3|-2-----2-2-2-2---2-2--3--2|
A------|------|--------------------------|--------------------------|

F------------------------------|--------------------------|
C------------------------------|--------------------------|
G------------------------------|--------------------------|
D-2-----2-2-2-2----------------|-2-----2-2-2-2---2-2--2--3|
A---------------5-5-5-5-5-5-5-5|--------------------------|

F------------------------------|----------------------|
C------------------------------|----------------------|
G------------------------------|----------------------|
D-2-----2-2-2-2---2-2--3--5|-2-----2-2-2-2---2-2--2--3|
A------------------------------|----------------------|

F------------------------------|--------------------------|
C------------------------------|--------------------------|
G------------------------------|--------------------------|
D-2-----2-2-2-2----------------|-2-----2-2-2-2---2-2--2--3|
A---------------5-5-5-5-5-5-5-5|--------------------------|

F--------------------------|--------------------------|
C--------------------------|--------------------------|
G--------------------------|--------------------------|
D-2-----2-2-2-2---2-2--3--5|-2-----2-2-2-2---2-2--2--3|
A--------------------------|--------------------------|

F------------------------------|--------------------------|
C------------------------------|--------------------------|
G------------------------------|--------------------------|
D-2-----2-2-2-2----------------|-5-----5-5-5-5---5-5--6--5|
A---------------5-5-5-5-5-5-5-5|--------------------------|

F---------------------------|---------------------------|
C---------------------------|---------------------------|
G---------------------------|---------------------------|
D-5-----5-5-5-5---5-5---6--8|-5-----5-5-5-5---5-5---6--5|
A---------------------------|---------------------------|

F------------------------------|---------------------------|
C------------------------------|---------------------------|
G------------------------------|---------------------------|
D-5-----5-5-5-5-3-3-3-3-3-3-3-3|-1-----1-1-1-1---1-1---1--3|
A------------------------------|---------------------------|

F---------------------------|---------------------------|
C---------------------------|---------------------------|
G---------------------------|---------------------------|
D-5-----5-5-5-5---5-5---5--3|-1-----1-1-1-1---1-1---1--3|
A---------------------------|---------------------------|

F--|--------------------------------|
C--|--------------------------------|
G--|-0-0-0-0-0-0-0-0-0-0-0-0-0-0-0-0|
D-0|--------------------------------|
A--|--------------------------------|

F--------------------------------|
C--------------------------------|
G-0-0-0-0-0-0-0-0-0-0-0-0-0-0-0-0| X7
D--------------------------------|
A--------------------------------|

F-----------|-----------|
C-0---------|-0---------|
G----3--1--0|----3-----0|
D-----------|-------3---|
A-----------|-----------|
comments
print report bad tab
1 comment total.
+1 reply
Suckthebeef wrote on February 5 2009, 03:27 pm

I'm sorry but this is just awful. It's impossible to follow, partly because it's wrong, but also because you have very few repeats, does this mean that he just plays really slowly? I think not.

I want to post or [tab]
guest
You may want to rate the tab now too:
select rating
Please do not post tabs as comments. Select "correction" instead!