Oops, an error
Loading. Please wait.

Bodom Beach Terror Tab

ver5
9,885 views 1 this week
2 commentsread comments
1 2 3 4 5
accurate
x 6
Autoscroll
+/-
esc
set tempo
stop
Contributor
Hey! There's an official Ultimate Guitar app which is ideal
for learning songs when you're away from computer. Get the app
WARNING: You are trying to view
                                    content from Ultimate-Guitar.com
                                    in an unauthorized application,
                                    which is prohibited.

                                    Please use an official Ultimate
                                    Guitar Tabs application for iPhone,
                                    iPad or Android to access legitimate
                                    chords, guitar, bass, and drum tabs
                                    from Ultimate-Guitar.com database.

                                    Type "ultimate guitar tabs" in Apple
                                    App Store's or Android Market's
                                    search to find the application.
Band: Children Of Bodom
Album: Hate Crew Deathroll
Song: Bodom Beach Terror

Copyright (c) Century Media, 2003
Version 1.0 - 11/9/06

Transcribed By: William Davis (MaskOfSanity142)
Email: March_Of_Destruction@yahoo.com

Tuning: D G C F A D (From Top String Down)

                                                                    x2
D|--------------------------------------------------------------------|
A|--------------------------------------------------------------------|
F|---------------0--------------------------------0-------------------|
C|--4---------4--0--4---------7--7--4----------4--0--4----------------|
G|--4---------4-----4---------5--7--4----------4-----4----------------|
D|--2-2222-22-------2-2222-22-------2-2222-22--------2--222220-0-0-0--|
      **** **         **** **         **** **           ****** * * *

D|-----------------------------------------------------|
A|-----------------------------------------------------|
F|-----------------------------------------------------|
C|-----------------------------------------------------|
G|--5h7--------5h7----10p7----5h7-----------------6-3--|
D|------000000-----00------00-----0000-1p0-0-3p1--4-1--|
        ******     **      **     ****     *

D|--------------------------------------------------------------------|
A|--------------------------------------------------------------------|
F|------------------------------------------------------------8h9h11--|
C|-----------------------------------------------------8h9h11---------|
G|--5h7--------5h7----10p7----5h7---------------7h9h11----------------|
D|------000000-----00------00-----000000-7h9h11-----------------------|
        ******     **      **     ******

D|-----------------------------------------------------|
A|-----------------------------------------------------|
F|-----------------------------------------------------|
C|-----------------------------------------------------|
G|--5h7--------5h7----10p7----5h7-----------------6-3--|
D|------000000-----00------00-----0000-1p0-0-3p1--4-1--|
        ******     **      **     ****     *

D|-------------------------------------------------|
A|-------------------------------------------------|
F|-------------------------------------------------|
C|----------------------------------------5---7----|
G|--5h7--------5h7----10p7----5h7---------3-5-5-7--|
D|------000000-----00------00-----000000----3---5--|
        ******     **      **     ******
                                                     x2
D|-----------------------------------------------------|
A|-----------------------------------------------------|
F|-----------------------------------------------------|
C|-----------------------------------------------------|
G|--5h7--------5h7----10p7----5h7-----------------6-3--|
D|------000000-----00------00-----0000-1p0-0-3p1--4-1--|
        ******     **      **     ****     *

D|-----------------------------------------------------|
A|-----------------------------------------------------|
F|-----------------------------------------------------|
C|--------------------------------------------5-4---3--|
G|--------------------------------------------5-4---1--|
D|--02222--222200002222--02222--222200002222--3-2-0----|
    ****   ***********   ****   ***********   * * *

D|-----------------------------------------------------------|
A|---------------------------------------------------14-12\--|
F|----------------------------------------------9-11---------|
C|----------------------------------------------9------------|
G|---------------------------------------4-4-4---------------|
D|--02222--222200002222--02222--22220000-2-2-2---------------|
 |  ****   ***********   ****   ********
 |
 |
D|---------------------------------------------------14-12\--|
A|----------------------------------------10-10---10---------|
F|----------------------------------------------9------------|
C|--77777--777766667777--77777--77776666-7-------------------|
G|-----------------------------------------------------------|
D|-----------------------------------------------------------|
    ****   ***********   ****   ********

D|-----4------------------------55--------4---------------------------55--|
A|--------4------------------55--------------4---------------------55-----|
F|--6--------6--7-------7777--------6--6--------6--6--7-------7777--------|
C|--6-----------7--7777-------------6--6--------6--6--7--7777-------------|
G|--4-----------5-------------------4--4--------4--4--5-------------------|
D|------------------------------------------------------------------------|
                   **** **** ** **                       **** **** ** **

D|--------------------------------------------------------------------24\12-|
A|--------------------------------------------------------------------------|
F|-6------6------6--------------------------------------------------9-------|
C|-6------6------6----7------9------11----9------9------9---------9---------|
G|-4-4444-4-4444-4-44-5-5555-7-7777-9--99-7-7777-7-7777-7-7777--7-----------|
D|--------------------------------------------------------------------------|
 |   ****   ****   **   ****   ****    **   ****   ****   ****
 |
 |
D|--------------------------------------------------------------------------|
A|--------------------------------------------------------------------------|
F|-6------6------6----------------------------------------------9-----------|
C|-6------6------6----7------9------11----9------9------9-------9-----------|
G|-4-4444-4-4444-4-44-5-5555-7-7777-9--99-7-7777-7-7777-7-7777--7-----------|
D|--------------------------------------------------------------------------|
     ****   ****   **   ****   ****    **   ****   ****   ****

                                                                                         
                                                             x2
|---------------------------------------------------------------------------|
|---------------------------------------------------------------------------|
|------------------------------------------9-9-9-9/11-11-11-11/14-14-14-14\-|
|-11-11\6-6-6-6/7-7-7-7/9-9-9-9-9-11-11-11-7-7-7-7/-9--9--9--9/12-12-12-12\-|
|--9--9\4-4-4-4/5-5-5-5/7-7-7-7-7--9--9--9----------------------------------|
|---------------------------------------------------------------------------|


D|-------------------9-7------7------------------------------------------|
A|------10-9-------------10-9---9-------9-10-9------------9-10-9---------|
F|--11-------9-11-----------------9--11--------11-9-11-------------11-9--|
C|-----------------------------------------------------------------------|
G|-----------------------------------------------------------------------|
D|-----------------------------------------------------------------------|
 |
 |
 |
D|-----------------------------------------------------------------------|
A|-----------------------------------------------------------------------|
F|-----------------------------------------------------------------------|
C|-----------6-------------------9-------7-------9-----------------------|
G|--4--------4-----------4-------7-------5-------7-----------9-------11--|
D|--2--------------------2-----------------------------------7--------9--|


|---------------------------------------------------------------------------|
|---------------------------------------------------------------------------|
|------------------------------------------9-9-9-9/11-11-11-11/14-14-14-14\-|
|-11-11\6-6-6-6/7-7-7-7/9-9-9-9-9-11-11-11-7-7-7-7/-9--9--9--9/12-12-12-12\-|
|--9--9\4-4-4-4/5-5-5-5/7-7-7-7-7--9--9--9----------------------------------|
|---------------------------------------------------------------------------|


D|-------------------9-7------7------------------------------------------|
A|------10-9-------------10-9---9-------9-10-9------------9-10-9---------|
F|--11-------9-11-----------------9--11--------11-9-11-------------11-9--|
C|-----------------------------------------------------------------------|
G|-----------------------------------------------------------------------|
D|-----------------------------------------------------------------------|
 |
 |
 |
D|-----------------------------------------------------------------------|
A|-----------------------------------------------------------------------|
F|-----------------------------------------------------------------------|
C|-----------6-------------------9-------7-------9-----------------------|
G|--4--------4-----------4-------7-------5-------7-----------9-------11--|
D|--2--------------------2-----------------------------------7--------9--|


D|--------------------------------------------------------------------|
A|--------------------------------------------------------------------|
F|---------------0--------------------------------0-------------------|
C|--4---------4--0--4---------7--7--4----------4--0--4----------------|
G|--4---------4-----4---------5--7--4----------4-----4----------------|
D|--2-2222-22-------2-2222-22-------2-2222-22--------2--222220-0-0-0--|
      **** **         **** **         **** **           ****** * * *

D|----------------------------------------------------------------|
A|----------------------------------------------------------------|
F|---------------0--------------------------------0---------------|
C|--4---------4--0--4---------7--7--4----------4--0--4--------4~--|
G|--4---------4-----4---------5--7--4----------4-----4------------|
D|--2-2222-22-------2-2222-22-------2-2222-22--------2--2222------|
 |    **** **         **** **         **** **           **** P.H.
 |
 |
D|----------------------------------------------------------------|
A|----------------------------------------------------------------|
F|---------------0--------------------------------0-----------2~--|
C|--4---------4--0--4---------7--7--4----------4--0--4------------|
G|--4---------4-----4---------5--7--4----------4-----4------------|
D|--2-2222-22-------2-2222-22-------2-2222-22--------2--2222------|
      **** **         **** **         **** **           **** P.H.

D|-----------------------------------------------------|
A|-----------------------------------------------------|
F|-----------------------------------------------------|
C|-----------------------------------------------------|
G|--5h7--------5h7----10p7----5h7-----------------6-3--|
D|------000000-----00------00-----0000-1p0-0-3p1--4-1--|
        ******     **      **     ****     *

D|--------------------------------------------------------------------|
A|--------------------------------------------------------------------|
F|------------------------------------------------------------8h9h11--|
C|-----------------------------------------------------8h9h11---------|
G|--5h7--------5h7----10p7----5h7---------------7h9h11----------------|
D|------000000-----00------00-----000000-7h9h11-----------------------|
        ******     **      **     ******

D|-----------------------------------------------------|
A|-----------------------------------------------------|
F|-----------------------------------------------------|
C|-----------------------------------------------------|
G|--5h7--------5h7----10p7----5h7-----------------6-3--|
D|------000000-----00------00-----0000-1p0-0-3p1--4-1--|
        ******     **      **     ****     *

D|-------------------------------------------------|
A|-------------------------------------------------|
F|-------------------------------------------------|
C|----------------------------------------5---7----|
G|--5h7--------5h7----10p7----5h7---------3-5-5-7--|
D|------000000-----00------00-----000000----3---5--|
        ******     **      **     ******

D|-------------------------------------------------------------|
A|-------------------------------------------------------------|
F|-------------------------------------------------------------|
C|----------------5-------------------------5------------------|
G|------------4-------------------------4----------------------|
D|--0-2-2-0-2---2---0-6-3-0-2-0-2-3-0-2---2---0-6-3-0-2-0-2-3--|
 |  * * * * *   *   * * * * * * * * * *   *   * * * * * * * *
 |
 |
D|-------------------------------------------------------------|
A|-------------------------------------------------------------|
F|-------------------------------------------------------------|
C|-------------------------------------------------------------|
G|--4-------------------------4-----------------2--------2-----|
D|--2-------------------------2-----------------0--------0-----|


D|-----------------------------------------------|
A|-----------------------------------------------|
F|-----------------------------------------------|
C|----------5------------------------------------|
G|------4-------------------------------2-2-2-4--|
D|--0-2---2---0-6-3-0-2-0-2-3-0-2-2-0-2-0-0-0-2--|
 |  * *   *   * * * * * * * * * * * * * * * *
 |
 |
D|-----------------------------------------------|
A|-----------------------------------------------|
F|-----------------------------------------------|
C|-----------------------------------------------|
G|--4--------------------4--------------2-2-2-4--|
D|--2--------------------2--------------0-0-0-2--|
                                        * * *

D|--------------------------------------------------------------------|
A|--------------------------------------------------------------------|
F|--------------------------------------------------------------------|
C|----------------5-------------------------5------------------| -----|
G|------------4-------------------------4----------------------|   ---|
D|--0-2-2-0-2---2---0-6-3-0-2-0-2-3-0-2---2---0-6-3-0-2-0-2-3--|   ---|
    * * * * *   *   * * * * * * * * * *   *   * * * * * * * *       | Play
                                                                    |  x2
D|-----------------------------------------------|                 ---|
A|-----------------------------------------------|                 ---|
F|-----------------------------------------------| -------------------|
C|----------5---------------------------------------------------------|
G|------4-------------------------------2-2-2-4-----------------------|
D|--0-2---2---0-6-3-0-2-0-2-3-0-2-2-0-2-0-0-0-2-----------------------|
    * *   *   * * * * * * * * * * * * * * * *

Solo
D|-17-17-17-17-17-17-19-19-19-19-19-19-21-21-21-21-21-21-22-22-22-22-22-22--|
A|--------------------------------------------------------------------------|
F|--------------------------------------------------------------------------|
C|--------------------------------------------------------------------------|
G|--------------------------------------------------------------------------|
D|--------------------------------------------------------------------------|

|-24-24-24-24-24-24-24pb25-24pb25-24pb25-24pb25-24pb25-24pb25-24pb26-24pb26-|
|---------------------------------------------------------------------------|
|---------------------------------------------------------------------------|
|---------------------------------------------------------------------------|
|---------------------------------------------------------------------------|
|---------------------------------------------------------------------------|

D|--24pb26-24pb26-24pb26-24pb26-24pb26-24pb26-24pb26-24pb26-24pb26-24pb26--|
A|-------------------------------------------------------------------------|
F|-------------------------------------------------------------------------|
C|-------------------------------------------------------------------------|
G|-------------------------------------------------------------------------|
D|-------------------------------------------------------------------------|

D|-20b24------22b24---------------14----------------14----------------------|
A|-----------------------------14----17-14-------14----17-14-15-14-------14-|
F|----------------------16b18--------------16b18-------------------16b18----|
C|--------------------------------------------------------------------------|
G|--------------------------------------------------------------------------|
D|--------------------------------------------------------------------------|

D|------------------------------------------------------------------------|
A|------------------------------------------------------------------------|
F|--17-16-14----16----14--------------------------------------------------|
C|-----------16----16----16----14-14----------14----------14--------------|
G|--------------------------16-------14-15-16----14-15-16-------12----14--|
D|-----------------------------------------------------------14----14-----|

|-------------------------17b19-19-14-19b21-19-17----22b24-22b24-22b24-22b~|
|-17-14-------16-14-------------------------------15-----------------------|
|-------17-16-------17-16--------------------------------------------------|
|--------------------------------------------------------------------------|
|--------------------------------------------------------------------------|
|--------------------------------------------------------------------------|

D|--19-----------17--------------------------------------------------------|
A|-----19-----------19-----------------------------------------------------|
F|--------22-18--------22-18-----------------------------------------------|
C|---------------------------22-18-------18-16-------16-14-----------------|
G|---------------------------------19-17-------19-16-------16-14--14---14--|
D|-------------------------------------------------------------------------|

|-------------------------------3/5-0-0-5/7-0-0-7/9-0-0-10/12-0-0-7-9--7----|
|-------------14----14----14---------------------------------------------10-|
|-------------14----14----14------------------------------------------------|
|---------------------------------------------------------------------------|
|-16-16-16-16----16----16---------------------------------------------------|
|---------------------------------------------------------------------------|

D|--------------------------------------------------------------------------|
A|--8-7---------------------------------------------------------------------|
F|------9-7-6---------------------------------------------------------------|
C|------------9-7-6------------------------------------------------9--------|
G|------------------9-7-5----------9-------9-11----9-11-12-9-11-12---11-12--|
D|-------------------------9-11-12---11-12------12--------------------------|
                           *  *  * *  *  * *  *  * *  *  * *  *  * *  *  *

D|--------------------------------------------------------------------------|
A|--------------------------------------------12-14----12-14-15-12-14-15-17-|
F|-------------------------9-11----9-11-13-14-------14----------------------|
C|-9-11----9-11-12-9-11-12------12------------------------------------------|
G|------12------------------------------------------------------------------|
D|--------------------------------------------------------------------------|
   *  *  * *  *  * *  *  * *  *  * *  *  *  *

D|-14-16-19-16p12----------16/21p16----------16-22-24b24--24~---19-21-22-19-|
A|----------------12----12----------17----17--------------------------------|
F|-------------------13----------------16-----------------------------------|
C|--------------------------------------------------------------------------|
G|--------------------------------------------------------------------------|
D|--------------------------------------------------------------------------|

|21----19----------------19-21-22-19-21----19----------------19-21-22-21-19-|
|---22----21-22-19-21-22----------------22----21-22-19-21-22----------------|
|---------------------------------------------------------------------------|
|---------------------------------------------------------------------------|
|---------------------------------------------------------------------------|
|---------------------------------------------------------------------------|

|17-21-19-17----19-17----------------------------------14h17--21-22/24--24b~|
|------------21-------21-19-17----------------------14----------------------|
|------------------------------19-18-16----------14-------------------------|
|---------------------------------------19-18-16----------------------------|
|---------------------------------------------------------------------------|
|---------------------------------------------------------------------------|
End Solo

Solo Rhythm
D|---------------------------------------------------------|
A|---------------------------------------------------------|
F|---------------------------------------------------------|
C|---------------------------------------------------------|
G|--2--4---------------------------------------------2--4--|
D|--0--2---------------------------------------------0--2--|

D|-----------------------------------------------------|
A|-----------------------------------------------------|
F|-----------------------------------------------------|
C|--------------------------------------------5-4---3--|
G|--------------------------------------------5-4---1--|
D|--02222--222200002222--02222--222200002222--3-2-0----|
    ****   ***********   ****   ***********   * * *

D|-------------------------------------------------------------14--12\--|
A|-------------------------------------------10-10----10---10-----------|
F|-------------------------------------------------------9--------------|
C|----------------------------------------7-----------------------------|
G|----------------------------------------------------------------------|
D|--02222--222200002222--02222--22220000--------------------------------|
    ****   ***********   ****   ********

D|-------------------------------------------------------------|
A|-------------------------------------------------------------|
F|-------------------------------------------------------------|
C|--6--------------7-------------6-------------7---------------|
G|--4--------------5-------------4-------------5---------------|
D|-------------------------------------------------------------|

|---------------------------------------------------------------------------|
|---------------------------------------------------------------------------|
|---------------------------------------------------------------------------|
|---------------------------------------------------------------------------|
|-44444-44444-44444-55555-77777-99999-77777-77777-77777-77777-77777-77777---|
|---------------------------------------------------------------------------|
  ****  ****  ****  ****  ****  ****  ****  ****  ****  ****  ****  ****
End Rhythm

|---------------------------------------------------------------------------|
|---------------------------------------------------------------------------|
|------------------------------------------9-9-9-9/11-11-11-11/14-14-14-14\-|
|-11-11\6-6-6-6/7-7-7-7/9-9-9-9-9-11-11-11-7-7-7-7/-9--9--9--9/12-12-12-12\-|
|--9--9\4-4-4-4/5-5-5-5/7-7-7-7-7--9--9--9----------------------------------|
|---------------------------------------------------------------------------|

D|-------------------9-7------7------------------------------------------|
A|------10-9-------------10-9---9-------9-10-9------------9-10-9---------|
F|--11-------9-11-----------------9--11--------11-9-11-------------11-9--|
C|-----------------------------------------------------------------------|
G|-----------------------------------------------------------------------|
D|-----------------------------------------------------------------------|
 |
 |
 |
D|-----------------------------------------------------------------------|
A|-----------------------------------------------------------------------|
F|-----------------------------------------------------------------------|
C|-----------6-------------------9-------7-------9-----------------------|
G|--4--------4-----------4-------7-------5-------7-----------9-------11--|
D|--2--------------------2-----------------------------------7--------9--|

|---------------------------------------------------------------------------|
|---------------------------------------------------------------------------|
|------------------------------------------9-9-9-9/11-11-11-11/14-14-14-14\-|
|-11-11\6-6-6-6/7-7-7-7/9-9-9-9-9-11-11-11-7-7-7-7/-9--9--9--9/12-12-12-12\-|
|--9--9\4-4-4-4/5-5-5-5/7-7-7-7-7--9--9--9----------------------------------|
|---------------------------------------------------------------------------|

D|-------------------9-7------7------------------------------------------|
A|------10-9-------------10-9---9-------9-10-9------------9-10-9---------|
F|--11-------9-11-----------------9--11--------11-9-11-------------11-9--|
C|-----------------------------------------------------------------------|
G|-----------------------------------------------------------------------|
D|-----------------------------------------------------------------------|
 |
 |
 |
D|-----------------------------------------------------------------------|
A|-----------------------------------------------------------------------|
F|-----------------------------------------------------------------------|
C|-----------6-------------------9-------7-------9-----------------------|
G|--4--------4-----------4-------7-------5-------7-----------9-------11--|
D|--2--------------------2-----------------------------------7--------9--|

    W     +W      +W      +W
D|-----------------------------|
A|-----------------------------|
F|-----------------------------|
C|-----------------------------|
G|--4-----(4)-----(4)-----(4)--|
D|--2-----(2)-----(2)-----(2)--|

Under Keyboard Solo                                                 x2
D|--------------------------------------------------------------------|
A|--------------------------------------------------------------------|
F|---------------0--------------------------------0-------------------|
C|--4---------4--0--4---------7--7--4----------4--0--4----------------|
G|--4---------4-----4---------5--7--4----------4-----4----------------|
D|--2-2222-22-------2-2222-22-------2-2222-22--------2--222220-0-0-0--|
      **** **         **** **         **** **           ****** * * *

D|---------------------------------------------------------------------|
A|---------------------------------------------------------------------|
F|---------------0---------------------------------0-------------------|
C|--7---------7--0--7---------12--12--7---------7--0--7----------------|
G|--7---------7-----7---------10--12--7---------7-----7----------------|
D|--5-5555-55-------5-5555-55---------5-5555-55-------5--555555-5-5-5--|
      **** **         **** **           **** **          ****** * * *

D|--------------------------------------------------------------------|
A|--------------------------------------------------------------------|
F|---------------0--------------------------------0-------------------|
C|--4---------4--0--4---------7--7--4----------4--0--4----------------|
G|--4---------4-----4---------5--7--4----------4-----4----------------|
D|--2-2222-22-------2-2222-22-------2-2222-22--------2--222220-0-0-0--|
      **** **         **** **         **** **           ****** * * *

                                               x2
D|-----------------------------------------------|
A|-----------------------------------------------|
F|---------------77-55-----------------77-55-----|
C|--777777-55-77-------55-777777-55-77-------55--|
G|-----------------------------------------------|
D|-----------------------------------------------|
    ****** ** ** ** ** ** ****** ** ** ** ** **

                                                    x2
D|----------------------------------------------------|
A|---------------1010-88------------------1010-88-----|
F|--999999-77-99----------77-999999-77-99---------77--|
C|----------------------------------------------------|
G|----------------------------------------------------|
D|----------------------------------------------------|
    ****** ** **  * * **  ** ****** ** **  * * ** **

                           W  +W    +W         +W
D|--------------------------------------------------|
A|--------------------------------------------------|
F|--9--7--5--4----2---------------------------------|
C|--7--5--3--2----0--5------------------------------|
G|-------------------3--5--2--(2)---(2)--------(2)--|
D|----------------------3--0--(0)---(0)--------(0)--|


Tabulatre Notation:
W = Wammy Bar
+W = Increase Bar
/ and \ = Slide
~ = Vibrato
() = Ghost Note
h = Hammer-On
p = Pull-Off
pb = Pre-bend
b = Bend
* = Palm Mute
P.H. = Pinch Harmonic
comments
print report bad tab
2 comments total.
0 reply
.CoB. wrote on September 2 2007, 05:47 pm

good

0 reply
.CoB. wrote on September 2 2007, 05:47 pm

only tab with the break before the solo that is correct 5 stars

I want to post or [tab]
guest
You may want to rate the tab now too:
select rating
Please do not post tabs as comments. Select "correction" instead!