Oops, an error
Loading. Please wait.

Children Of Bodom Tab

ver1
ver1

Whole song

Interactive

More versions @911Tabs.com
40,326 views 30 this week
21 commentsread comments
1 2 3 4 5
accurate
x 13
Autoscroll
+/-
esc
set tempo
stop
Hey! There's an official Ultimate Guitar app which is ideal
for learning songs when you're away from computer. Get the app
WARNING: You are trying to view
                                    content from Ultimate-Guitar.com
                                    in an unauthorized application,
                                    which is prohibited.

                                    Please use an official Ultimate
                                    Guitar Tabs application for iPhone,
                                    iPad or Android to access legitimate
                                    chords, guitar, bass, and drum tabs
                                    from Ultimate-Guitar.com database.

                                    Type "ultimate guitar tabs" in Apple
                                    App Store's or Android Market's
                                    search to find the application.
#----------------------------------PLEASE NOTE---------------------------------#
#This file is the author's own work and represents their interpretation of the #
#song. You may only use this file for private study, scholarship, or research. #
#------------------------------------------------------------------------------#

CHILDREN OF BODOM
from: CHILDREN OF BODOM
      HATEBREEDER

Music and lyrics by Alexi Laiho
Tabbed by Juha-Matti Kallinen
More tabs at http://sivut.koti.tpo.fi/akallinen/

This is my interpretation of the song.
If you have any corrections, suggestions or questions,
mail me to juha-matti.kallinen@koti.tpo.fi


-------------------------------------------------------
Tune down one whole step
4/4 time, 204 bpm

 guitar 1          Riff A1
|-----------------|-----------------|-----------------|-----------------|
|-----------------|-----------------|-----------------|-----------------|
|-----------------|-----------------|---------------7-|-----7---6s7---7-|
|---------------9-|-----9---------9-|-----9---7h9---9-|-----9---9-----9-|
|---------------7-|---7-7-7-7-7-7-7-|---7-7-7-7---x---|-----------------|
|----/12\---------|-----------------|-----------------|---7---7-----7---|


|-----------------|-----------------|-----------------|-----------------|
|-----------------|-----------------|-----------------|-----------------|
|-----7---6s7---5-|-----5---4s5-----|-----------------|-----------------|
|-----9---9-----7-|-----7---6s7-----|-----5-------4---|-----0-2-3-2-----|
|-----------------|---------------3-|-3-3-3-3-5-5-5-5-|-----0-2-3-2-----|
|-7-7---7-----7---|---5---5-----x---|-----------------|-0-0---------0-0-|

      (end Riff A1) w/Riff A1
           2 gtrs  gtr.2
|-----------------|-----------------|-----------------|-----------------|
|-----------------|-----------------|-----------------|-----------------|
|-----------------|-----------------|-----------------|-----------------|
|-0-2-3-2---7---9-|-----------------|-----------------|-----------------|
|-0-2-3-2---5---7-|-----------------|-----------7-8-9-|-----------------|
|---------0---0---|-----------------|-----------5-6-7-|-----------------|


|-----------------|-----------------|-----------------|-----------------|
|-----------------|-----------------|-----------------|-----------------|
|-----------------|-----------------|-----------------|-----------------|
|-----------------|---------------5-|-------7-------9-|-----0-2-3-2-----|
|-----------9-8-7-|---------------3-|-------5-------7-|-----0-2-3-2-----|
|-----------7-6-5-|-----------------|-----------------|-0-0---------0-0-|

                   w/bar                          (lead)
|-----------------|-----------------|---------------0-|
|-----------------|-----------------|-------/17\------|
|---------------3-|-----/(5)----\3--|-----------------|
|-0-2-3-2---------|-----------------|-----------------|
|-0-2-3-2---------|-----------------|-----------------|
|---------0-0-0---|-----------------|-----------------|
|                                              (both rh. gtrs.)
|-----------------|-----------------|-----------------|
|-----------------|-----------------|-----------------|
|---------------6-|-----/(8)----\6--|-------/15\------|
|-0-2-3-2---------|-----------------|---------------9-|
|-0-2-3-2---------|-----------------|---------------7-|
|---------0-0-0---|-----------------|-----------------|

 w/Riff A1 (2 rhythm gtrs)
 Riff A2
|---14-15-0-14-12-0-10-|-12-12-0-10-12-10-------|------------------------|
|----------------------|------------------10-12-|---15-14-15-12-15-10-15-|
|*---------------------|------------------------|------------------------|
|*---------------------|------------------------|------------------------|
|----------------------|------------------------|------------------------|
|----------------------|------------------------|------------------------|


|-------------------------|-------------------0----|---0--------------|
|-12-15-14-15-12-15-14-10-|-12-13-12-10-12-10---8~-|------------5-7-5-|
|-------------------------|------------------------|-----4-7~---------|
|-------------------------|------------------------|------------------|
|-------------------------|------------------------|------------------|
|-------------------------|------------------------|------------------|

 1.               dive w/bar
|-----------------|--------------0--|
|-----------------|-----------------|
|-------------7-4-|----------------*|
|-----------------|----------------*|
|-----------------|-----------------|
|-----------------|-----------------|

  2.
|-----------------|-------------------|
|-(5)-------------|-------------------|
|-----------------|-------------------|
|-----------------|-------------------|
|-----------------|-------------------|
|-----------------|-------------------|
|
|-----------------|-------------------|
|-----------------|-------------------|
|-----------------|-------------------|
|-----0-2-3-2-----|-9-7-5-10-9-7----9-|
|-----0-2-3-2-----|--------------10-7-|
|-0-0---------0-0-|-------------------|
|
|-----------------|-------------------|
|-----------------|-------------------|
|-----------------|-------------------|
|-----0-2-3-2-----|--------7--------9-|
|-----0-2-3-2-----|-10-9-7---10-9-7-7-|
|-0-0---------0-0-|-------------------|

 Verse
|-----------------|-----------------|-----------------|-----------------|
|-----------------|-----------------|-----------------|-----------------|
|-----------------|-----------------|-----------------|-----------------|
|-----------------|---------------4-|-----------------|---------------2-|
|---7-7-7-7-7-7-7-|-7-7-7-7-7-7-7-2-|-2-2-2-2-2-2-2-2-|-2-2-2-2-2-2-2-0-|
|-----------------|-----------------|-----------------|-----------------|
|
|-----------------|-----------------|-----------------|-----------------|
|-----------------|-----------------|-----------------|-----------------|
|-----------------|-----------------|-----------------|-----------------|
|-(9)-------------|-----------------|-4---------------|-----------------|
|-(7)-------------|-----------------|-2---------------|-----------------|
|-----------------|-----------------|-----------------|-----------------|


|-----------------|-----------------|-----------------|-----------------|
|-----------------|-----------------|-----------------|-----------------|
|-----------------|-----------------|-----------------|-----------------|
|-----------------|-5-------7-------|-9---------------|-9-4---5---------|
|-0-0-0-0-0-0-0-0-|-3---3-3-5---5-5-|-7---7-7-7-7-7-7-|-7-2-x-3-x-------|
|-----------------|-----------------|-----------------|-----------3-3-2-|
|
|-----------------|-----------------|-----------------|-----------------|
|-----------------|-----------------|-----------------|-----------------|
|-----------------|-----------------|-----------------|-----------------|
|-2---------------|-5-------7-------|-9---------------|-9-4---5---------|
|-0---------------|-3-------5-------|-7---------7-7-7-|-7-2-x-3-x-------|
|-----------------|-----------------|-----------------|-----------3-3-2-|

 (both gtrs)
|-----------------|-----------------|-----------------|-----------------|
|-----------------|-----------------|-----------------|-----------------|
|-----------------|-----------------|-----------------|-----------------|
|-----------------|---------------4-|---4-------------|---------------2-|
|-2---------------|---------------2-|---2-2-2-2-2-2-2-|-2-2-2-2-2-2-2-0-|
|-0---0-0-0-0-0-0-|-0-0-0-0-0-0-0---|-----------------|-----------------|

                                                       (one guitar only)
|-----------------|-----------------|-----------------|-----------------|
|-----------------|-----------------|-----------------|-----------------|
|-----------------|-----------------|-----------------|-----------------|
|-2---------------|-5-------7-------|-9---------------|-----------------|
|-0---0-0-0-0-0-0-|-3-------5-------|-7---------------|-7---2---3---5---|
|-----------------|-----------------|-----------------|-----------------|

 16th note tremolo picking (both)
|------------------|-----------------|-----------------|-----------------|
|------------------|-----------------|-----------------|-----------------|
|*-----------------|-----------------|-7---------------|-----------------|
|*-9---------------|---------9-------|-----------------|-----------------|
|------------------|-10--------------|-----------------|-----------------|
|------------------|-----------------|-----------------|-----------------|
|                                     (2nd time)
|------------------|-----------------|-----------------|-----------------|
|------------------|-----------------|-----------------|-----------------|
|*-----------------|-----------------|-----------------|-----------------|
|*-----------------|-----------------|(9)--------------|-----------------|
|--7---------------|-----------------|-2---------------|-----------------|
|------------------|-----------------|-----------------|-----------------|

                                      1.
|-----------------|-----------------|-----------------|-----------------|
|-----------------|-----------------|-------------7---|-8---7-----------|
|-----------------|-----------------|-----7---9-------|---------9---7--*|
|-10--------------|-----------------|-----------------|----------------*|
|-----------------|-10------9-------|-7---------------|-----------------|
|-----------------|-----------------|-----------------|-----------------|
|
|-----------------|-----------------|-----------------|-----------------|
|-----------------|-----------------|-----------------|-----------------|
|-----------------|-----------------|-----------------|----------------*|
|(7)--------------|-----------------|-------------7---|-9---7----------*|
|-0---------------|-3-------5-------|-7---9---10------|---------10--9---|
|-----------------|-----------------|-----------------|-----------------|


|-----------------|-----------------|
|-----------------|-----------------|
|-----------------|-----------------|
|-------------7---|-9---------------|
|-7---9---10------|-----------------|
|-----------------|-----------------|
|
|-----------------|-----------------|
|-----------------|-----------------|
|-------------7---|-9ah-------------|
|-5---7---9-------|-----------------|
|-----------------|-----------------|
|-----------------|-----------------|


|-------------------------|-------------------------|-------------------------|
|-------------------------|-------------------------|-------------------------|
|-------------6-----------|-------------------------|-------------------------|
|-5-----------4-----5-----|-------------4-4-4-4-4-4-|-5-----------7-----------|
|-3---3-3-3-3-------3-----|-3-3-3-3-3-3-------------|-3-3-3-3-3-3-5-5-5-5-5-5-|
|-------------------------|-------------------------|-------------------------|
|
|-------------------------|-------------------------|-------------------------|
|-------------------------|-------------------------|-------------------------|
|-------------------------|-------------------------|-------------------------|
|-5-----------------------|-------------------------|-5-----------7-----------|
|-3-----------------------|-------------------------|-3-----------5-----------|
|-------------------------|-------------------------|-------------------------|


|-------------------------|-------------------------|-------------------------|
|-------------------------|-------------------------|-------------------------|
|-------------------------|-------------6-----------|-------------------------|
|-9-----------7-----------|-5-5-5-5-5-5-4-----5-5-5-|-5-5-5-5-5-5-8-8-8-8-8-8-|
|-7-7-7-7-7-7-5-5-5-5-5-5-|-------------------------|-------------------------|
|-------------------------|-------------------------|-------------------------|
|
|-------------------------|-------------------------|-------------------------|
|-------------------------|-------------------------|-------------------------|
|-------------------------|-------------6-----------|-------------------------|
|-9-----------7-----------|-------------4-----5-----|-------------4-4-4-4-4-4-|
|-7-----------5-----------|-3-3-3-3-3-3-------3-----|-3-3-3-3-3-3-------------|
|-------------------------|-------------------------|-------------------------|

                                           w/bar
|-------------------------|-------------------------|
|-------------------------|-------------------------|
|-------------------------|----------7-9-11ah\------|
|-5-5-5-5-5-5-7-7-7-7-7-7-|-7s9-9-10----------------|
|-------------------------|-------------------------|
|-------------------------|-------------------------|
|
|-------------------------|-------------------------|
|-------------------------|-------------------------|
|-------------------------|-------------------------|
|-3-----------5-----------|-9-----------7-----------|
|-3-3-3-3-3-3-5-5-5-5-5-5-|-7-7-7-7-7-7-5-5-5-5-5-5-|
|-------------------------|-------------------------|

  Riff B (upper part)                                 1.
|-------------------------|-------------------------|-------------------------|
|-------------------------|-------------------------|-------------------------|
|*------------------------|-------------------------|-------------------------|
|*9-----------7-----9-----|-------------------------|-5-----------------------|
|-7-7-7-7-7-7-5-----7-----|-7-7-7-7-7-7-5-5-5-5-5-5-|-3-----------5-----------|
|-------------------------|-------------------------|-------------3-----------|
|
|-------------------------|-------------------------|-------------------------|
|-------------------------|-------------------------|-------------------------|
|*------------------------|-------------------------|-------------------------|
|*9-----------7-----9-----|-------------------------|-------------5-5-5-5-5-5-|
|-7-7-7-7-7-7-5-----7-----|-7-7-7-7-7-7-5-5-5-5-5-5-|-3-3-3-3-3-3-------------|
|-------------------------|-------------------------|-------------------------|

                            2.                                   (end Riff B)
|-------------------------| -------------------------|-------------------------|
|-------------------------| -------------------------|-------------------------|
|-------------------------| -------------------------|-------------------------|
|-7-----------9-----------| -5-----------------------|-4-----------------------|
|-5-----------7-----------| -3-----------5-----------|-2-----------2-----------|
|-------------------------| -------------3-----------|-------------0-----------|
|
|-------------------------| -------------------------|-------------------------|
|-------------------------| -------------------------|-------------------------|
|-------------------------| -------------------------|-------------------------|
|-------------------------| -------------------------|-------------------------|
|-5-5-5-5-5-5-7-7-7-7-7-7-| -3-3-3-3-3-3-------------|-2-2-2-2-2-2-------------|
|-------------------------| -------------3-3-3-3-3-3-|-------------0-0-0-0-----|

  Riff C (upper part)
|--------------------------|-------------------------------------|
|--------------------------|-------------------------------------|
|*-------------------------|-------------------------------------|
|*-11----------9-----11----|-------------------------------------|
|--9-9-9-9-9-9-7-----9-----|-9--9--9--9--9--9--7--7--7--7--7--7--|
|--------------------------|-------------------------------------|
|
|--------------------------|-------------------------------------|
|--------------------------|-------------------------------------|
|*-------------------------|-------------------9--9--9--9--9--9--|
|*-11----------9-----11----|-11-11-11-11-11-11-------------------|
|--9-9-9-9-9-9-7-----9-----|-------------------------------------|
|--------------------------|-------------------------------------|

 1.                                   2.                           (end Riff C)
|-----------------|-----------------| -----------------------|-----------------|
|-----------------|-----------------| -----------------------|-----------------|
|-----------------|----------------*| -----------------------|-----------------|
|-7---------------|-9-------11-----*| -7---------------------|-6---------------|
|-5-------7-------|-7-------9-------| -5-----------7---------|-4-------4-------|
|---------5-------|-----------------| -------------5---------|---------2-------|
|
|-----------------|-----------------| -----------------------|-----------------|
|-----------------|-9---10----------| -----------------------|-----------------|
|-11------9-------|---------11ah---*| -6-6-6-6-6-6-7----6----|-----------------|
|-----------------|----------------*| -----------------------|-9---6---4ah-----|
|-----------------|-----------------| -----------------------|-----------------|
|-----------------|-----------------| -----------------------|-----------------|

 (both)
|-------------------------|-------------------------|-------------------------|
|-------------------------|-------------------------|-------------------------|
|-------------------------|-------------------------|-------------------------|
|-------------------------|-------------------------|-------------------------|
|-------------------------|-------------------0-2-3-|-------------------------|
|-0-0-0-0-----0-0-0-0-----|-0-0-0-0-----0-2-3-------|-0-0-0-0-----0-0-0-0-----|

  (div.)                    (both)
|--------------------------|-------------------------|-------------------------|
|-------------------7-8-10-|-------------------------|-------------------------|
|-------------5-7-9-5-7-9--|-------------------------|-------------------------|
|-------5-7-9-5-7-9--------|-------------------------|-------------------------|
|-5-7-9-5-7-9--------------|-------------------------|-------------------------|
|-5-7-8--------------------|-0-0-0-0-----0-0-0-0-----|-0-0-0-0-----0-0-0-0-0-0-|

                                     (gtr1/gtr2) drop w/bar
|-------------------------|-------------------------|-------------------------|
|-------------------------|-------------------------|-------------------------|
|-------------------------|------------a2.3/a5---\--|--/----------------------|
|-------------------------|-------------------------|-------------------------|
|-------------------------|-------------------------|-------------------------|
|-0-0-0-0-----0-0-0-0-----|-0-0-0-0-----------------|-------0-0-0-0-----0-0-0-|

                           (div.)
|-------------------------|--------------------------|-------------8-----------|
|-------------------------|-------------------7-8-10-|-------7-----10----7-----|
|-------------------------|-------------5-7-9-5-7-9--|-8-----8-----------8-----|
|-------------------------|-------5-7-9-5-7-9--------|-10ah--------------------|
|-------------------0-2-3-|-5-7-9-5-7-9--------------|-------------------------|
|-0-----0-0-0-0-2-3-------|-5-7-8--------------------|-------------------------|

 Chorus
|-----------------------|-----------------------|-----------------------|
|--------------10-12----|-10--------------------|--------------10-12----|
|*9-11-12-9-12-------12-|----12-11---12-11-9----|-9-11-12-9-12-------12-|
|*----------------------|-----------------------|-----------------------|
|-----------------------|-----------------------|-----------------------|
|-----------------------|-----------------------|-----------------------|
|
|-----------------------|-----------------------|-----------------------|
|-----------------------|-----------------------|-----------------------|
|*5---------------------|-7----------9----------|-5---------------------|
|*5---------5-----------|-7----------9----------|-5---------5-----------|
|-3---------5-----------|-5----------7----------|-3---------5-----------|
|-----------3-----------|-----------------------|-----------3-----------|

  1.3.                       2.4.
|-10---------------------|  -----------------------|-----------------------|
|----13-12-10------------|  --------------12-10----|-----------------------|
|-------------12--------*|  -9-11-12-9-12-------12-|-12-------------------*|
|-----------------------*|  -----------------------|----------------------*|
|------------------------|  -----------------------|-----------------------|
|------------------------|  -----------------------|-----------------------|
|
|------------------------|  -----------------------|-----------------------|
|------------------------|  -----------------------|-----------------------|
|-4---------------------*|  -5---------------------|-8--------------------*|
|-4-----------2---------*|  -5---------5-----------|-8--------------------*|
|-2-----------2----------|  -3---------5-----------|-6---------------------|
|-------------0----------|  -----------3-----------|-----------------------|


|---------------------|-15s18-------18s21-------|-------------------------|
|---------------------|-------17----------20----|-------------------15-17-|
|---------------------|----------18----------21-|----15-------15----------|
|---------------------|-------------------------|-14----17-14----17-------|
|---------------------|-------------------------|-------------------------|
|---------------------|-------------------------|-------------------------|
|
|---------------------|-12s15-------15s18-------|-------------------------|
|---------------------|-------14----------17----|-------------------------|
|---------------------|----------15----------18-|-------------------------|
|---------------------|-------------------------|-17-14-------------------|
|---------------------|-------------------------|-------17-14/12-10-------|
|---------------------|-------------------------|-------------------10-12-|


w/Riffs A1 & A2


|--------------------|--------------------|
|--------------------|--------------------|
|--------------------|--------------------|
|--------------------|--------------------|
|--------------------|--------------------|
|--------------------|--------------------|

 tremolo picking
|-----------------|-----------------|-----------------|-----------------|
|-----------------|-----------------|-----------------|-----------------|
|-9---------------|-----------------|-4---------------|-----------------|
|-9---------------|-----------------|-4---------------|-----------------|
|-7---------------|-----------------|-2---------------|-----------------|
|-----------------|-----------------|-----------------|-----------------|

                                                         bar dive
|-17--------------|-15------14------|-12--------------|-15-\------------|
|-----------------|-----------------|-----------------|-----------------|
|-2---------------|-5-------7-------|-9---------------|-----------------|
|-2---------------|-5-------7-------|-9---------------|-----------------|
|-0---------------|-3-------5-------|-7---------------|-----------------|
|-----------------|-----------------|-----------------|-----------------|


|------------------|------------------|------------------|------------------|
|------------------|------------------|------------------|------------------|
|------------------|------------------|------------------|------------------|
|-9----------------|------------------|-4----------------|------------------|
|-7-77777777777777-|-7777777777777777-|-2-22222222222222-|-2222222222222222-|
|------------------|------------------|------------------|------------------|


|------------------|------------------|------------------|
|------------------|------------------|------------------|
|------------------|------------------|------------------|
|-2----------------|-5-------7--------|-9----------------|
|-0-22222222222222-|-3-3333335-555555-|-7-77777777777777-|
|------------------|------------------|------------------|


|---------------------------|
|---------------------------|
|-5-4-2-------7--5-4--------|
|-------5-4-2--------7--5-4-|
|---------------------------|
|---------------------------|
|
|---------------------------|
|---------------------------|
|-9-7-5-------11-9-7--------|
|-------9-7-5--------10-9-7-|
|---------------------------|
|---------------------------|


w/Riff B
|-12---------------14-------15-------|-19-17-15----------15-14-12----------|
|-15b(17)----------17b(19)--18b(20)--|----------19-17-15----------15-13-12-|
|------------------------------------|-------------------------------------|
|------------------------------------|-------------------------------------|
|------------------------------------|-------------------------------------|
|------------------------------------|-------------------------------------|
|
|-12---------------10-------12-------|-15-14-12----------------------------|
|-15b(17)----------13b(15)--15b(17)--|----------15-13-12-17-15-13----------|
|------------------------------------|----------------------------16-14-12-|
|------------------------------------|-------------------------------------|
|------------------------------------|-------------------------------------|
|------------------------------------|-------------------------------------|


|-------------12-15-------------------|-------------14-17/19p15-------------|
|----------13-------15p12----------12-|----------15-------------17----------|
|-12----12----------------12----12----|-------14-------------------16-------|
|----14----------------------12-------|----16-------------------------17-14-|
|-------------------------------------|-17----------------------------------|
|-------------------------------------|-------------------------------------|
|
|----------------12-------------------|----------------14-15----------------|
|-------------13----12----------------|-------------15-------17-------------|
|----------12----------12----------12-|----------14-------------16----------|
|-14----14----------------12----12----|-------16-------------------17-------|
|----15----------------------14-------|-12h17-------------------------19-14-|
|-------------------------------------|-------------------------------------|

Someone please tell me, how this goes...
|-------------------------|-17----17s19-24----0-----|
|----------------15----15-|----15-------------------|
|----------16-12----12----|-------------------------|
|-------14----------------|-------------------------|
|----14-------------------|-------------------------|
|-15----------------------|-------------------------|
|
|-------------------------|-------------19----------|
|-------------------------|-15----15s17-------------|
|----------------12----12-|----14-------------------|
|----------14-12----12----|-------------------------|
|-------14----------------|-------------------------|
|-12h15-------------------|-------------------------|


|-24-22-20----------------------------|----------------------------------------|
|----------24-22-20-------------------|----------------------------15s17-19-20-|
|-------------------23-21-19----------|----------------------17-19-------------|
|----------------------------22-21-19-|-------------17-19-21-------------------|
|-------------------------------------|-22-21-19-21----------------------------|
|-------------------------------------|----------------------------------------|
|
|-20-19-17----------------------------|-------------------------------------|
|----------20-19-17-------------------|----------------------------------17-|19
|-------------------19-17-16----------|-------------------------16-17-19----|
|----------------------------19-17-16-|----------------16-17-19-------------|
|-------------------------------------|-19-17-15-17-19----------------------|
|-------------------------------------|-------------------------------------|

 w/Riff C                              flutter w/bar
|-17------------v--16-----v-17-------|-16---17---24---21-----------------|
|------------------------------------|--------------------------------17-|
|------------------------------------|-----------------------------------|
|------------------------------------|-----------------------------------|
|------------------------------------|-----------------------------------|
|------------------------------------|-----------------------------------|
|
|-14------------v--12-----v-14-------|
|------------------------------------|
|------------------------------------|
|------------------------------------|
|------------------------------------|
|------------------------------------|


|---------------14-------14---------------------|----------------------------|
|-14---------14----17-14-------17b(19)----17-14-|----------------------------|
|----16b(18)------------------------------------|-16b(18)--16--14------------|
|-----------------------------------------------|------------------16~-------|
|-----------------------------------------------|----------------------------|
|-----------------------------------------------|----------------------------|


|-------------------------------------|----------------------------------16-|
|----------------------------19-------|-------------------------15-17-19----|
|-14-16-17-18-17-16-14-16-17----17-16-|-14-16-17-18-17-16-17-18-------------|
|-------------------------------------|-------------------------------------|
|-------------------------------------|-------------------------------------|
|-------------------------------------|-------------------------------------|


|-17p14----------14-21p17----------17-|-21-20-19-------------------19-21-22-|
|-------15----15----------17----17----|----------22-21-20-19-21-22----------|
|----------14----------------18-------|-------------------------------------|
|-------------------------------------|-------------------------------------|
|-------------------------------------|-------------------------------------|
|-------------------------------------|-------------------------------------|
|
|-14p10----------10-17p12----------12-|-------------------------------------|
|-------10----10----------14----14----|-17-16-15-14----------------15-17-19-|
|----------11----------------14-------|-------------17-16-14-16-18----------|
|-------------------------------------|-------------------------------------|
|-------------------------------------|-------------------------------------|
|-------------------------------------|-------------------------------------|

  dive
|-24----------------------------------|-\(22)-------------------------------|
|-------------------------------------|-------------------------------------|
|-------------------------------------|-------------------------------------|
|-------------------------------------|-------------------------------------|
|-------------------------------------|-------------------------------------|
|-------------------------------------|-------------------------------------|
|
|-15----------------------------------|-\(14)-------------------------------|
|-------------------------------------|-------------------------------------|
|-------------------------------------|-------------------------------------|
|-------------------------------------|-------------------------------------|
|-------------------------------------|-------------------------------------|
|-------------------------------------|-------------------------------------|
|
|-------------------------------------|-------------------------------------|
|-------------------------------------|-------------------------------------|
|-------------------------------------|-------------------------------------|
|-------------------------------------|-------------------------------------|
|-------------------------------------|-------------------------------------|
|-0--0--0--0--------0--0--0--0--------|-0--0--0--0--------0--0--0--0--0--0--|


Rhythm gtrs repeat previous 2 bars 10 times
On 9th time w/ this
|-----------------|-----------------|-----------------|-----------------|
|-----------------|-----------------|-----------------|-----------------|
|-----------------|-----------------|-----------------|-----------------|
|-----------------|-----------------|-----------------|----------5------|
|-7---------------|---------6-------|-3---------------|-----------------|
|-----------------|-----------------|-----------------|-----------------|


|-----------------|-----------------|-----------------|-----------------|
|-----------------|-----------------|-----------------|-----------------|
|-----------------|-----------------|-----------------|-----------------|
|-----------------|---------8-------|-11--------------|-----------------|
|-7---------------|-----------------|-----------------|-----------------|
|-----------------|-----------------|-----------------|-----------------|
|
|-----------------|-----------------|-----------------|-----------------|
|-----------------|-----------------|-----------------|-----------------|
|-----------------|-----------------|-----------------|-----------------|
|-----------------|---------2-------|-5---------------|-----------------|
|-----------------|---------1-------|-4---------------|-----------------|
|-000-0---000-0---|-000-0-----------|-----------------|-----------------|


Keyboards (8 bars)
 Riff D (upper part)
|-----------------|-----------------|-------8-7--------|----------7-------|
|-----------------|-------5---------|-----7-----10-8-7-|---7-8-10---------|
|-------5-4-------|-----4---7-5-4---|---8--------------|-9----------------|
|-----4-----7-5-4-|---5-----------7-|-9----------------|------------------|
|-2-6-------------|-7---------------|------------------|------------------|
|-----------------|-----------------|------------------|------------------|
|
|-----------------|-----------------|------------------|------------------|
|-----------------|-----------------|------------------|------------------|
|-----------------|-----------------|------------------|------------------|
|-4---------------|-9---------------|-4----------------|------------------|
|-2---------------|-7---------------|-2----------------|-2---5----5-------|
|-----------------|-----------------|------------------|-0---2----3-------|


|-----------------|-----------------|---------------------|-------------------|
|-----------------|-----------------|----------8-12-10-12-|-8-12----12--------|
|-----------------|-------5-4-------|-9-8-9-11------------|------11----9------|
|-----2-5-3-2-----|-----4-----7-5-4-|---------------------|-------------------|
|-0-3---------5-3-|-2-6-------------|---------------------|-------------------|
|-----------------|-----------------|---------------------|-------------------|
|
|-----------------|-----------------|---------------------|-------------------|
|-----------------|-----------------|---------------------|-------------------|
|-----------------|-----------------|---------------------|-------------------|
|-2---------------|-4---------------|---------------------|-------------------|
|-0---------------|-2---------------|---------------------|-------------------|
|-----------------|-----------------|---------------------|-------------------|

 w/Riff D
|-----------------|-----------------|-----------------|-----------------|
|-----------------|-----------------|-----------------|-----------------|
|-----------------|-----------------|-----------------|-----------------|
|-4-4-------------|-9-9-------------|-4-4-------------|-4---------------|
|-2-2-------------|-7-7-------------|-2-2-------------|-2-----5-----5---|
|-----------------|-----------------|-----------------|---0-0-2-2-2-3-3-|


|-----------------|-----------------|-----------------|-----------------|
|-----------------|-----------------|-----------------|-----------------|
|-2-----2-----2---|-4-----4-----4---|-----------------|-----------------|
|-2-----2-----2---|-4-----4-----4---|-----------------|-----4---2-------|
|-0-0-0-0-0-0-0-0-|-2-2-2-2-2-2-2-2-|---------2-3-2---|-----2---2-------|
|-----------------|-----------------|-3-2-3-5-------5-|-3-------0-------|


|-15s18-------18s21-------|-14-15-14----------------|
|-------17----------20----|----------17-16----------|
|----------18----------21-|----------------17-16-14-|
|-------------------------|-------------------------|
|-------------------------|-------------------------|
|-------------------------|-------------------------|
|
|-12s15-------15s18-------|-------------------------|
|-------14----------17----|-16-17-16----------------|
|----------15----------18-|----------17-16-14-------|
|-------------------------|-------------------17-16-|
|-------------------------|-------------------------|
|-------------------------|-------------------------|


Repeat Chorus 2 times;
on 2nd time play rhythm parts only


|-------------------------|-------------------------|
|-------------------------|-------------------------|
|-------------------------|-------------------------|
|-------------------------|-------------------------|
|-------------------0-2-3-|-------------------0-2-3-|
|-0--0--0--0--0-2-3-------|-0--0--0--0--0-2-3-------|
|
|-------------------------|-------------------------|
|-------------------------|-------------------------|
|-------------------------|-------------------------|
|-------------------------|-------------------------|
|-------------------------|-------------------------|
|-0--0--0--0--------------|-0--0--0--0--------------|


|-------------------------|--------------------------|
|-------------------------|-------------------7-8-10-|
|-------------------------|-------------5-7-9--------|
|-------------------------|-------5-7-9--------------|
|---------------------2-3-|/5-7-9--------------------|
|-0--0--0--0--0-2-3-5-----|--------------------------|
|
|-------------------------|--------------------5-7-8-|
|-------------------------|--------------5-7-8-------|
|-------------------------|--------4-5-7-------------|
|-------------------------|-4-5-7--------------------|
|-------------------3-5-7-|--------------------------|
|-0--0--0--0--3-5-7-------|--------------------------|


|-------------------------|-------------------------|
|-------------------------|-------------------------|
|-------------------------|-------------------------|
|-------------------------|-------------------------|
|-------------------0-2-3-|-------------------0-2-3-|
|-0--0--0--0--0-2-3-------|-0--0--0--0--0-2-3-------|
|
|-------------------------|-------------------------|
|-------------------------|-------------------------|
|-------------------------|-------------------------|
|-------------------------|-------------------------|
|-------------------------|-------------------------|
|-0--0--0--0--------------|-0--0--0--0--------------|

  (div.)
|--------------------------|-------------8-----------|
|-------------------7-8-10-|-------7-----10----7-----|
|-------------5-7-9-5-7-9--|-8-----8-----------8-----|
|-------5-7-9-5-7-9--------|-10ah--------------------|
|-5-7-9-5-7-9--------------|-------------------------|
|-5-7-8--------------------|-------------------------|


|-------------------------|
|-------------------------|
|-------------------------|
|-------------------2-----|
|-------------------2-----|
|-0-0-0-0-----0-0-0-0-----|
comments
print report bad tab
21 comments total. Showing first comments.
0 reply
shadows666 wrote on September 21 2005, 04:59 pm

nice tab. Thank you for including the solos and shit!! Keep up the good work!

0 reply
shadows666 wrote on September 21 2005, 04:59 pm

nice tab. Thank you for including the solos and shit!! Keep up the good work!

-1 reply
numbfinger wrote on October 21 2005, 01:35 am

it sucks!!!!!!!

I want to post or [tab]
guest
You may want to rate the tab now too:
select rating
Please do not post tabs as comments. Select "correction" instead!