Oops, an error
Loading. Please wait.

Chokehold Bass Tab

ver1
ver1

Whole song

Interactive

More versions @911Tabs.com
459 views 1 this week
no commentswrite comment
1 2 3 4 5
excellent!
x 1
Autoscroll
+/-
esc
set tempo
stop
Contributor
Hey! There's an official Ultimate Guitar app which is ideal
for learning songs when you're away from computer. Get the app
WARNING: You are trying to view
                                    content from Ultimate-Guitar.com
                                    in an unauthorized application,
                                    which is prohibited.

                                    Please use an official Ultimate
                                    Guitar Tabs application for iPhone,
                                    iPad or Android to access legitimate
                                    chords, guitar, bass, and drum tabs
                                    from Ultimate-Guitar.com database.

                                    Type "ultimate guitar tabs" in Apple
                                    App Store's or Android Market's
                                    search to find the application.
tune down for a six string

F||------------------|------------------|------------------|------------------|
C||------------------|------------------|------------------|------------------|
G||------------------|------------------|------------------|------------------|
D||------------------|------------------|------------------|------------------|
A||------------------|------------------|------------------|------------------|



                                                                 
|-------------------------------|-------------------------------|
|*------------------------------|-------------------------------|
|-------------------------------|-------------------------1--1--|
|*--0-2-3--3-2--2--2-0--0-2-2-2-|--2-2-2-2-2-2-2-2--2-2-2-------|
|-------------------------------|-------------------------------|


                                                                 
------------------------------|--------------------------------||
------------------------------|-------------------------------*||
------------------------------|-------------------------5--7---||
--0-2-3--3-2--2--2-0--0-2-2-2-|--2-2-2-2-2-2-2-2--2-2-2-------*||
------------------------------|--------------------------------||


                                                                     
-------------------------------||-----------------------------------|
-------------------------------||*----------------------------------|
-------------------------5--7--||-----------------------------------|
--2-2-2-2-2-2-2-2--2-2-2-------||*--0-0-0-0-0-0-0-0-0-0-0-0-0-0-0-0-|
-------------------------------||-----------------------------------|


                                                                      
----------------------------------|----------------------------------|
----------------------------------|----------------------------------|
----------------------------------|----------------------------------|
--0-0-0-0-0-0-0-0-0-0-0-0-0-0-0-0-|--0-0-0-0-0-0-0-0-0-0-0-0-0-0-0-0-|
----------------------------------|----------------------------------|


                                               
---------------------------------------------||
---------9-7-----------------12-10----------*||
--10-9-7-----10-9-7-13-12-10-------13-12-10--||
--------------------------------------------*||
---------------------------------------------||


                                                          
------------------------------------|--------------------|
---------9-7--------------7-5-------|--------------------|
--10-9-7-----10-9-7-9-7-5-----9-7-5-|-----------2--------|
------------------------------------|--3-----------------|
------------------------------------|--------------------|


                                                    
------------------------------|--------------------|
------------------------------|--------------------|
----------7-5-----7-5---8-----|--4--------3--------|
--0-0-0-0-----0-0-----0-------|--------------------|
------------------------------|--------------------|


                                                           
-------------------------------------|--------------------|
-------------------------------------|--------------------|
-------------------------------------|-----------2--------|
--0-0-0-0-12-10-0-10-8-0-8-7-0-7-5-3-|--3-----------------|
-------------------------------------|--------------------|


                                                    
------------------------------|--------------------|
------------------------------|--------------------|
------------------------------|--4--------3--------|
--0-0-0-0---------------------|--------------------|
----------3-3-3-3-1-1-1-3-----|--------------------|


                                                                  
------------------------------------|----------------------------|
---------9-7--------------7-5-------|----------------------------|
--10-9-7-----10-9-7-9-7-5-----9-7-5-|--3------3--3--3------3--3--|
------------------------------------|-----0-0----------0-0-------|
------------------------------------|----------------------------|


                                                                             
-----------------------|----------------------------|-----------------------|
-----------------------|----------------------------|-----------------------|
-----------------------|--3------3--3--3------3--3--|-----------------------|
--0---0---0---0---0----|-----0-0----------0-0-------|--0---0---0---0---0----|
-----------------------|----------------------------|-----------------------|


                                                                
----------------------------------|----------------------------|
----------------------------------|--7------5--8--7------5--8--|
----------------------------------|-----0-0----------0-0-------|
--1-1-1-1-1-1-1-1-1-1-1-1-1-1-1-1-|----------------------------|
----------------------------------|----------------------------|


                                                            
----------------------------------|------------------------|
----------------------------------|------------------------|
----------------------------------|--7---7---7---7---------|
--1-1-1-1-1-1-1-1-----------------|------------------0--0--|
------------------4-4-4-4-4-4-4-4-|------------------------|


                                                                    
|---------------------------------|--------------------------------|
|*----------7--8------------------|----------3--2------------------|
|---0-0-0-0-------0-0-0-0-0-0-0-0-|--0-0-0-0-------0-0-0-0-0-0-0-0-|
|*--------------------------------|--------------------------------|
|---------------------------------|--------------------------------|


                                                    
------------------------|-------------------------||
------------------------|------------------------*||
--3---3---3-------------|--0---0---0--------------||
-------------3---3---3--|-------------0---0---0--*||
------------------------|-------------------------||


                                                                       
-----------------------------------|----------------------------------|
*----------------------------------|----------------------------------|
-----------------------------------|----------------------------------|
*--0-0-0-0-0-0-0-0-0-0-0-0-0-0-0-0-|--0-0-0-0-0-0-0-0-0-0-0-0-0-0-0-0-|
-----------------------------------|----------------------------------|


                                   
----------------------------------|
----------------------------------|
----------------------------------|
--0-0-0-0-0-0-0-0-0-0-0-0-0-0-0-0-|
----------------------------------|


                                               
---------------------------------------------||
---------9-7-----------------12-10----------*||
--10-9-7-----10-9-7-13-12-10-------13-12-10--||
--------------------------------------------*||
---------------------------------------------||


                                                          
------------------------------------|--------------------|
---------9-7--------------7-5-------|--------------------|
--10-9-7-----10-9-7-9-7-5-----9-7-5-|-----------2--------|
------------------------------------|--3-----------------|
------------------------------------|--------------------|


                                                    
------------------------------|--------------------|
------------------------------|--------------------|
----------7-5-----7-5---8-----|--4--------3--------|
--0-0-0-0-----0-0-----0-------|--------------------|
------------------------------|--------------------|


                                                           
-------------------------------------|--------------------|
-------------------------------------|--------------------|
-------------------------------------|-----------2--------|
--0-0-0-0-12-10-0-10-8-0-8-7-0-7-5-3-|--3-----------------|
-------------------------------------|--------------------|


                                                    
------------------------------|--------------------|
------------------------------|--------------------|
------------------------------|--4--------3--------|
--0-0-0-0---------------------|--------------------|
----------3-3-3-3-1-1-1-3-----|--------------------|


                                                                        
----------------------------------|------------------------------------|
----------------------------------|------------------------------------|
----------------------------------|--3----3--3--3--3--5----5--5--5--5--|
--0----0--0--0--1--1--1--3--3--3--|------------------------------------|
----------------------------------|------------------------------------|


                                                                          
------------------------------------|------------------------------------|
------------------------------------|------------------------------------|
--7----7--7--7--7--7----7--7--7--7--|--3----3--3--3--3--5----5--5--5--5--|
------------------------------------|------------------------------------|
------------------------------------|------------------------------------|


                                                                            
--------------------------------------|------------------------------------|
--------------------------------------|------------------------------------|
--------------------------------------|--3----3--3--3--3--5----5--5--5--5--|
--0--0--0--0--0--0--0--0--0--0--0--0--|------------------------------------|
--------------------------------------|------------------------------------|


                                                                       
------------------------------------|---------------------------------|
------------------------------------|---------------------------------|
--7--7--7--7--7--7--7----10----9----|--10----9----7----9----7----5----|
------------------------------------|---------------------------------|
------------------------------------|---------------------------------|


                                                         
-------------------|------------------------------------|
-------------------|------------------------------------|
-------------------|--3----3--3--3--3--5----5--5--5--5--|
--0----------------|------------------------------------|
-------------------|------------------------------------|


                                                                          
------------------------------------|------------------------------------|
------------------------------------|------------------------------------|
--7----7--7--7--7--7----7--7--7--7--|--3----3--3--3--3--5----5--5--5--5--|
------------------------------------|------------------------------------|
------------------------------------|------------------------------------|


                                                                            
--------------------------------------|------------------------------------|
--------------------------------------|------------------------------------|
--------------------------------------|--3----3--3--3--3--5----5--5--5--5--|
--0--0--0--0--0--0--0--0--0--0--0--0--|------------------------------------|
--------------------------------------|------------------------------------|


                                                                          
------------------------------------|------------------------------------|
------------------------------------|------------------------------------|
--7----7--7--7--7--7----7--7--7--7--|--3----3--3--3--3--5----5--5--5--5--|
------------------------------------|------------------------------------|
------------------------------------|------------------------------------|


                                                                               
-------------------|------------------|-------------------|-------------------|
-------------------|------------------|-------------------|-------------------|
-------------------|------------------|--5----------------|--------------3----|
--0----------------|------------------|-------------------|-------------------|
-------------------|------------------|-------------------|-------------------|


                                                                           
-------------------|-------------------|----------------------------------|
-------------------|-------------------|----------------------------------|
--5----------------|--5----------------|--5-5-5-5-3-3-3-3-5-5-5-5-3-3-3-3-|
-------------------|-------------------|----------------------------------|
-------------------|-------------------|----------------------------------|


                                                                   
-------------------------------|----------------------------------|
-------------------------------|----------------------------------|
--5-5-5-5-3-3-3-3-1-1-1-1-3----|--5-5-5-5-3-3-3-3-5-5-5-5-3-3-3-3-|
-------------------------------|----------------------------------|
-------------------------------|----------------------------------|


                                                                   
-------------------------------|----------------------------------|
-------------------------------|--5-5-5-5-3-3-3-3-5-5-5-5-3-3-3-3-|
--5-5-5-5-1-1-1-1---------3----|----------------------------------|
------------------1-1-1-1------|----------------------------------|
-------------------------------|----------------------------------|


                                                                   
-------------------------------|----------------------------------|
--5-5-5-5-3-3-3-3-1-1-1-1-3----|--5-5-5-5-3-3-3-3-5-5-5-5-3-3-3-3-|
-------------------------------|----------------------------------|
-------------------------------|----------------------------------|
-------------------------------|----------------------------------|


                                                                      
-------------------------------|------------------|------------------|
--5-5-5-5-1-1-1-1---------3----|------------------|------------------|
------------------1-1-1-1------|------------------|------------------|
-------------------------------|------------------|------------------|
-------------------------------|------------------|------------------|


                                                            
|-----------------------------|----------------------------|
|*----------------------------|----------------------------|
|----------------2-2-2-2---2--|----------------------------|
|*--4-4-4-4---4---------------|--0-0-0-0---0--2-2-2-2---2--|
|-----------------------------|----------------------------|


                                                      
----------------------------|-----------------------||
----------------------------|----------------------*||
---------------2-2-2-2---2--|--7----6----4----------||
--4-4-4-4---4---------------|-----------------2----*||
----------------------------|-----------------------||


                                                              
-----------------------------|-------------------------------|
*----------------------------|-------------------------------|
-----------------------------|-------------------------------|
*--0-0-0-0---0--3-3-3-3---3--|-------------------------------|
-----------------------------|--0/1-1-1-0/1-1-1-1/3-3-3---3--|


                                                                             
----------------------------|-----------------------||----------------------|
----------------------------|----------------------*||----------------------|
----------------------------|--3----2---------------||--3----2--------------|
--0-0-0-0---0--3-3-3-3---3--|------------5---------*||------------5---------|
----------------------------|-----------------3-----||-----------------3----|


                                            
----------------------||-------------------|
----------------------||*------------------|
--3----2--------------||-------------------|
------------5---------||*------------------|
-----------------3----||-------------------|


                                                                  
-----------------------------------||----------------------------|
----------------------------------*||----------------------------|
----7-8---8-7---7---7-5---5-7------||--3------3--3--3------3--3--|
--0-----0-----0---0-----0-----0-0-*||-----0-0----------0-0-------|
-----------------------------------||----------------------------|


                                                                             
-----------------------|----------------------------|-----------------------|
-----------------------|----------------------------|-----------------------|
-----------------------|--3------3--3--3------3--3--|-----------------------|
--0---0---0---0---0----|-----0-0----------0-0-------|--0---0---0---0---0----|
-----------------------|----------------------------|-----------------------|


                                                                
----------------------------------|----------------------------|
----------------------------------|--7------5--8--7------5--8--|
----------------------------------|-----0-0----------0-0-------|
--1-1-1-1-1-1-1-1-1-1-1-1-1-1-1-1-|----------------------------|
----------------------------------|----------------------------|


                                                            
----------------------------------|------------------------|
----------------------------------|------------------------|
----------------------------------|--7---7---7---7---------|
--1-1-1-1-1-1-1-1-----------------|------------------0--0--|
------------------4-4-4-4-4-4-4-4-|------------------------|


                                                                    
|---------------------------------|--------------------------------|
|*----------7--8------------------|----------3--2------------------|
|---0-0-0-0-------0-0-0-0-0-0-0-0-|--0-0-0-0-------0-0-0-0-0-0-0-0-|
|*--------------------------------|--------------------------------|
|---------------------------------|--------------------------------|


                                                  3x                         
------------------------|-------------------------||------------------------|
------------------------|------------------------*||----------7--8----------|
--3---3---3-------------|--0---0---0--------------||--0-0-0-0---------------|
-------------3---3---3--|-------------0---0---0--*||------------------------|
------------------------|-------------------------||------------------------|


                            
---------------------|----||
------3--2-----------|----||
------------0--------|----||
---------------------|----||
---------------------|----||
comments
We did not receive enough feedback on this tab! Please rate:
print report bad tab
1 2 3 4 5
I want to post or [tab]
guest
You may want to rate the tab now too:
select rating
Please do not post tabs as comments. Select "correction" instead!