Oops, an error
Loading. Please wait.

Chokehold Tab

ver2
ver2

Solo

Whole song

Interactive

More versions @911Tabs.com
1,121 views 1 this week
2 commentsread comments
1 2 3 4 5
accurate
x 3
Autoscroll
+/-
esc
set tempo
stop
NEW! There's an official Ultimate Guitar app which is ideal
for learning songs when you're away from computer. Get the app
WARNING: You are trying to view
                                    content from Ultimate-Guitar.com
                                    in an unauthorized application,
                                    which is prohibited.

                                    Please use an official Ultimate
                                    Guitar Tabs application for iPhone,
                                    iPad or Android to access legitimate
                                    chords, guitar, bass, and drum tabs
                                    from Ultimate-Guitar.com database.

                                    Type "ultimate guitar tabs" in Apple
                                    App Store's or Android Market's
                                    search to find the application.
Dropped a step down= D,G,C,F,A,D

-----------------------------------------------------------------------------------|
-----------------------------------------------------------------------------------|
-----------------------------------------------------------------------------------|
-----------------------------------------------------------------------------------|
-----------------------------------------------------------------------------------|
-0-0-0-0-0-0-0-0-0-0-0-0-0-0-0-0-0-0-0-0-0-0-0-0-0-0-0-0-0-0-0-0-0-0-0-0-0-0-0-0-0-|


-------------------------------------------------------------------------------------|
-------------------------------------------------------------------------------------|
-------------------------------------------------------------------------------------|  x2
-------------------------------------------------------------------------------------|
-------------------------------------------------------------------------------------|
-0-12-13-0-13-12--12--12-10-0-10-12-12-12-12-0-0-13--13-12-0-0-0-0-0-0-0-0-0-0-0-0---|


----------------------------------------------------------------------------------|
----------------------------------------------------------------------------------|
----------------------------------------------------------------------------------|
----------------------------------------------------------------------------------|
---4-5--5-4--4-4-2--2-4-4-4---------------------8-8-------------------------------|
-0-2-3--3-2--2-2-0--0-2-2-2-2-2-2-2-2-2-2-2-2-2-6-6-------------------------------|


----------------------------------------------------------------------------------|
----------------------------------------------------------------------------------|
----------------------------------------------------------------------------------|
------------------------------------------------5-7-------------------------------|
---4-5--5-4--4-4-2--2-4-4-4---------------------3-5-------------------------------|
-0-2-3--3-2--2-2-0--0-2-2-2-2-2-2-2-2-2-2-2-2-2-----------------------------------|


----------------------------------------------------------------------------------|
----------------------------------------------------------------------------------|
----------------------------------------------------------------------------------|
----------------------------------------------------------------------------------|
---4-5--5-4--4-4-2--2-4-4-4---------------------8-8-------------------------------|
-0-2-3--3-2--2-2-0--0-2-2-2-2-2-2-2-2-2-2-2-2-2-6-6-------------------------------|


----------------------------------------------------------------------------------|
----------------------------------------------------------------------------------|
------------------------------(ph)4~----------------------------------------------|
----------------------------------------------------------------------------------|
---4-5--5-4--4-4-2--2-4-4-4-------------------------------------------------------|
-0-2-3--3-2--2-2-0--0-2-2-4-------------------------------------------------------|


----------------------------------------------------------------------------------|
----------------------------------------------------------------------------------|
----------------------------------------------------------------------------------|
----------------------------------------------------------------------------------|
-------7-8---8-7---7---7-5---5-7----8---8-7---------------------------------------|
----0------0-----0---0-----0-----00---0-----0-0-0-0-0-0-0-0-0-0-0-0-0-0-0-0-0-0-0-|


--------------------------------------------------------------------------------------|
--------------------------------------------------------------------------------------|
--------------------------------------------------------------------------------------|
---------------------------------------------------9-7-----------------12-10----------|
----7-8---8-7---7---7-5---5-7----8---8-7----10-9-7----10-9-7--13-12-10-------13-12-10-|
--0-----0-----0---0-----0-----00---0--------------------------------------------------|

----------------------------------------------------------------------------------|
----------------------------------------------------------------------------------|
----------------------------------------------------------------------------------|
----------------------------------------------------------------------------------|
-------7-8---8-7---7---7-5---5-7----8---8-7---------------------------------------|
----0------0-----0---0-----0-----00---0-----0-0-0-0-0-0-0-0-0-0-0-0-0-0-0-0-0-0-0-|


--------------------------------------------------------------------------------------|
--------------------------------------------------------------------------------------|
--------------------------------------------------------------------------------------|
---------------------------------------------------9-7---------------7-5--------------|
----7-8---8-7---7---7-5---5-7----8---8-7----10-9-7-----10-9-7--9-7-5-----9-7-5--------|
--0-----0-----0---0-----0-----00---0--------------------------------------------------|


--------------------------------------------------------------------------------------|
--------------------------------------------------------------------------------------|
--------------------------------------------------------------------------------------|
------4-------------------------------------------------------------------------------|
---5--2--------5-7-----8-7-----8-7----------------------------------------------------|
---3-------0-0-----0-0-----0-0--------------------------------------------------------|


--------------------------------------------------------------------------------------|
--------------------------------------------------------------------------------------|
--------------------------------------------------------------------------------------|
---6--5-------------------------------------------------------------------------------|
---4--3-------------------------------------------------------------------------------|
--------0-0-0-0-12-10-0-0-6-5-0-0-5-3-5-1---------------------------------------------|


--------------------------------------------------------------------------------------|
--------------------------------------------------------------------------------------|
---------------12--12/11--11/9--9/7---------------------------------------------------|
------4-----9-------------------------------------------------------------------------|
---5--2-------------------------------------------------------------------------------|
---3----------------------------------------------------------------------------------|


--------------------------------------------------------------------------------------|
--------------------------------------------------------------------------------------|
--------------------------------------------------------------------------------------|
---6--5-------------9-7---------------7-5---------------------------------------------|
---4--3------10-9-7-----10-9-7--9-7-5-----9-7-5---------------------------------------|
--------------------------------------------------------------------------------------|


--------------------------------------------------------------(H)7--------------------|
---------------------------------------------------------(H)5-------------------------|
--------------------------------------------------------------------------------------|
---2---4-7---2--4-7----------------2---4-7---2---4-7----------------------------------|
--------------------2-2-2-2-2---------------------------------------------------------|
--------------------0-0-0-0-0---------------------------------------------------------|

                                                               (WB)~~~~~~~~~~~~
-------------------------------------------------------------------------------------|
-------------------------------------------------------------------------------------|
------------------------------------------------------------(H)9---------------------|
---5--5-7---5--5-7----7--7-9--7--7-9----5--5-7---5--5-7------------------------------|
---3--3-5---3--3-5----5--5-7--5--5-7----3--3-5---3--3-5------------------------------|
-------------------------------------------------------------------------------------|


-------------------------------------------------------------------------------------|
-------------------------------------------------------------------------------------|
------------------------------------------------------5-5-5---7-7-7---5-5-5---4-4-4--|
----------------2-3-------------------6-5-------------5-5-5---5-5-5---7-7-7---5-5-5--|
--------0-0-0-0-2-3-0-0-0-0-0-0-0-0-0-4-3--------------------------------------------|
-------------------------------------------------------------------------------------|


--------------------------------------------------------------------------------------|
--------------------------------------------------------------------------------------|
-------------------------------------------------------5-5-5---7-7-7---5-5-5---4-4-4--|
----------------2-3---------------------6-5------------5-5-5---5-5-5---7-7-7---5-5-5--|
--------0-0-0-0-2-3-0-0-0-0-0-0-0-0-0-0-4-3-------------------------------------------|
--------------------------------------------------------------------------------------|

----------------------------------------------------------------------------------|
----------------------------------------------------------------------------------|
----------------------------------------------------------------------------------|
----------------------------------------------------------------------------------|
-------7-8---8-7---7---7-5---5-7----8---8-7---------------------------------------|
----0------0-----0---0-----0-----00---0-----0-0-0-0-0-0-0-0-0-0-0-0-0-0-0-0-0-0-0-|


--------------------------------------------------------------------------------------|
--------------------------------------------------------------------------------------|
--------------------------------------------------------------------------------------|
---------------------------------------------------9-7-----------------12-10----------|
----7-8---8-7---7---7-5---5-7----8---8-7----10-9-7----10-9-7--13-12-10-------13-12-10-|
--0-----0-----0---0-----0-----00---0--------------------------------------------------|

----------------------------------------------------------------------------------|
----------------------------------------------------------------------------------|
----------------------------------------------------------------------------------|
----------------------------------------------------------------------------------|
-------7-8---8-7---7---7-5---5-7----8---8-7---------------------------------------|
----0------0-----0---0-----0-----00---0-----0-0-0-0-0-0-0-0-0-0-0-0-0-0-0-0-0-0-0-|


--------------------------------------------------------------------------------------|
--------------------------------------------------------------------------------------|
--------------------------------------------------------------------------------------|
---------------------------------------------------9-7---------------7-5--------------|
----7-8---8-7---7---7-5---5-7----8---8-7----10-9-7-----10-9-7--9-7-5-----9-7-5--------|
--0-----0-----0---0-----0-----00---0--------------------------------------------------|


--------------------------------------------------------------------------------------|
--------------------------------------------------------------------------------------|
--------------------------------------------------------------------------------------|
------4-------------------------------------------------------------------------------|
---5--2--------5-7-----8-7-----8-7----------------------------------------------------|
---3-------0-0-----0-0-----0-0--------------------------------------------------------|


--------------------------------------------------------------------------------------|
--------------------------------------------------------------------------------------|
--------------------------------------------------------------------------------------|
--6--5--------------------------------------------------------------------------------|
--4--3--------------------------------------------------------------------------------|
--------0-0-0-0-12-10-0-0-6-5-0-0-5-3-5-1---------------------------------------------|


--------------------------------------------------------------------------------------|
--------------------------------------------------------------------------------------|
---------------12--12/11--11/9--9/7---------------------------------------------------|
------4-----9-------------------------------------------------------------------------|
---5--2-------------------------------------------------------------------------------|
---3----------------------------------------------------------------------------------|


--------------------------------------------------------------------------------------|
--------------------------------------------------------------------------------------|
--------------------------------------------------------------------------------------|
---6-5------------------------------5-5-5-5-5-7-7-7-7-7-9-9-9-9-9-9-9-9-9-------------|
---4-3--2------5-5-5--7-7-7--9-9-9--3-3-3-3-3-5-5-5-5-5-7-7-7-7-7-7-7-7-7-------------|
--------0------3-3-3--5-5-5--7-7-7----------------------------------------------------|


--------------------------------------------------------------------------------------|
--------------------------------------------------------------------------------------|
--------------------------------------------------------------------------------------|
----5-5-5-5-5-7-7-7-7-7---------------------------------------------------------------|
----3-3-3-3-3-5-5-5-5-5--2-2-2-2-2-2-2-2-2-2-2----------------------------------------|
-------------------------0-0-0-0-0-0-0-0-0-0-0----------------------------------------|


--------------------------------------------------------------------------------------|
--------------------------------------------------------------------------------------|
----------------------------------------12-12-12-12-12--11-11-11-11-11-9-9-9-9-9------|
---5-5-5-5-5-7-7-7-7-7-9-9-9-9-9-9-9-9------------------------------------------------|
---3-3-3-3-3-5-5-5-5-5-7-7-7-7-7-7-7-7--10-10-10-10-10--9--9--9--9--9--7-7-7-7-7------|
--------------------------------------------------------------------------------------|


----10--10--10--10----------------------------------------(H)5----------------------------|
-------------------8-----10--10--10--10--8--7---------7----5------------------------------|
---------------------7------------------------------5----5--------------------------------|
--------------------------------------------------5---------------------------------------|
------------------------------------------------5-----------------------------------------|
------------------------------------------------------------------------------------------|

                                                               ~~~~~            ~~~~~
------------------------------------------12------14---------15-------15-14-12-14----14-12----|
--------8-7-------8-7--------------7-8-10----8-10----10-12---------------------------------15-|
------5---------7-----------9-7-9-------------------------------------------------------------|
----5---------7-------------------------------------------------------------------------------|
----------------------------------------------------------------------------------------------|
----------------------------------------------------------------------------------------------|


-------15--------22~------19-19-19-19-22-19------------------------(H)19----------------------|
--15--------15---22~---------------------------22-22-22-22-20-19------------------------------|
----------------------------------------------------------------------------------------------|
----------------------------------------------------------------------------------------------|
----------------------------------------------------------------------------------------------|
----------------------------------------------------------------------------------------------|


--------------------------------------------------------------------------------|
--------------------------------------------------------------------------13~---|
----------9-7-10-9-7---------------------------------9-7-10-9-7-----------12~---|
-0-10-7-0-------------10-8-7----7-----------0-10-7-0-------------10-8-7---10~---|
-----------------------------10---8-7-------------------------------------------|
--------------------------------------------------------------------------------|


-------------------------------------------------------------------------13~---------|
----------10-8-11-10-8-----------------------------10-8-11-10-8----------13~---------|
-0-10-7-0--------------10-8-7----7--------0-10-7-0--------------10-8-7---10~---------|
------------------------------10---8-7-----------------------------------------------|
-------------------------------------------------------------------------------------|
-------------------------------------------------------------------------------------|

---------------------------------------15----------------------------------------------------|
---------15----------17----------18----------------------------------------------------------|
---17-18----18-17-18----18-17-18----18----18-17-15--17----15-16---------------16-------------|
-------------------------------------------------------17-------17-15------------17-15-------|
----------------------------------------------------------------------17-16-15---------16----|
---------------------------------------------------------------------------------------------|


---------------------------------------------------|
---------------------------------------------------|
---------------------------------------------------|
---------------------------------------------------|
---5-5-5-5-5-5--7-7-7-7-7---2-2-2-2-2---4-4-4-4-4--|
---3-3-3-3-3-3--5-5-5-5-5---0-0-0-0-0---2-2-2-2-2--|


-------------------------------------------------------------------------------------------|
-------------------------------------------------------------------------------------------|
-------------------------------------------------------------------------------------------|
-----------------------------9---7---5---7-------------------------------------------------|
---5-5-5-5-5-5--7-7-7-7-7-7--7---5---3---5-------------------------------------------------|
---3-3-3-3-3-3--5-5-5-5-5-5----------------------------------------------------------------|

-------------------------------------------------------------------------------------------|
-------------------------------------------------------------------------------------------|
-------------------------------------------------------------------------------------------|
-------------------------------------------------------------------------------------------|
---5-5-5-5-5-5--7-7-7-7-7---2-2-2-2-2---4-4-4-4-4------------------------------------------|
---3-3-3-3-3-3--5-5-5-5-5---0-0-0-0-0---2-2-2-2-2------------------------------------------|


-------------------------------------------------------------------------------------------|
-------------------------------------------------------------------------------------------|
-------------------------------------------------------------------------------------------|
-----------------------------9---7---5---7-------------------------------------------------|
---5-5-5-5-5-5--7-7-7-7-7-7--7---5---3---5-------------------------------------------------|
---3-3-3-3-3-3--5-5-5-5-5-5----------------------------------------------------------------|


(under solo)


-------------------------------------------------------------------------------------------|
-------------------------------------------------------------------------------------------|
-------------------------------------------------------------------------------------------|
-------------------------------------------------------------------------------------------|
---5-5-5-5-5-5--7-7-7-7-7---2-2-2-2-2---4-4-4-4-4------------------------------------------|
---3-3-3-3-3-3--5-5-5-5-5---0-0-0-0-0---2-2-2-2-2------------------------------------------|


-------------------------------------------------------------------------------------------|
-------------------------------------------------------------------------------------------|
-------------------------------------------------------------------------------------------|
-----------------------------9---7---5---7-------------------------------------------------|
---5-5-5-5-5-5--7-7-7-7-7-7--7---5---3---5-------------------------------------------------|
---3-3-3-3-3-3--5-5-5-5-5-5----------------------------------------------------------------|


-------------------------------------------------------------------------------------------|
-------------------------------------------------------------------------------------------|
-------------------------------------------------------------------------------------------|
-------------------------------------------------------------------------------------------|
---5-5-5-5-5-5--7-7-7-7-7---2-2-2-2-2---4-4-4-4-4------------------------------------------|
---3-3-3-3-3-3--5-5-5-5-5---0-0-0-0-0---2-2-2-2-2------------------------------------------|


-------------------------------------------------------------------------------------------|
-------------------------------------------------------------------------------------------|
-------------------------------------------------------------------------------------------|
-----------------------------9---7---5---7-------------------------------------------------|
---5-5-5-5-5-5--7-7-7-7-7-7--7---5---3---5---9---7---5---7---------------------------------|
---3-3-3-3-3-3--5-5-5-5-5-5------------------7---5---3---5---------------------------------|


-------------------------------------------------------------------------------------------|
-------------------------------------------------------------------------------------------|
-------------------------------------------------------------------------------------------|
-------------------------------------------------------------------------------------------|
------7-8---8-7---7---7-5---5-7---7-8---8-7---7---7-5---7-8---8-7---7---7-5---5-7----------|
----0-----0-----0---0-----0-----0-----0-----0---0-----0-----0-----0---0-----0--------------|


-------------------------------------------------------------------------------------------|
-------------------------------------------------------------------------------------------|
-------------------------------------------------------------------------------------------|
-------------------------------------------------------------------------------------------|
------7-8---8-7---7---7-5---5-7------------------------------------------------------------|
----0-----0-----0---0-----0-----0----------------------------------------------------------|


--------------------------------------------------------------(H)7--------------------|
---------------------------------------------------------(H)5-------------------------|
--------------------------------------------------------------------------------------|
---2---4-7---2--4-7----------------2---4-7---2---4-7----------------------------------|
--------------------2-2-2-2-2---------------------------------------------------------|
--------------------0-0-0-0-0---------------------------------------------------------|

                                                               (WB)~~~~~~~~~~~~
-------------------------------------------------------------------------------------|
-------------------------------------------------------------------------------------|
------------------------------------------------------------(H)9---------------------|
---5--5-7---5--5-7----7--7-9--7--7-9----5--5-7---5--5-7------------------------------|
---3--3-5---3--3-5----5--5-7--5--5-7----3--3-5---3--3-5------------------------------|
-------------------------------------------------------------------------------------|


-------------------------------------------------------------------------------------|
-------------------------------------------------------------------------------------|
------------------------------------------------------5-5-5---7-7-7---5-5-5---4-4-4--|
------------2-3--------------------6-5----------------5-5-5---5-5-5---7-7-7---5-5-5--|
------------2-3--------------------4-3-----------------------------------------------|
----0-0-0-0----0-0-0-0-0-0-0-0-0-0----0-0-0-0-0-0-0-0--------------------------------|


-------------------------------------------------------------------------------------|
-------------------------------------------------------------------------------------|
------------------------------------------------------5-5-5---7-7-7---5-5-5---4-4-4--|
------------2-3--------------------6-5----------------5-5-5---5-5-5---7-7-7---5-5-5--|
------------2-3--------------------4-3-----------------------------------------------|
----0-0-0-0----0-0-0-0-0-0-0-0-0-0----0-0-0-0-0-0-0-0--------------------------------|


-------------------------------------------------------------------------------------|
-------------------------------------------------------------------------------------|
------------------------------------------------------5-5-5---7-7-7---5-5-5---4-4-4--|
------------2-3--------------------6-5----------------5-5-5---5-5-5---7-7-7---5-5-5--|
------------2-3--------------------4-3-----------------------------------------------|
----0-0-0-0----0-0-0-0-0-0-0-0-0-0----0-0-0-0-0-0-0-0--------------------------------|


-------------------------------------------------------------------------------------|
-------------------------------------------------------------------------------------|
------------------------------------------------------5-5-5---7-7-7---5-5-5---4-4-4--|
------------2-3--------------------6-5----------------5-5-5---5-5-5---7-7-7---5-5-5--|
------------2-3--------------------4-3-----------------------------------------------|
----0-0-0-0----0-0-0-0-0-0-0-0-0-0----0-0-0-0-0-0-0-0--------------------------------|


-------------------------------------------------------------------------------------|
-------------------------------------------------------------------------------------|
-------------------------------------------------------------------------------------|
------------2-3----------6-5---------------------------------------------------------|
------------2-3----------4-3---2-----------------------------------------------------|
----0-0-0-0--------------------0-----------------------------------------------------|
comments
We did not receive enough feedback on this tab! Please rate:
print report bad tab
1 2 3 4 5
2 comments total.
+1 reply
metal_man696 wrote on January 17 2006, 06:12 pm

holy crap dude! there are a few parts missing but this is the closest thing to the original ive seen so far! 4 stars!

0 reply
memcwho wrote on April 26 2008, 04:39 pm

holy shit! 2 years down the line and still no-one else has come up with a better and most importantly more complete tab!!!! 11/10 stars from me!!

I want to post or [tab]
guest
You may want to rate the tab now too:
select rating
Please do not post tabs as comments. Select "correction" instead!