Oops, an error
Loading. Please wait.

Chokehold Tab

ver3
ver3

Solo

Whole song

Interactive

More versions @911Tabs.com
1,217 views 9 this week
no commentswrite comment
1 2 3 4 5
excellent!
x 1
Autoscroll
+/-
esc
set tempo
stop
Contributor
Difficulty
Tuning
intermediate
D G C F A D
NEW! There's an official Ultimate Guitar app which is ideal
for learning songs when you're away from computer. Get the app
WARNING: You are trying to view
                                    content from Ultimate-Guitar.com
                                    in an unauthorized application,
                                    which is prohibited.

                                    Please use an official Ultimate
                                    Guitar Tabs application for iPhone,
                                    iPad or Android to access legitimate
                                    chords, guitar, bass, and drum tabs
                                    from Ultimate-Guitar.com database.

                                    Type "ultimate guitar tabs" in Apple
                                    App Store's or Android Market's
                                    search to find the application.
-------------------------------------------------------------------------------
     Chokehold (Cocked ‘N Loaded) - Children of Bodom
-------------------------------------------------------------------------------

Tabber: lDGlHax0r (Taylor Romey)
Album: Hate Crew Deathroll
Length: 4:12
Tuning: One Step Down (DGCFAD)
Difficulty: 9/10

Guitar I   - Lead
Guitar II  - Harmony/Rhythm
Guitar III - Keyboard

** = Section
++ = Notes Per Bar

Normal = 4 Bars/Measure
W - 4/4
H - 2/4
Q - 1/4
E - 1/8
S - 1/16
T - 1/32
X - 1/64
$ = Rest

Triplets = 3 Bars/Measure
V - 1/3
Z - 1/6


Dist
Wah
Flang

| /    slide up
| \    slide down
| h    hammer-on
| p    pull-off
| ~    vibrato
| []   harmonic
| .    muted note
| ()   tied note


**Intro**


Tempo = 135 BPM


..Guitar I (Dist)
  $
D|--------------------------------|--------------------------------|
A|--------------------------------|--------------------------------|
F|--------------------------------|--------------------------------|
C|--------------------------------|--------------------------------|
G|--------------------------------|--------------------------------|
D|--------------------------------|--------------------------------|
 |                                                                 |
 |Guitar II (Flang)                                                | x 2
 |S S S S S S S S S S S S S S S S  S S S S S S S S S S S S S S S S |
D|--------------------------------|--------------------------------|
A|--------------------------------|--------------------------------|
F|--------------------------------|--------------------------------|
C|--------------------------------|--------------------------------|
G|--------------------------------|--------------------------------|
D|0-0-0-0-0-0-0-0-0-0-0-0-0-0-0-0-|0-0-0-0-0-0-0-0-0-0-0-0-0-0-0-0-|



..Guitar I (Dist)
  S S S S S S S S S S S S S S S S  S S S S S S S S S S S S S S S S 
D|--------------------------------|--------------------------------|
A|--------------------------------|--------------------------------|
F|--------------------------------|--------------------------------|
C|--------------------------------|--------------------------------|
G|--7-8---8-7---7---7-5---5-7---7-|--7-8---8-7---------------------|
D|0-----0-----0---0-----0-----0---|0-----0-----0-0-0-0-0-0-0-0-0-0-|
 |                                             . . . . . . . . . . |
 |Guitar II (Flang)                                                | x 2
 |S S S S S S S S S S S S S S S S  S S S S S S S S S S S S S S S S |
D|--------------------------------|--------------------------------|
A|--------------------------------|--------------------------------|
F|--------------------------------|--------------------------------|
C|--------------------------------|--------------------------------|
G|--------------------------------|--------------------------------|
D|0-0-0-0-0-0-0-0-0-0-0-0-0-0-0-0-|0-0-0-0-0-0-0-0-0-0-0-0-0-0-0-0-|




**Heavy Riff**


..Guitar I (Dist)
  S S E   S E   E   S E   S S S S  S S S S S S S E   S S S E   E 
D|--------------------------------|--------------------------------|
A|--------------------------------|--------------------------------|
F|--------------------------------|--------------------------------|
C|--4/5---5\4---4---4-2---2-4-----|------------------------8---8---|
G|--4/5---5\4---4---4-2---2-4-----|------------------------8---8---|
D|0-2/3---3\2---2---2-0---0-2-2-2-|2-2-2-2-2-2-2-2---2-2-2-6---6---|



..Guitar I (Dist)
  S S E   S E   E   S E   S S S S  S S S S S S S E   S S S E   E 
D|--------------------------------|--------------------------------|
A|--------------------------------|--------------------------------|
F|--------------------------------|------------------------7---9---|
C|--4/5---5\4---4---4-2---2-4-----|------------------------7---9---|
G|--4/5---5\4---4---4-2---2-4-----|------------------------5---7---|
D|0-2/3---3\2---2---2-0---0-2-2-2-|2-2-2-2-2-2-2-2---2-2-2---------|
                            


..Guitar I (Dist)
  S S E   S E   E   S E   S S S S  S S S S S S S E   S S S E   E 
D|--------------------------------|--------------------------------|
A|--------------------------------|--------------------------------|
F|--------------------------------|--------------------------------|
C|--4/5---5\4---4---4-2---2-4-----|------------------------8---8---|
G|--4/5---5\4---4---4-2---2-4-----|------------------------8---8---|
D|0-2/3---3\2---2---2-0---0-2-2-2-|2-2-2-2-2-2-2-2---2-2-2-6---6---|
                           


..Guitar I (Dist)
  S S E   S E   E   S E   S S S S  S S S S H+Q
D|--------------------------------|--------------------------------|
A|--------------------------------|-------[19]---------------------|
F|--------------------------------|--------------------------------|
C|--4/5---5\4---4---4-2---2-4-----|-------[16]---------------------|
G|--4/5---5\4---4---4-2---2-4-----|--------------------------------|
D|0-2/3---3\2---2---2-0---0-2-2-2-|2-2-2-2-------------------------|
                            



**Main Riff**


..Guitar I (Dist)
  S S S S S S S S S S S S S S S S  S S S S S S S S S S S S S S S S 
D|--------------------------------|--------------------------------|
A|--------------------------------|--------------------------------|
F|--------------------------------|--------------------------------|
C|--------------------------------|--------------------------------|
G|--7-8---8-7---7---7-5---5-7---7-|--7-8---8-7---------------------|
D|0-----0-----0---0-----0-----0---|0-----0-----0-0-0-0-0-0-0-0-0-0-|


..Guitar I (Dist)
  S S S S S S S S S S S S S S S S  S S S S S S S S S S S S S S S S 
D|--------------------------------|--------------------------------|
A|--------------------------------|--------------------------------|
F|--------------------------------|------4-2-------------7-5-------|
C|--------------------------------|5-4-2-----5-4-2-8-7-5-----8-7-5-|
G|--7-8---8-7---7---7-5---5-7---7-|--------------------------------|
D|0-----0-----0---0-----0-----0---|--------------------------------|


..Guitar I (Dist)
  S S S S S S S S S S S S S S S S  S S S S S S S S S S S S S S S S 
D|--------------------------------|--------------------------------|
A|--------------------------------|--------------------------------|
F|--------------------------------|--------------------------------|
C|--------------------------------|--------------------------------|
G|--7-8---8-7---7---7-5---5-7---7-|--7-8---8-7---------------------|
D|0-----0-----0---0-----0-----0---|0-----0-----0-0-0-0-0-0-0-0-0-0-|


..Guitar I (Dist)
  S S S S S S S S S S S S S S S S  S S S S S S S S S S S S S S S S 
D|--------------------------------|--------------------------------|
A|--------------------------------|--------------------------------|
F|--------------------------------|------4-2-----------------------|
C|--------------------------------|5-4-2-----5-4-2-------7-5-------|
G|--7-8---8-7---7---7-5---5-7---7-|----------------9-7-5-----9-7-5-|
D|0-----0-----0---0-----0-----0---|--------------------------------|
 |                                                                 |
 |Guitar II (Dist)                                                 |
 |$                                S S S S S S S S S S S S S S S S |
D|--------------------------------|--------------------------------|
A|--------------------------------|--------------------------------|
F|--------------------------------|------7-5-------------5-4-------|
C|--------------------------------|9-7-5-----9-7-5-7-5-4-----7-5-4-|
G|--------------------------------|--------------------------------|
D|--------------------------------|--------------------------------|



**Verse I**


..Guitar I (Dist)
  H               H                E   S S S S S S S S S S S S S S
D|--------------------------------|--------------------------------|
A|--------------------------------|--------------------------------|
F|----------------4---------------|--------------------------------|
C|2---------------4---------------|--------------------------------|
G|2---------------2---------------|--------5h7-----8p7-----8p7-----|
D|3-------------------------------|0---0-0-----0-0-----0-0-----0-0-|
 |                                                                 |
 |Guitar II (Dist)                                                 |
 |H               H                E   S S S S S S S S S S S S S S |
D|--------------------------------|--------------------------------|
A|--------------------------------|--------------------------------|
F|4---------------7---------------|--------------------------------|
C|--------------------------------|--------------------------------|
G|2---------------5---------------|--------5h7-----8p7-----8p7-----|
D|--------------------------------|0---0-0-----0-0-----0-0-----0-0-|



..Guitar I (Dist)
  H               H                S S S S S S S S S S S S S S S S
D|--------------------------------|--------------------------------|
A|--------------------------------|--------------------------------|
F|6---------------5---------------|--------------------------------|
C|6---------------5---------------|--------------------------------|
G|4---------------3---------------|--------7p5---------------------|
D|--------------------------------|0-0-0-0-----0-0-6p5-0-0-5-3-5-1-|
 |                                                                 |
 |Guitar II (Dist)                                                 |
 |H               H                S S S S S S S S S S S S S S S S |
D|--------------------------------|--------------------------------|
A|5---------------5---------------|--------------------------------|
F|--------------------------------|--------------------------------|
C|2---------------2---------------|--------------------------------|
G|--------------------------------|--------7p5---------------------|
D|--------------------------------|0-0-0-0-----0-0-6p5-0-0-5-3-5-1-|



..Guitar I (Dist)
  H               H                E   E   S E   S E   S Q+E
D|--------------------------------|--------------------------------|
A|--------------------------------|----8---8\7---7\5---5\3---------|
F|----------------4---------------|--------------------------------|
C|2---------------4---------------|9-------------------------------|
G|2---------------2---------------|--------------------------------|
D|3-------------------------------|--------------------------------|
 |                                                                 |
 |Guitar II (Dist)                                                 |
 |H               H                E   E   S E   S E   S Q+E       |
D|--------------------------------|--------------------------------|
A|--------------------------------|--------------------------------|
F|4---------------7---------------|--------------------------------|
C|--------------------------------|9---9---9\7---7\5---5/7---------|
G|2---------------5---------------|7---7---7\5---5\3---3/5---------|
D|--------------------------------|--------------------------------|



..Guitar I (Dist)
  H               H                S S S S S S S S S S S S S S S S
D|--------------------------------|--------------------------------|
A|--------------------------------|--------------------------------|
F|6---------------5---------------|------4-2-----------------------|
C|6---------------5---------------|5-4-2-----5-4-2-------7-5-------|
G|4---------------3---------------|----------------9-7-5-----9-7-5-|
D|--------------------------------|--------------------------------|
 |                                                                 |
 |Guitar II (Dist)                                                 |
 |H               H                S S S S S S S S S S S S S S S S |
D|--------------------------------|--------------------------------|
A|5---------------5---------------|--------------------------------|
F|--------------------------------|------7-5-------------5-4-------|
C|2---------------2---------------|9-7-5-----9-7-5-7-5-4-----7-5-4-|
G|--------------------------------|--------------------------------|
D|--------------------------------|--------------------------------|



**Pre Chorus**


..Guitar I (Dist)
  E   S S E   E   E   S S E   E    E+S E+S E+S E  E
D|--------------------------------|--------------------------------|
A|--------------------------------|--------------------------------|
F|------------2-------------------|--------------------------------|
C|2---2-2-4-------5---5-5-4---5---|--------------------------------|
G|--------------------------------|2---2---2---2--2----------------|
D|--------------------------------|0---0---0---0--0----------------|
 |                                                                 |
 |Guitar II (Dist)                                                 |
 |E   S S E   E   E   S S E   E    E+S E+S E+S E  E                |
D|--------------------------------|--------------------------------|
A|--------------------------------|--------------------------------|
F|--------------------------------|--------------------------------|
C|5-------4---5---5-------4---5---|--------------------------------|
G|3---3-3-2---3---3---3-3-2---3---|2---2---2---2--2----------------|
D|--------------------------------|0---0---0---0--0----------------|


..Guitar I (Dist)
  E   S S E   E   E   S S E   E    E+S E+S E+S E  E
D|--------------------------------|15--15--15--14-14---------------|
A|--------------------------------|--------------------------------|
F|------------2-------------------|--------------------------------|
C|2---2-2-4-------5---5-5-4---5---|--------------------------------|
G|--------------------------------|--------------------------------|
D|--------------------------------|--------------------------------|
 |                                                                 |
 |Guitar II (Dist)                                                 |
 |E   S S E   E   E   S S E   E    E+S E+S E+S E  E                |
D|--------------------------------|--------------------------------|
A|--------------------------------|--------------------------------|
F|--------------------------------|--------------------------------|
C|5-------4---5---5-------4---5---|--------------------------------|
G|3---3-3-2---3---3---3-3-2---3---|2---2---2---2--2----------------|
D|--------------------------------|0---0---0---0--0----------------|


..Guitar I (Dist)
  S S S S S S S S S S S S S S S S
D|--------------------------------|--------------------------------|
A|--------------------------------|--------------------------------|
F|2-2-2-2-4-4-7-7-5-5-5-5-4-4-5-5-|9-------7---10--9-------7---10--|
C|--------------------------------|7---7-7-5---8---7---7-7-5---8---|
G|--------------------------------|--------------------------------|
D|--------------------------------|--------------------------------|
 |                                                                 |
 |Guitar II (Dist)                                                 |
 |S S S S S S S S S S S S S S S S                                  |
D|--------------------------------|--------------------------------|
A|--------------------------------|--------------------------------|
F|3-3-3-3-3-3-3-3-3-3-3-3-3-3-3-3-|9-------7---10--9-------7---10--|
C|--------------------------------|7---7-7-5---8---7---7-7-5---8---|
G|--------------------------------|--------------------------------|
D|--------------------------------|--------------------------------|


  S S S S S S S S S S S S S S S S  E+S E+S E+S E  E
D|--------------------------------|10--10--10--10-10---------------|
A|--------------------------------|--------------------------------|
F|2-2-2-2-4-4-7-7-5-5-5-5-4-4-5-5-|--------------------------------|
C|--------------------------------|--------------------------------|
G|--------------------------------|--------------------------------|
D|--------------------------------|--------------------------------|
 |                                                                 |
 |Guitar II (Dist)                                                 |
 |S S S S S S S S S S S S S S S S  E+S E+S E+S E  E                |
D|--------------------------------|--------------------------------|
A|--------------------------------|--------------------------------|
F|3-3-3-3-3-3-3-3-1-1-1-1-1-1-1-1-|--------------------------------|
C|--------------------------------|9---9---9---9--9----------------|
G|--------------------------------|7---7---7---7--7----------------|
D|--------------------------------|--------------------------------|



**Chorus**

..Guitar I (Dist)
  S S S S E   E   S S S S S S S S  S S S S E   E   S S S S S S S S
D|--------------------------------|--------------------------------|
A|--------------------------------|--------------------------------|
F|--------2---3-------------------|--------5---4---------5-4-------|
C|--------2---3-------------------|--------3---2-------------5-3-2-|
G|0-0-0-0---------0-0-0-0-0-0-0-0-|0-0-0-0---------0-0-0-----------|
D|--------------------------------|--------------------------------|
 |                                                                 |
 |Guitar II (Dist)                                                 |
 |S S S S E   E   S S S S S S S S  S S S S E   E   S S S S S S S S |
D|--------------------------------|--------------------------------|
A|--------------------------------|--------------------------------|
F|--------2---3-------------------|--------5---4-------------------|
C|--------2---3-------------------|--------3---2-------------------|
G|0-0-0-0---------0-0-0-0-0-0-0-0-|0-0-0-0---------0-0-0-0-0-0-0-0-|
D|--------------------------------|--------------------------------|



..Guitar I (Dist)
  E+S   E+S   E   E+S   E+S   E    E+S   E+S   E   E+S   E+S   E   
D|--------------------------------|--------------------------------|
A|--------------------------------|--------------------------------|
F|5-----5-----5---7-----7-----7---|5-----5-----5---4-----4-----4---|
C|5-----5-----5---5-----5-----5---|7-----7-----7---5-----5-----5---|
G|--------------------------------|--------------------------------|
D|--------------------------------|--------------------------------|
 |                                                                 |
 |Guitar II (Dist)                                                 |
 |E+S   E+S   E   E+S   E+S   E    E+S   E+S   E   E+S   E+S   E   |
D|--------------------------------|--------------------------------|
A|8-----8-----8---8-----8-----8---|5-----5-----5-------------------|
F|5-----5-----5---7-----7-----7---|2-----2-----2---4-----4-----4---|
C|--------------------------------|----------------2-----2-----2---|
G|--------------------------------|--------------------------------|
D|--------------------------------|--------------------------------|



..Guitar I (Dist)
  S S S S E   E   S S S S S S S S  S S S S E   E   S S S S S S S S
D|--------------------------------|--------------------------------|
A|--------------------------------|--------------------------------|
F|--------2---3-------------------|--------5---4---------5-4-------|
C|--------2---3-------------------|--------3---2-------------5-3-2-|
G|0-0-0-0---------0-0-0-0-0-0-0-0-|0-0-0-0---------0-0-0-----------|
D|--------------------------------|--------------------------------|
 |                                                                 |
 |Guitar II (Dist)                                                 |
 |S S S S E   E   S S S S S S S S  S S S S E   E   S S S S S S S S |
D|--------------------------------|--------------------------------|
A|--------------------------------|--------------------------------|
F|--------2---3-------------------|--------5---4-------------------|
C|--------2---3-------------------|--------3---2-------------------|
G|0-0-0-0---------0-0-0-0-0-0-0-0-|0-0-0-0---------0-0-0-0-0-0-0-0-|
D|--------------------------------|--------------------------------|



..Guitar I (Dist)
  E+S   E+S   E   E+S   E+S   E    E+S   E+S   E   E+S   E+S   E   
D|--------------------------------|--------------------------------|
A|--------------------------------|--------------------------------|
F|5-----5-----5---7-----7-----7---|5-----5-----5---4-----4-----4---|
C|5-----5-----5---5-----5-----5---|7-----7-----7---5-----5-----5---|
G|--------------------------------|--------------------------------|
D|--------------------------------|--------------------------------|
 |                                                                 |
 |Guitar II (Dist)                                                 |
 |E+S   E+S   E   E+S   E+S   E    E+S   E+S   E   E+S   E+S   E   |
D|--------------------------------|--------------------------------|
A|8-----8-----8---8-----8-----8---|5-----5-----5-------------------|
F|5-----5-----5---7-----7-----7---|2-----2-----2---4-----4-----4---|
C|--------------------------------|----------------2-----2-----2---|
G|--------------------------------|--------------------------------|
D|--------------------------------|--------------------------------|




**Main Riff II**


..Guitar I (Dist)
  S S S S S S S S S S S S S S S S  S S S S S S S S S S S S S S S S 
D|--------------------------------|--------------------------------|
A|--------------------------------|--------------------------------|
F|--------------------------------|--------------------------------|
C|--------------------------------|--------------------------------|
G|--7-8---8-7---7---7-5---5-7---7-|--7-8---8-7---------------------|
D|0-----0-----0---0-----0-----0---|0-----0-----0-0-0-0-0-0-0-0-0-0-|


..Guitar I (Dist)
  S S S S S S S S S S S S S S S S  S S S S S S S S S S S S S S S S 
D|--------------------------------|--------------------------------|
A|--------------------------------|--------------------------------|
F|--------------------------------|------4-2-------------7-5-------|
C|--------------------------------|5-4-2-----5-4-2-8-7-5-----8-7-5-|
G|--7-8---8-7---7---7-5---5-7---7-|--------------------------------|
D|0-----0-----0---0-----0-----0---|--------------------------------|


..Guitar I (Dist)
  S S S S S S S S S S S S S S S S  S S S S S S S S S S S S S S S S 
D|--------------------------------|--------------------------------|
A|--------------------------------|--------------------------------|
F|--------------------------------|--------------------------------|
C|--------------------------------|--------------------------------|
G|--7-8---8-7---7---7-5---5-7---7-|--7-8---8-7---------------------|
D|0-----0-----0---0-----0-----0---|0-----0-----0-0-0-0-0-0-0-0-0-0-|


..Guitar I (Dist)
  S S S S S S S S S S S S S S S S  S S S S S S S S S S S S S S S S 
D|--------------------------------|--------------------------------|
A|--------------------------------|--------------------------------|
F|--------------------------------|------4-2-----------------------|
C|--------------------------------|5-4-2-----5-4-2-------7-5-------|
G|--7-8---8-7---7---7-5---5-7---7-|----------------9-7-5-----9-7-5-|
D|0-----0-----0---0-----0-----0---|--------------------------------|
 |                                                                 |
 |Guitar II (Dist)                                                 |
 |$                                S S S S S S S S S S S S S S S S |
D|--------------------------------|--------------------------------|
A|--------------------------------|--------------------------------|
F|--------------------------------|------7-5-------------5-4-------|
C|--------------------------------|9-7-5-----9-7-5-7-5-4-----7-5-4-|
G|--------------------------------|--------------------------------|
D|--------------------------------|--------------------------------|



**Verse II**


..Guitar I (Dist)
  H               H                E   S S S S S S S S S S S S S S
D|--------------------------------|--------------------------------|
A|--------------------------------|--------------------------------|
F|----------------4---------------|--------------------------------|
C|2---------------4---------------|--------------------------------|
G|2---------------2---------------|--------5h7-----8p7-----8p7-----|
D|3-------------------------------|0---0-0-----0-0-----0-0-----0-0-|
 |                                                                 |
 |Guitar II (Dist)                                                 |
 |H               H                E   S S S S S S S S S S S S S S |
D|--------------------------------|--------------------------------|
A|--------------------------------|--------------------------------|
F|4---------------7---------------|--------------------------------|
C|--------------------------------|--------------------------------|
G|2---------------5---------------|--------5h7-----8p7-----8p7-----|
D|--------------------------------|0---0-0-----0-0-----0-0-----0-0-|



..Guitar I (Dist)
  H               H                S S S S S S S S S S S S S S S S
D|--------------------------------|--------------------------------|
A|--------------------------------|--------------------------------|
F|6---------------5---------------|--------------------------------|
C|6---------------5---------------|--------------------------------|
G|4---------------3---------------|--------7p5---------------------|
D|--------------------------------|0-0-0-0-----0-0-6p5-0-0-5-3-5-1-|
 |                                                                 |
 |Guitar II (Dist)                                                 |
 |H               H                S S S S S S S S S S S S S S S S |
D|--------------------------------|--------------------------------|
A|5---------------5---------------|--------------------------------|
F|--------------------------------|--------------------------------|
C|2---------------2---------------|--------------------------------|
G|--------------------------------|--------7p5---------------------|
D|--------------------------------|0-0-0-0-----0-0-6p5-0-0-5-3-5-1-|



..Guitar I (Dist)
  H               H                E   E   S E   S E   S Q+E
D|--------------------------------|--------------------------------|
A|--------------------------------|----8---8\7---7\5---5\3---------|
F|----------------4---------------|--------------------------------|
C|2---------------4---------------|9-------------------------------|
G|2---------------2---------------|--------------------------------|
D|3-------------------------------|--------------------------------|
 |                                                                 |
 |Guitar II (Dist)                                                 |
 |H               H                E   E   S E   S E   S Q+E       |
D|--------------------------------|--------------------------------|
A|--------------------------------|--------------------------------|
F|4---------------7---------------|--------------------------------|
C|--------------------------------|9---9---9\7---7\5---5/7---------|
G|2---------------5---------------|7---7---7\5---5\3---3/5---------|
D|--------------------------------|--------------------------------|



..Guitar I (Dist)
  H               H                Q
D|--------------------------------|----------------|
A|--------------------------------|----------------|
F|6---------------5---------------|----------------|
C|6---------------5---------------|----------------|
G|4---------------3---------------|2---------------|
D|--------------------------------|0---------------|
 |                                                 |
 |Guitar II (Dist)                                 |
 |H               H                Q               |
D|--------------------------------|----------------|
A|5---------------5---------------|----------------|
F|--------------------------------|----------------|
C|2---------------2---------------|----------------|
G|--------------------------------|2---------------|
D|--------------------------------|0---------------|


..Guitar I (Dist)
  V V V V V V V V V
D|--------------------------------|
A|--------------------------------|
F|4-4-4-5-5-5-7-7-7---------------|
C|4-4-4-5-5-5-7-7-7---------------|
G|2-2-2-3-3-3-5-5-5---------------|
D|--------------------------------|
 |                                |
 |Guitar II (Dist)                |
 |Note Duration                   |
D|--------------------------------|
A|--------------------------------|
F|4-4-4-5-5-5-7-7-7---------------|
C|4-4-4-5-5-5-7-7-7---------------|
G|2-2-2-3-3-3-5-5-5---------------|
D|--------------------------------|



**Bridge**

..Guitar I (Dist)
  V V V V V V V V V V V V V V V V V V V V V V V V
D|------------------------------------------------|
A|------------------------------------------------|
F|------------------------------------------------|
C|5-5-5-5-5-5-7-7-7-7-7-7-9-9-9-9-9-9-9-9-9-9-9-9-|
G|3-3-3-3-3-3-5-5-5-5-5-5-7-7-7-7-7-7-7-7-7-7-7-7-|
D|------------------------------------------------|
 |                                                |
 |Guitar II (Dist)                                |
 |V V V V V V V V V V V V V V V V V V V V V V V V |
D|------------------------------------------------|
A|------------------------------------------------|
F|------------------------------------------------|
C|5-5-5-5-5-5-7-7-7-7-7-7-9-9-9-9-9-9-9-9-9-9-9-9-|
G|3-3-3-3-3-3-5-5-5-5-5-5-7-7-7-7-7-7-7-7-7-7-7-7-|
D|------------------------------------------------|


..Guitar I (Dist)
  V V V V V V V V V V V V V V V V V V V V V V V V
D|------------------------------------------------|
A|------------------------------------------------|
F|------------------------------------------------|
C|5-5-5-5-5-5-7-7-7-7-7-7-------------------------|
G|3-3-3-3-3-3-5-5-5-5-5-5-2-2-2-2-2-2-2-2-2-2-2-2-|
D|------------------------0-0-0-0-0-0-0-0-0-0-0-0-|
 |                                                |
 |Guitar II (Dist)                                |
 |V V V V V V V V V V V V V V V V V V V V V V V V |
D|------------------------------------------------|
A|------------------------------------------------|
F|------------------------------------------------|
C|5-5-5-5-5-5-7-7-7-7-7-7-------------------------|
G|3-3-3-3-3-3-5-5-5-5-5-5-2-2-2-2-2-2-2-2-2-2-2-2-|
D|------------------------0-0-0-0-0-0-0-0-0-0-0-0-|


..Guitar I (Dist)
  V V V V V V V V V V V V V V V V V V V V V V V V
D|------------------------------------------------|
A|------------------------------------------------|
F|------------------------------------------------|
C|5-5-5-5-5-5-7-7-7-7-7-7-9-9-9-9-9-9-9-9-9-9-9-9-|
G|3-3-3-3-3-3-5-5-5-5-5-5-7-7-7-7-7-7-7-7-7-7-7-7-|
D|------------------------------------------------|
 |                                                |
 |Guitar II (Dist)                                |
 |V V V V V V V V V V V V V V V V V V V V V V V V |
D|------------------------------------------------|
A|------------------------------------------------|
F|------------------------------------------------|
C|5-5-5-5-5-5-7-7-7-7-7-7-9-9-9-9-9-9-9-9-9-9-9-9-|
G|3-3-3-3-3-3-5-5-5-5-5-5-7-7-7-7-7-7-7-7-7-7-7-7-|
D|------------------------------------------------|


..Guitar I (Dist)
  V V V V V V V V V V V V H           H
D|------------------------------------------------|
A|------------------------------------------------|
F|------------------------------------------------|
C|5-5-5-5-5-5-7-7-7-7-7-7-------------------------|
G|3-3-3-3-3-3-5-5-5-5-5-5-------------------------|
D|------------------------0------------Whammy Dive|
 |                                                |
 |Guitar II (Dist)                                |
 |H           H           H           H           |
D|------------------------------------------------|
A|------------------------------------------------|
F|------------------------------------------------|
C|5-----------4-----------2-----------xxxxxxxxxxxx|
G|------------------------2-----------xxxxxxxxxxxx|
D|3-----------2-----------------------------------|



**Guitar Solo I**


..Guitar I (Wah)
  V   V   V   V   V   V   V   V   V   V   V   V     
D|10--10--10--10----------------------------------|
A|----------------8-------10--10--10--10--8---7---|
F|--------------------7---------------------------|
C|------------------------------------------------|
G|------------------------------------------------|
D|------------------------------------------------|
 |                                                |
 |Guitar II (Dist)                                |
 |V   V   V   V   V   V   V   V   V   V   V   V   |
D|------------------------------------------------|
A|------------------------------------------------|
F|------------------------------------------------|
C|5---5---5---5---5---5---7---7---7---7---7---7---|
G|3---3---3---3---3---3---5---5---5---5---5---5---|
D|------------------------------------------------|


..Guitar I (Wah)
  V   V   V   V   V   V   Vx6
D|--------------------22--24----------------------|
A|20--22--24--22--24------------------------------|
F|------------------------------------------------|
C|------------------------------------------------|
G|------------------------------------------------|
D|------------------------------------------------|
 |                                                |
 |Guitar II (Dist)                                |
 |V   V   V   V   V   V   V   V   V   V   V   V   |
D|------------------------------------------------|
A|------------------------------------------------|
F|------------------------------------------------|
C|9---9---9---9---9---9---9---9---9---9---9---9---|
G|7---7---7---7---7---7---7---7---7---7---7---7---|
D|------------------------------------------------|


..Guitar I (Wah)
  V   V   V   Vx3         V   V   V   Vx3  
D|------------------------------------------------|
A|--------7---8-------------------8---7-----------|
F|----5-----------------------5-------------------|
C|5-----------------------5-----------------------|
G|------------------------------------------------|
D|------------------------------------------------|
 |                                                |
 |Guitar II (Dist)                                |
 |V   V   V   V   V   V   V   V   V   V   V   V   |
D|------------------------------------------------|
A|------------------------------------------------|
F|------------------------------------------------|
C|5---5---5---5---5---5---7---7---7---7---7---7---|
G|3---3---3---3---3---3---5---5---5---5---5---5---|
D|------------------------------------------------|


..Guitar I (Wah)
  V   V   V   V   V   V   V   V   V   V   V   V  
D|------------------------12----------14----------|
A|------------7---8---10------8---10------10--12--|
F|9---7---9---------------------------------------|
C|------------------------------------------------|
G|------------------------------------------------|
D|------------------------------------------------|
 |                                                |
 |Guitar II (Dist)                                |
 |V   V   V   V   V   V   V   V   V   V   V   V   |
D|------------------------------------------------|
A|------------------------------------------------|
F|------------------------------------------------|
C|------------------------------------------------|
G|2---2---2---2---2---2---2---2---2---2---2---2---|
D|0---0---0---0---0---0---0---0---0---0---0---0---|


..Guitar I (Wah)
  Vx2     V   V   V   Vx2     V   V   V   V   V     
D|14^15---15--14--12--12^14---14--12--10----------|
A|------------------------------------------------|
F|------------------------------------------------|
C|------------------------------------------------|
G|------------------------------------------------|
D|------------------------------------------------|
 |                                                |
 |Guitar II (Dist)                                |
 |V   V   V   V   V   V   V   V   V   V   V   V   |
D|------------------------------------------------|
A|------------------------------------------------|
F|------------------------------------------------|
C|5---5---5---5---5---5---7---7---7---7---7---7---|
G|3---3---3---3---3---3---5---5---5---5---5---5---|
D|------------------------------------------------|



..Guitar I (Wah)
  Vx3      Vx2    Vx3         Vx4
D|---------15-----------------24------------------|
A|15^17-----------15----------24------------------|
F|------------------------------------------------|
C|------------------------------------------------|
G|------------------------------------------------|
D|------------------------------------------------|
 |                                                |
 |Guitar II (Dist)                                |
 |V   V   V   V   V   V   V   V   V   V   V   V   |
D|------------------------------------------------|
A|------------------------------------------------|
F|------------------------------------------------|
C|9---9---9---9---9---9---9---9---9---9---9---9---|
G|7---7---7---7---7---7---7---7---7---7---7---7---|
D|------------------------------------------------|


..Guitar I (Wah)
  V   V   V   V   V   V   V   V   V   V   V   V     
D|19--19--19--19--22--19--17--17--17--17--15--14--|
A|20--20--20--20--24--20--19--19--19--19--17--15--|
F|------------------------------------------------|
C|------------------------------------------------|
G|------------------------------------------------|
D|------------------------------------------------|
 |                                                |
 |Guitar II (Dist)                                |
 |V   V   V   V   V   V   V   V   V   V   V   V   |
D|------------------------------------------------|
A|------------------------------------------------|
F|------------------------------------------------|
C|5---5---5---5---5---5---7---7---7---7---7---7---|
G|3---3---3---3---3---3---5---5---5---5---5---5---|
D|------------------------------------------------|


..Guitar I (Dist)
  H                       H
D|12----------------------24\0--------------------|
A|------------------------------------------------|
F|------------------------------------------------|
C|------------------------------------------------|
G|------------------------------------------------|
D|------------------------------------------------|
 |                                                |
 |Guitar II (Dist)                                |
 |Note Duration                                   |
D|------------------------------------------------|
A|------------------------------------------------|
F|------------------------------------------------|
C|2-----------------------------------------------|
G|2-----------------------------------------------|
D|0-----------------------------------------------|



**Pre Solo**


..Guitar I (Dist)
  S   S   S   S   S   S   S   S    S   S   S   S   S   S   S   S
D|--------------------------------|--------------------------------|
A|--------------------------------|--------------------------------|
F|----------------9---7---10--9---|7-------------------------------|
C|0---10--7---0-------------------|----10--8---7-------7-----------|
G|--------------------------------|----------------10------8---7---|
D|--------------------------------|--------------------------------|
 |                                                                 |
 |Guitar II (Dist)                                                 |
 |W                                                                |
D|--------------------------------|--------------------------------|
A|--------------------------------|--------------------------------|
F|7-------------------------------|--------------------------------|
C|7-------------------------------|--------------------------------|
G|5-------------------------------|--------------------------------|
D|--------------------------------|--------------------------------|


..Guitar I (Dist)
  S   S   S   S   S   S   S   S    S   S   S   S   Q
D|--------------------------------|--------------------------------|
A|--------------------------------|--------------------------------|
F|----------------9---7---10--9---|7---------------13--------------|
C|0---10--7---0-------------------|----10--8---7---12--------------|
G|--------------------------------|----------------10--------------|
D|--------------------------------|--------------------------------|
 |                                                                 |
 |Guitar II (Dist)                                                 |
 |H                                Q                               |
D|--------------------------------|--------------------------------|
A|--------------------------------|--------------------------------|
F|(7)-----------------------------|(7)-------------5---------------|
C|(7)-----------------------------|(7)-------------5---------------|
G|(5)-----------------------------|(5)-------------3---------------|
D|--------------------------------|--------------------------------|


..Guitar I (Dist)
  S   S   S   S   S   S   S   S    S   S   S   S   S   S   S   S
D|--------------------------------|--------------------------------|
A|--------------------------------|--------------------------------|
F|----------------9---7---10--9---|7-------------------------------|
C|0---10--7---0-------------------|----10--8---7-------7-----------|
G|--------------------------------|----------------10------8---7---|
D|--------------------------------|--------------------------------|
 |                                                                 |
 |Guitar II (Dist)                                                 |
 |W                                                                |
D|--------------------------------|--------------------------------|
A|--------------------------------|--------------------------------|
F|7-------------------------------|--------------------------------|
C|7-------------------------------|--------------------------------|
G|5-------------------------------|--------------------------------|
D|--------------------------------|--------------------------------|


..Guitar I (Dist)
  S   S   S   S   S   S   S   S    S   S   S   S   S   S   S   S
D|--------------------------------|--------------------------------|
A|--------------------------------|--------------------------------|
F|----------------9---7---10--9---|7---------------13--------------|
C|0---10--7---0-------------------|----10--8---7---12--------------|
G|--------------------------------|----------------10--------------|
D|--------------------------------|--------------------------------|
 |                                                                 |
 |Guitar II (Dist)                                                 |
 |E                                                                |
D|--------------------------------|--------------------------------|
A|--------------------------------|--------------------------------|
F|7-------------------------------|--------------------------------|
C|7-------------------------------|--------------------------------|
G|5-------------------------------|--------------------------------|
D|--------------------------------|--------------------------------|


..Guitar I (Dist)
  S   S   S   S   S   S   S   S    S   S   S   S   S   S   S   S
D|--------------------------------|--------------------------------|
A|--------------------------------|--------------------------------|
F|----------------9---7---10--9---|7-------------------------------|
C|0---10--7---0-------------------|----10--8---7-------7-----------|
G|--------------------------------|----------------10------8---7---|
D|--------------------------------|--------------------------------|
 |                                                                 |
 |Guitar II (Dist)                                                 |
 |S   S   S   S   S   S   S   S    S   S   S   S   S   S   S   S   |
D|--------------------------------|--------------------------------|
A|--------------------------------|--------------------------------|
F|--------------------------------|--------------------------------|
C|--------------------------------|--------------------------------|
G|5---5---5---5---3---3---3---3---|5---5---5---5---3---3---3---3---|
D|--------------------------------|--------------------------------|



..Guitar I (Dist)
  S   S   S   S   S   S   S   S    S   S   S   S   S   S   S   S
D|--------------------------------|--------------------------------|
A|--------------------------------|--------------------------------|
F|----------------9---7---10--9---|7---------------13--------------|
C|0---10--7---0-------------------|----10--8---7---12--------------|
G|--------------------------------|----------------10--------------|
D|--------------------------------|--------------------------------|
 |                                                                 |
 |Guitar II (Dist)                                                 |
 |S   S   S   S   S   S   S   S    S   S   S   S   Q               |
D|--------------------------------|--------------------------------|
A|--------------------------------|--------------------------------|
F|--------------------------------|--------------------------------|
C|--------------------------------|----------------5---------------|
G|5---5---5---5---3---3---3---3---|1---1---1---1---3---------------|
D|--------------------------------|--------------------------------|


..Guitar I (Dist)
  S   S   S   S   S   S   S   S    S   S   S   S   S   S   S   S
D|--------------------------------|--------------------------------|
A|--------------------------------|--------------------------------|
F|----------------9---7---10--9---|7-------------------------------|
C|0---10--7---0-------------------|----10--8---7-------7-----------|
G|--------------------------------|----------------10------8---7---|
D|--------------------------------|--------------------------------|
 |                                                                 |
 |Guitar II (Dist)                                                 |
 |S   S   S   S   S   S   S   S    S   S   S   S   S   S   S   S   |
D|--------------------------------|--------------------------------|
A|--------------------------------|--------------------------------|
F|--------------------------------|--------------------------------|
C|--------------------------------|--------------------------------|
G|5---5---5---5---3---3---3---3---|5---5---5---5---3---3---3---3---|
D|--------------------------------|--------------------------------|



..Guitar I (Dist)
  S   S   S   S   S   S   S   S    S   S   S   S   S   S   S   S
D|--------------------------------|--------------------------------|
A|--------------------------------|--------------------------------|
F|----------------9---7---10--9---|7---------------13--------------|
C|0---10--7---0-------------------|----10--8---7---12--------------|
G|--------------------------------|----------------10--------------|
D|--------------------------------|--------------------------------|
 |                                                                 |
 |Guitar II (Dist)                                                 |
 |S   S   S   S   S   S   S   S    S   S   S   S   Q               |
D|--------------------------------|--------------------------------|
A|--------------------------------|--------------------------------|
F|--------------------------------|--------------------------------|
C|--------------------------------|3---3---3---3---5---------------|
G|5---5---5---5---3---3---3---3---|----------------3---------------|
D|--------------------------------|--------------------------------|


..Guitar I (Dist)
  S   S   S   S   S   S   S   S    S   S   S   S   S   S   S   S
D|--------------------------------|--------------------------------|
A|----------------10--8---11--10--|8-------------------------------|
F|0---10--7---0-------------------|----10--8---7-------7-----------|
C|--------------------------------|----------------10------8---7---|
G|--------------------------------|--------------------------------|
D|--------------------------------|--------------------------------|
 |                                                                 |
 |Guitar II (Dist)                                                 |
 |S   S   S   S   S   S   S   S    S   S   S   S   S   S   S   S   |
D|--------------------------------|--------------------------------|
A|--------------------------------|--------------------------------|
F|--------------------------------|--------------------------------|
C|5---5---5---5---3---3---3---3---|5---5---5---5---3---3---3---3---|
G|--------------------------------|--------------------------------|
D|--------------------------------|--------------------------------|


..Guitar I (Dist)
  S   S   S   S   S   S   S   S    S   S   S   S   Q
D|--------------------------------|----------------13--------------|
A|----------------10--8---11--10--|8---------------13--------------|
F|0---10--7---0-------------------|----10--8---7---10--------------|
C|--------------------------------|--------------------------------|
G|--------------------------------|--------------------------------|
D|--------------------------------|--------------------------------|
 |                                                                 |
 |Guitar II (Dist)                                                 |
 |S   S   S   S   S   S   S   S    S   S   S   S   Q               |
D|--------------------------------|--------------------------------|
A|--------------------------------|----------------5---------------|
F|--------------------------------|----------------5---------------|
C|5---5---5---5---3---3---3---3---|1---1---1---1---3---------------|
G|--------------------------------|--------------------------------|
D|--------------------------------|--------------------------------|


..Guitar I (Dist)
  S   S   S   S   S   S   S   S    S   S   S   S   S   S   S   S
D|--------------------------------|--------------------------------|
A|----------------10--8---11--10--|8-------------------------------|
F|0---10--7---0-------------------|----10--8---7-------7-----------|
C|--------------------------------|----------------10------8---7---|
G|--------------------------------|--------------------------------|
D|--------------------------------|--------------------------------|
 |                                                                 |
 |Guitar II (Dist)                                                 |
 |S   S   S   S   S   S   S   S    S   S   S   S   S   S   S   S   |
D|--------------------------------|--------------------------------|
A|--------------------------------|--------------------------------|
F|--------------------------------|--------------------------------|
C|5---5---5---5---3---3---3---3---|5---5---5---5---3---3---3---3---|
G|--------------------------------|--------------------------------|
D|--------------------------------|--------------------------------|


..Guitar I (Dist)
  S   S   S   S   S   S   S   S    S   S   S   S   Q
D|--------------------------------|----------------13--------------|
A|----------------10--8---11--10--|8---------------13--------------|
F|0---10--7---0-------------------|----10--8---7---10--------------|
C|--------------------------------|--------------------------------|
G|--------------------------------|--------------------------------|
D|--------------------------------|--------------------------------|
 |                                                                 |
 |Guitar II (Dist)                                                 |
 |S   S   S   S   S   S   S   S    S   S   S   S   Q               |
D|--------------------------------|--------------------------------|
A|--------------------------------|----------------6---------------|
F|--------------------------------|3---3---3---3---5---------------|
C|5---5---5---5---3---3---3---3---|----------------3---------------|
G|--------------------------------|--------------------------------|
D|--------------------------------|--------------------------------|



..Guitar I (Dist)
  S   S   S   S   S   S   S   S    S   S   S   S   S   S   S   S
D|--------------------------------|----------------15--------------|
A|--------15--------------17------|--------18----------------------|
F|17--18------18--17--18------18--|17--18------18------18--17--15--|
C|--------------------------------|--------------------------------|
G|--------------------------------|--------------------------------|
D|--------------------------------|--------------------------------|


..Guitar I (Dist)
  S   S   S   S   S   S   S   S    S   S   S   S   Q
D|--------------------------------|--------------------------------|
A|--------------------------------|--------------------------------|
F|17------15--16------------------|----16--------------------------|
C|----17----------17--15----------|--------17--15------------------|
G|------------------------17--16--|15--------------16--------------|
D|--------------------------------|--------------------------------|



**Keyboard Solo I**


..Guitar III (Dist)
  Z   Z   Z   Z   Z   Z   Z   Z   Z   Z   Z   Z
D|------------------------------------------------|
A|------------------------------------------------|
F|------------------------------------------------|
C|4---6---6---6---6---6---6---6---6---6---6---6---|
G|------------------------------------------------|
D|------------------------------------------------|
 |                                                |
 |Guitar II (Dist)                                |
 |S     S     S     S+E               E           |
D|------------------------------------------------|
A|------------------------------------------------|
F|------------------------------------------------|
C|------------------------------------------------|
G|------------------6-----------------6-----------|
D|4-----4-----4-----4-----------------4-----------|


..Guitar III (Dist)
  Z   Z   Z   Z   Z   Z   Z   Z   Z   Z   Z   Z
D|------------------------------------------------|
A|------------------------------------------------|
F|------------------------------------------------|
C|4---6---6---6---6---6---6---6---6---6---6---6---|
G|------------------------------------------------|
D|------------------------------------------------|
 |                                                |
 |Guitar II (Dist)                                |
 |S     S     S     S+E               E           |
D|------------------------------------------------|
A|------------------------------------------------|
F|------------------------------------------------|
C|------------------4-----------------4-----------|
G|2-----2-----2-----2-----------------2-----------|
D|------------------------------------------------|


..Guitar III (Dist)
  Z   Z   Z   Z   Z   Z   Z   Z   Z   Z   Z   Z
D|------------------------------------------------|
A|------------------------------------------------|
F|------------------------------------------------|
C|4---6---6---6---6---6---4---6---6---6---6---6---|
G|------------------------------------------------|
D|------------------------------------------------|
 |                                                |
 |Guitar II (Dist)                                |
 |S     S     S     S+E               E           |
D|------------------------------------------------|
A|------------------------------------------------|
F|------------------------------------------------|
C|------------------------------------------------|
G|------------------2-----------------2-----------|
D|0-----0-----0-----0-----------------0-----------|


..Guitar III (Dist)
  Z   Z   Z   Z   Z   Z   Z   Z   Z   Z   Z   Z
D|------------------------------------------------|
A|------------------------------------------------|
F|------------------------------------------------|
C|4---4---4---4---4---4---4---4---4---4---4---4---|
G|------------------------------------------------|
D|------------------------------------------------|
 |                                                |
 |Guitar II (Dist)                                |
 |S     S     S     S+E               E           |
D|------------------------------------------------|
A|------------------------------------------------|
F|------------------------------------------------|
C|------------------------------------------------|
G|------------------4-----------------4-----------|
D|2-----2-----2-----2-----------------2-----------|



..Guitar III (Dist)
  S   S   S   S   S   S   S   S    S   S   S   S   S   S   S   S   
D|--------------------------------|--------------------------------|
A|----------------------------11--|10--12--14------12--14--15--16--|
F|----11--13------11--12--13------|------------14------------------|
C|13----------13------------------|--------------------------------|
G|--------------------------------|--------------------------------|
D|--------------------------------|--------------------------------|
 |                                                                 |
 |Guitar II (Dist)                                                 |
 |S   S   S   S+E          E                                       |
D|--------------------------------|--------------------------------|
A|--------------------------------|--------------------------------|
F|--------------------------------|------------4------------4------|
C|------------6------------6------|------------4------------4------|
G|------------6------------6------|2---2---2---2------------2------|
D|4---4---4---4------------4------|--------------------------------|


..Guitar III (Dist)
  S   S   S   S   S   S   S   S    S   S   S   S   S   S  V  V  V      
D|----------------14--16--19--16--|14------------------------------|
A|14--15--16--17------------------|----16--14--16--17--15----------|
F|--------------------------------|-----------------------15-13-11-|
C|--------------------------------|--------------------------------|
G|--------------------------------|--------------------------------|
D|--------------------------------|--------------------------------|
 |                                                                 |
 |Guitar II (Dist)                                                 |
 |Q               Q                Q               Q               |
D|--------------------------------|--------------------------------|
A|--------------------------------|--------------------------------|
F|--------------------------------|--------------------------------|
C|9---------------8---------------|6-------------------------------|
G|7---------------6---------------|4---------------4---------------|
D|--------------------------------|----------------2---------------|


..Guitar III (Dist)
  Z   Z   Z   Z   Z   Z   Z   Z   Z   Z   Z   Z
D|------------7-----------------------7-----------|
A|----7---9-------9---7-------7---9-------9---7---|
F|8-----------------------8-----------------------|
C|------------------------------------------------|
G|------------------------------------------------|
D|------------------------------------------------|
 |                                                |
 |Guitar II (Dist)                                |
 |S     S     S     S+E               E           |
D|------------------------------------------------|
A|------------------------------------------------|
F|------------------------------------------------|
C|------------------------------------------------|
G|------------------6-----------------6-----------|
D|4-----4-----4-----4-----------------4-----------|


..Guitar III (Dist)
  Z   Z   Z   Z   Z   Z   Z   Z   Z   Z   Z   Z
D|--------7---9---7-------------------11----------|
A|----9---------------9-----------12------12------|
F|9-----------------------11--13--------------13--|
C|------------------------------------------------|
G|------------------------------------------------|
D|------------------------------------------------|
 |                                                |
 |Guitar II (Dist)                                |
 |S     S     S     S+E               E           |
D|------------------------------------------------|
A|------------------------------------------------|
F|------------------------------------------------|
C|------------------4-----------------4-----------|
G|2-----2-----2-----2-----------------2-----------|
D|------------------------------------------------|


..Guitar III (Dist)
  Z   Z   Z   Z   Z   Z   Z   Z   Z   Z   Z   Z
D|------------12----------------------14----------|
A|--------12------12----------12--14------14--12--|
F|11--13--------------13--11----------------------|
C|------------------------------------------------|
G|------------------------------------------------|
D|------------------------------------------------|
 |                                                |
 |Guitar II (Dist)                                |
 |S     S     S     S+E               E           |
D|------------------------------------------------|
A|------------------------------------------------|
F|------------------------------------------------|
C|------------------------------------------------|
G|------------------2-----------------2-----------|
D|0-----0-----0-----0-----------------0-----------|



..Guitar III (Dist)
  Z   Z   Z   Z   Z   Z   Z   Z   Z   Z   Z   Z
D|----9---14--18--14--9-------11--16--19--16--14--|
A|11----------------------12----------------------|
F|------------------------------------------------|
C|------------------------------------------------|
G|------------------------------------------------|
D|------------------------------------------------|
 |                                                |
 |Guitar II (Dist)                                |
 |S     S     S     S+E               E           |
D|------------------------------------------------|
A|------------------------------------------------|
F|------------------------------------------------|
C|------------------------------------------------|
G|------------------4-----------------4-----------|
D|2-----2-----2-----2-----------------2-----------|


..Guitar III (Dist)
  S+E         S+E         E        S+E         S+Q
D|19----------16----------19------|18----------14------------------|
A|--------------------------------|--------------------------------|
F|--------------------------------|--------------------------------|
C|--------------------------------|--------------------------------|
G|--------------------------------|--------------------------------|
D|--------------------------------|--------------------------------|
 |                                                                 |
 |Guitar II (Dist)                                                 |
 |S   S   S   S+E          E                                       |
D|--------------------------------|--------------------------------|
A|--------------------------------|--------------------------------|
F|--------------------------------|------------4------------4------|
C|------------6------------6------|------------4------------4------|
G|------------6------------6------|2---2---2---2------------2------|
D|4---4---4---4------------4------|--------------------------------|


..Guitar III (Dist)
  Z   Z   Z   Z   Z   Z   Z   Z    Z   Z   Z   Z   z   Z   Z   Z
D|18--16--14----------------------|18--16--14----------------------|
A|------------17--16--14--16--15--|------------17--16--14--16--15--|
F|--------------------------------|--------------------------------|
C|--------------------------------|--------------------------------|
G|--------------------------------|--------------------------------|
D|--------------------------------|--------------------------------|
 |                                                                 |
 |Guitar II (Dist)                                                 |
 |Q                       Q                        Q               |
D|--------------------------------|--------------------------------|
A|--------------------------------|--------------------------------|
F|--------------------------------|--------------------------------|
C|9-----------------------8-------|----------------6---------------|
G|7-----------------------6-------|----------------4---------------|
D|--------------------------------|--------------------------------|




  Z   Z   Z   Z   Z   Z   Z   Z   Z   
D|------------------------------------|
A|------------------------------------|
F|13--16--15--13----------------------|
C|----------------16--14--13----------|
G|----------------------------16--14--|
D|------------------------------------|
 |                                    |
 |Guitar II (Dist)                    |
 |                 Q                  |
D|------------------------------------|
A|------------------------------------|
F|------------------------------------|
C|------------------------------------|
G|-----------------4------------------|
D|-----------------2------------------|



**Keyboard Solo II**


..Guitar III (Dist)
(Tap This part)
  Z   Z   Z   Z   Z   Z   Z   Z   Z   Z   Z   Z
D|7---3---7---3-----------7---3---7---3-----------|
A|----------------5-----------------------5-------|
F|--------------------4-----------------------4---|
C|------------------------------------------------|
G|------------------------------------------------|
D|------------------------------------------------|
 |                                                |
 |Guitar II (Dist)                                |
 |S     S     S     S+E               E           |
D|------------------------------------------------|
A|------------------------------------------------|
F|------------------------------------------------|
C|------------------9-----------------9-----------|
G|7-----7-----7-----7-----------------7-----------|
D|------------------------------------------------|


..Guitar III (Dist)
  Z   Z   Z   Z   Z   Z   Z   Z   Z   Z   Z   Z
D|10--7---10--7-----------10--7---10--7-----------|
A|----------------8-----------------------8-------|
F|--------------------7-----------------------7---|
C|------------------------------------------------|
G|------------------------------------------------|
D|------------------------------------------------|
 |                                                |
 |Guitar II (Dist)                                |
 |S     S     S     S+E               E           |
D|------------------------------------------------|
A|------------------------------------------------|
F|------------------7-----------------7-----------|
C|5-----5-----5-----5-----------------5-----------|
G|------------------------------------------------|
D|------------------------------------------------|


..Guitar III (Dist)
  Z   Z   Z   Z   Z   Z   Z   Z   Z   Z   Z   Z
D|12--8---12--8-----------12--8---12--8-----------|
A|----------------10----------------------10------|
F|--------------------9-----------------------9---|
C|------------------------------------------------|
G|------------------------------------------------|
D|------------------------------------------------|
 |                                                |
 |Guitar II (Dist)                                |
 |E           E           E           E           |
D|------------------------------------------------|
A|------------------------------------------------|
F|------------------------------------------------|
C|4-----------5-----------4-----------5-----------|
G|2-----------3-----------2-----------3-----------|
D|------------------------------------------------|


..Guitar III (Dist)
  Z   Z   Z   Z   Z   Z   Z   Z   Z   Z   Z   Z
D|12--8---12--8-----------12--8---12--8-----------|
A|----------------10----------------------10------|
F|--------------------9-----------------------9---|
C|------------------------------------------------|
G|------------------------------------------------|
D|------------------------------------------------|
 |                                                |
 |Guitar II (Dist)                                |
 |S     S     S     S+E               E           |
D|------------------------------------------------|
A|------------------------------------------------|
F|------------------------------------------------|
C|------------------7-----------------7-----------|
G|5-----5-----5-----5-----------------5-----------|
D|------------------------------------------------|


..Guitar III (Dist)
  Z   Z   Z   Z   Z   Z   Z   Z   Z   Z   Z   Z
D|14--10--14--10----------14--10--14--10----------|
A|----------------12----------------------12------|
F|--------------------11----------------------11--|
C|------------------------------------------------|
G|------------------------------------------------|
D|------------------------------------------------|
 |                                                |
 |Guitar II (Dist)                                |
 |S     S     S     S+E               E           |
D|------------------------------------------------|
A|------------------------------------------------|
F|------------------------------------------------|
C|------------------9-----------------9-----------|
G|7-----7-----7-----7-----------------7-----------|
D|------------------------------------------------|


..Guitar III (Dist)
  Z   Z   Z   Z   Z   Z   Z   Z   Z   Z   Z   Z
D|15--12--15--12----------15--12--15--12----------|
A|----------------13----------------------13------|
F|--------------------12----------------------12--|
C|------------------------------------------------|
G|------------------------------------------------|
D|------------------------------------------------|
 |                                                |
 |Guitar II (Dist)                                |
 |S     S     S     S+E               E           |
D|------------------------------------------------|
A|------------------------------------------------|
F|------------------7-----------------7-----------|
C|5-----5-----5-----5-----------------5-----------|
G|------------------------------------------------|
D|------------------------------------------------|


..Guitar III (Dist)
  Z   Z   Z   Z   Z   Z   Z   Z   Z   Z   Z   Z
D|19--15--19--15----------19--15--19--15----------|
A|----------------17----------------------17------|
F|--------------------16----------------------16--|
C|------------------------------------------------|
G|------------------------------------------------|
D|------------------------------------------------|
 |                                                |
 |Guitar II (Dist)                                |
 |E           E           E           E           |
D|------------------------------------------------|
A|------------------------------------------------|
F|------------------------------------------------|
C|4-----------5-----------4-----------5-----------|
G|2-----------3-----------2-----------3-----------|
D|------------------------------------------------|



..Guitar III (Dist)
  S+E         S   S   S   S   S    E       S   S   S   S   S   S      
D|12----------10--12--14--15--17--|15------15--17--15--14--12--10--|
A|--------------------------------|--------------------------------|
F|--------------------------------|--------------------------------|
C|--------------------------------|--------------------------------|
G|--------------------------------|--------------------------------|
D|--------------------------------|--------------------------------|
 |                                                                 |
 |Guitar II (Dist)                                                 |
 |Q               Q                Q               Q               |
D|--------------------------------|--------------------------------|
A|--------------------------------|--------------------------------|
F|--------------------------------|--------------------------------|
C|17--------------16--------------|14--------------7---------------|
G|15--------------14--------------|12--------------5---------------|
D|--------------------------------|--------------------------------|


..Guitar III (Dist)
  Tap     Tap     Tap     Tap ........Tap The Highest Fret eg.10
  |       |       |       |                                    |
  S   S   S   S   S   S   S   S    S   S   S   S   S   S   S   S   
D|7---0---3---0---3---0---3---7---|10--3---7---3---7---3---7---10--|
A|--------------------------------|--------------------------------|
F|--------------------------------|--------------------------------|
C|--------------------------------|--------------------------------|
G|--------------------------------|--------------------------------|
D|--------------------------------|--------------------------------|
 |                                                                 |
 |Guitar II (Dist)                                                 |
 |S   S   S   S+E          E       S   S   S   S+E          E      |
D|--------------------------------|--------------------------------|
A|--------------------------------|------------8------------8------|
F|------------9------------9------|------------7------------7------|
C|------------9------------9------|5---5---5---5------------5------|
G|7---7---7---7------------7------|--------------------------------|
D|--------------------------------|--------------------------------|


  S   S   S   S   S   S   S   S    S   S   S   S   S   S   S   S   
D|12--5---8---5---12--5---8---12--|14--7---10--12--14--15--17--19--|
A|--------------------------------|--------------------------------|
F|--------------------------------|--------------------------------|
C|--------------------------------|--------------------------------|
G|--------------------------------|--------------------------------|
D|--------------------------------|--------------------------------|
 |                                                                 |
 |Guitar II (Dist)                                                 |
 |E       E       E       E        S   S   S   S+E          E      |
D|--------------------------------|--------------------------------|
A|--------------------------------|--------------------------------|
F|--------------------------------|------------7------------7------|
C|4-------5-------4-------5-------|------------7------------7------|
G|2-------3-------2-------3-------|5---5---5---5------------5------|
D|--------------------------------|--------------------------------|

..Guitar III (Dist)
  Z   Z   Z   Z   Z   Z   Z   Z   Z   Z   Z   Z
D|19--19--17--19--17------------------------------|
A|--------------------19--19--17--15--19--17------|
F|--------------------------------------------19--|
C|------------------------------------------------|
G|------------------------------------------------|
D|------------------------------------------------|
 |                                                |
 |Guitar II (Dist)                                |
 |S     S     S     S+E               E           |
D|------------------------------------------------|
A|------------------------------------------------|
F|------------------------------------------------|
C|------------------9-----------------9-----------|
G|7-----7-----7-----7-----------------7-----------|
D|------------------------------------------------|


..Guitar III (Dist)
  Z   Z   Z   Z   Z   Z   Z   Z   Z   Z   Z   Z
D|------------------------------------------------|
A|--------17--19--17------------------------------|
F|17--19--------------19--17--16------17--16--14--|
C|--------------------------------19--------------|
G|------------------------------------------------|
D|------------------------------------------------|
 |                                                |
 |Guitar II (Dist)                                |
 |S     S     S     S+E               E           |
D|------------------------------------------------|
A|------------------------------------------------|
F|------------------7-----------------7-----------|
C|5-----5-----5-----5-----------------5-----------|
G|------------------------------------------------|
D|------------------------------------------------|


..Guitar III (Dist)
  Z   Z   Z   Z   Z   Z   Z   Z   Z   Z   Z   Z
D|------------------------------------------------|
A|------------------------------------------------|
F|12--11--12--11--9-------------------------------|
C|--------------------12--10--9---12--10--9-------|
G|--------------------------------------------12--|
D|------------------------------------------------|
 |                                                |
 |Guitar II (Dist)                                |
 |Q                       Q                       |
D|------------------------------------------------|
A|------------------------------------------------|
F|------------------------------------------------|
C|17----------------------16----------------------|
G|15----------------------14----------------------|
D|------------------------------------------------|


..Guitar III (Dist)
  Z   Z   Z   Z   Z   Z   Z   Z   Z   Z   Z   Z
D|------------------------------------------------|
A|------------------------------------------------|
F|------------------------------------------------|
C|--------9---10--12--10--9---12--10--9---12--10--|
G|10--12------------------------------------------|
D|------------------------------------------------|
 |                                                |
 |Guitar II (Dist)                                |
 |Q                       Q                       |
D|------------------------------------------------|
A|------------------------------------------------|
F|------------------------------------------------|
C|14----------------------19----------------------|
G|12----------------------17----------------------|
D|------------------------------------------------|


..Guitar III (Dist)
  Z   Z   Z   Z   Z   Z   Z   Z   Z   Z   Z   Z
D|------------------------------------------------|
A|------------------------------------------------|
F|------------------------------------------------|
C|------------------------------------------------|
G|9-----------------------9---10--12--10--9-------|
D|----12--10--8---10--12----------------------12--|
 |                                                |
 |Guitar II (Dist)                                |
 |Q                       Q                       |
D|------------------------------------------------|
A|------------------------------------------------|
F|------------------------------------------------|
C|14----------------------12----------------------|
G|15----------------------14----------------------|
D|------------------------------------------------|


..Guitar III (Dist)
  Z   Z   Z   Z   Z   Z   Z   Z   Z   Z   Z   Z
D|------------------------------------------------|
A|------------------------------------------------|
F|------------------------------------------------|
C|------------------------------------------------|
G|10--9-------------------5---3---2---------------|
D|--------12--10--8---7---------------5---3---2---|
 |                                                |
 |Guitar II (Dist)                                |
 |Q                       Q                       |
D|------------------------------------------------|
A|------------------------------------------------|
F|------------------------------------------------|
C|17----------------------4-----------------------|
G|12----------------------5-----------------------|
D|------------------------------------------------|



**Post Solo**


..Guitar I (Dist)
  S S S S S S S S S S S S S S S S  S S S S S S S S S S S S S S S S 
D|--------------------------------|--------------------------------|
A|--------------------------------|--------------------------------|
F|--------------------------------|--------------------------------|
C|--------------------------------|--------------------------------|
G|--7-8---8-7---7---7-5---5-7---7-|--7-8---8-7---7---7-5---5-7---7-|
D|0-----0-----0---0-----0-----0---|0-7-8-0-8-7-0-7-0-7-5-0-5-7-0-7-|
 |                                                                 |
 |Guitar III (Dist)                                                |
 |W                                                                |
D|--------------------------------|--------------------------------|
A|--------------------------------|--------------------------------|
F|--------------------------------|--------------------------------|
C|--------------------------------|--------------------------------|
G|7--Whammy-Dive------------------|--------------------------------|
D|--------------------------------|--------------------------------|



..Guitar I (Dist)
  S S S S S S S S S S S S S S S S  S S S S S S S S S S S S S S S S 
D|--------------------------------|--------------------------------|
A|--------------------------------|--------------------------------|
F|--------------------------------|--------------------------------|
C|--------------------------------|--------------------------------|
G|--7-8---8-7---7---7-5---5-7---7-|--7-8---8-7---7---7-5---5-7---7-|
D|0-----0-----0---0-----0-----0---|0-7-8-0-8-7-0-7-0-7-5-0-5-7-0-7-|



**Pre Chorus II**


..Guitar I (Dist)
  E   S S E   E   E   S S E   E    E+S E+S E+S E  E
D|--------------------------------|--------------------------------|
A|--------------------------------|--------------------------------|
F|------------2-------------------|--------------------------------|
C|2---2-2-4-------5---5-5-4---5---|--------------------------------|
G|--------------------------------|2---2---2---2--2----------------|
D|--------------------------------|0---0---0---0--0----------------|
 |                                                                 |
 |Guitar II (Dist)                                                 |
 |E   S S E   E   E   S S E   E    E+S E+S E+S E  E                |
D|--------------------------------|--------------------------------|
A|--------------------------------|--------------------------------|
F|--------------------------------|--------------------------------|
C|5-------4---5---5-------4---5---|--------------------------------|
G|3---3-3-2---3---3---3-3-2---3---|2---2---2---2--2----------------|
D|--------------------------------|0---0---0---0--0----------------|


..Guitar I (Dist)
  E   S S E   E   E   S S E   E    E+S E+S E+S E  E
D|--------------------------------|15--15--15--14-14---------------|
A|--------------------------------|--------------------------------|
F|------------2-------------------|--------------------------------|
C|2---2-2-4-------5---5-5-4---5---|--------------------------------|
G|--------------------------------|--------------------------------|
D|--------------------------------|--------------------------------|
 |                                                                 |
 |Guitar II (Dist)                                                 |
 |E   S S E   E   E   S S E   E    E+S E+S E+S E  E                |
D|--------------------------------|--------------------------------|
A|--------------------------------|--------------------------------|
F|--------------------------------|--------------------------------|
C|5-------4---5---5-------4---5---|--------------------------------|
G|3---3-3-2---3---3---3-3-2---3---|2---2---2---2--2----------------|
D|--------------------------------|0---0---0---0--0----------------|


..Guitar I (Dist)
  S S S S S S S S S S S S S S S S
D|--------------------------------|--------------------------------|
A|--------------------------------|--------------------------------|
F|2-2-2-2-4-4-7-7-5-5-5-5-4-4-5-5-|9-------7---10--9-------7---10--|
C|--------------------------------|7---7-7-5---8---7---7-7-5---8---|
G|--------------------------------|--------------------------------|
D|--------------------------------|--------------------------------|
 |                                                                 |
 |Guitar II (Dist)                                                 |
 |S S S S S S S S S S S S S S S S                                  |
D|--------------------------------|--------------------------------|
A|--------------------------------|--------------------------------|
F|3-3-3-3-3-3-3-3-3-3-3-3-3-3-3-3-|9-------7---10--9-------7---10--|
C|--------------------------------|7---7-7-5---8---7---7-7-5---8---|
G|--------------------------------|--------------------------------|
D|--------------------------------|--------------------------------|


  S S S S S S S S S S S S S S S S  E+S E+S E+S E  E
D|--------------------------------|10--10--10--10-10---------------|
A|--------------------------------|--------------------------------|
F|2-2-2-2-4-4-7-7-5-5-5-5-4-4-5-5-|--------------------------------|
C|--------------------------------|--------------------------------|
G|--------------------------------|--------------------------------|
D|--------------------------------|--------------------------------|
 |                                                                 |
 |Guitar II (Dist)                                                 |
 |S S S S S S S S S S S S S S S S  E+S E+S E+S E  E                |
D|--------------------------------|--------------------------------|
A|--------------------------------|--------------------------------|
F|3-3-3-3-3-3-3-3-1-1-1-1-1-1-1-1-|--------------------------------|
C|--------------------------------|9---9---9---9--9----------------|
G|--------------------------------|7---7---7---7--7----------------|
D|--------------------------------|--------------------------------|



**Chorus II**

..Guitar I (Dist)
  S S S S E   E   S S S S S S S S  S S S S E   E   S S S S S S S S
D|--------------------------------|--------------------------------|
A|--------------------------------|--------------------------------|
F|--------2---3-------------------|--------5---4---------5-4-------|
C|--------2---3-------------------|--------3---2-------------5-3-2-|
G|0-0-0-0---------0-0-0-0-0-0-0-0-|0-0-0-0---------0-0-0-----------|
D|--------------------------------|--------------------------------|
 |                                                                 |
 |Guitar II (Dist)                                                 |
 |S S S S E   E   S S S S S S S S  S S S S E   E   S S S S S S S S |
D|--------------------------------|--------------------------------|
A|--------------------------------|--------------------------------|
F|--------2---3-------------------|--------5---4-------------------|
C|--------2---3-------------------|--------3---2-------------------|
G|0-0-0-0---------0-0-0-0-0-0-0-0-|0-0-0-0---------0-0-0-0-0-0-0-0-|
D|--------------------------------|--------------------------------|



..Guitar I (Dist)
  E+S   E+S   E   E+S   E+S   E    E+S   E+S   E   E+S   E+S   E   
D|--------------------------------|--------------------------------|
A|--------------------------------|--------------------------------|
F|5-----5-----5---7-----7-----7---|5-----5-----5---4-----4-----4---|
C|5-----5-----5---5-----5-----5---|7-----7-----7---5-----5-----5---|
G|--------------------------------|--------------------------------|
D|--------------------------------|--------------------------------|
 |                                                                 |
 |Guitar II (Dist)                                                 |
 |E+S   E+S   E   E+S   E+S   E    E+S   E+S   E   E+S   E+S   E   |
D|--------------------------------|--------------------------------|
A|8-----8-----8---8-----8-----8---|5-----5-----5-------------------|
F|5-----5-----5---7-----7-----7---|2-----2-----2---4-----4-----4---|
C|--------------------------------|----------------2-----2-----2---|
G|--------------------------------|--------------------------------|
D|--------------------------------|--------------------------------|



..Guitar I (Dist)
  S S S S E   E   S S S S S S S S  S S S S E   E   S S S S S S S S
D|--------------------------------|--------------------------------|
A|--------------------------------|--------------------------------|
F|--------2---3-------------------|--------5---4---------5-4-------|
C|--------2---3-------------------|--------3---2-------------5-3-2-|
G|0-0-0-0---------0-0-0-0-0-0-0-0-|0-0-0-0---------0-0-0-----------|
D|--------------------------------|--------------------------------|
 |                                                                 |
 |Guitar II (Dist)                                                 |
 |S S S S E   E   S S S S S S S S  S S S S E   E   S S S S S S S S |
D|--------------------------------|--------------------------------|
A|--------------------------------|--------------------------------|
F|--------2---3-------------------|--------5---4-------------------|
C|--------2---3-------------------|--------3---2-------------------|
G|0-0-0-0---------0-0-0-0-0-0-0-0-|0-0-0-0---------0-0-0-0-0-0-0-0-|
D|--------------------------------|--------------------------------|



..Guitar I (Dist)
  E+S   E+S   E   E+S   E+S   E    E+S   E+S   E   E+S   E+S   E   
D|--------------------------------|--------------------------------|
A|--------------------------------|--------------------------------|
F|5-----5-----5---7-----7-----7---|5-----5-----5---4-----4-----4---|
C|5-----5-----5---5-----5-----5---|7-----7-----7---5-----5-----5---|
G|--------------------------------|--------------------------------|
D|--------------------------------|--------------------------------|
 |                                                                 |
 |Guitar II (Dist)                                                 |
 |E+S   E+S   E   E+S   E+S   E    E+S   E+S   E   E+S   E+S   E   |
D|--------------------------------|--------------------------------|
A|8-----8-----8---8-----8-----8---|5-----5-----5-------------------|
F|5-----5-----5---7-----7-----7---|2-----2-----2---4-----4-----4---|
C|--------------------------------|----------------2-----2-----2---|
G|--------------------------------|--------------------------------|
D|--------------------------------|--------------------------------|



..Guitar I (Dist)
  S S S S E   E   S S S S S S S S  S S S S E   E   S S S S S S S S
D|--------------------------------|--------------------------------|
A|--------------------------------|--------------------------------|
F|--------2---3-------------------|--------5---4---------5-4-------|
C|--------2---3-------------------|--------3---2-------------5-3-2-|
G|0-0-0-0---------0-0-0-0-0-0-0-0-|0-0-0-0---------0-0-0-----------|
D|--------------------------------|--------------------------------|
 |                                                                 |
 |Guitar II (Dist)                                                 |
 |S S S S E   E   S S S S S S S S  S S S S E   E   S S S S S S S S |
D|--------------------------------|--------------------------------|
A|--------------------------------|--------------------------------|
F|--------2---3-------------------|--------5---4-------------------|
C|--------2---3-------------------|--------3---2-------------------|
G|0-0-0-0---------0-0-0-0-0-0-0-0-|0-0-0-0---------0-0-0-0-0-0-0-0-|
D|--------------------------------|--------------------------------|



..Guitar I (Dist)
  E+S   E+S   E   E+S   E+S   E    E+S   E+S   E   E+S   E+S   E   
D|--------------------------------|--------------------------------|
A|--------------------------------|--------------------------------|
F|5-----5-----5---7-----7-----7---|5-----5-----5---4-----4-----4---|
C|5-----5-----5---5-----5-----5---|7-----7-----7---5-----5-----5---|
G|--------------------------------|--------------------------------|
D|--------------------------------|--------------------------------|
 |                                                                 |
 |Guitar II (Dist)                                                 |
 |E+S   E+S   E   E+S   E+S   E    E+S   E+S   E   E+S   E+S   E   |
D|--------------------------------|--------------------------------|
A|8-----8-----8---8-----8-----8---|5-----5-----5-------------------|
F|5-----5-----5---7-----7-----7---|2-----2-----2---4-----4-----4---|
C|--------------------------------|----------------2-----2-----2---|
G|--------------------------------|--------------------------------|
D|--------------------------------|--------------------------------|



..Guitar I (Dist)
  S S S S E   E   S S S S S S S S  S S S S E   E   S S S S S S S S
D|--------------------------------|--------------------------------|
A|--------------------------------|--------------------------------|
F|--------2---3-------------------|--------5---4---------5-4-------|
C|--------2---3-------------------|--------3---2-------------5-3-2-|
G|0-0-0-0---------0-0-0-0-0-0-0-0-|0-0-0-0---------0-0-0-----------|
D|--------------------------------|--------------------------------|
 |                                                                 |
 |Guitar II (Dist)                                                 |
 |S S S S E   E   S S S S S S S S  S S S S E   E   S S S S S S S S |
D|--------------------------------|--------------------------------|
A|--------------------------------|--------------------------------|
F|--------2---3-------------------|--------5---4-------------------|
C|--------2---3-------------------|--------3---2-------------------|
G|0-0-0-0---------0-0-0-0-0-0-0-0-|0-0-0-0---------0-0-0-0-0-0-0-0-|
D|--------------------------------|--------------------------------|



..Guitar I (Dist)
  E+S   E+S   E   E+S   E+S   E    E+S   E+S   E   E+S   E+S   E   
D|--------------------------------|--------------------------------|
A|--------------------------------|--------------------------------|
F|5-----5-----5---7-----7-----7---|5-----5-----5---4-----4-----4---|
C|5-----5-----5---5-----5-----5---|7-----7-----7---5-----5-----5---|
G|--------------------------------|--------------------------------|
D|--------------------------------|--------------------------------|
 |                                                                 |
 |Guitar II (Dist)                                                 |
 |E+S   E+S   E   E+S   E+S   E    E+S   E+S   E   E+S   E+S   E   |
D|--------------------------------|--------------------------------|
A|8-----8-----8---8-----8-----8---|5-----5-----5-------------------|
F|5-----5-----5---7-----7-----7---|2-----2-----2---4-----4-----4---|
C|--------------------------------|----------------2-----2-----2---|
G|--------------------------------|--------------------------------|
D|--------------------------------|--------------------------------|



**Last Bit**

..Guitar I (Dist)
  S S S S E   W                            E   E   End
D|--------------------------------|--------------------------------|
A|--------------------------------|--------------------------------|
F|--------2---3-------------------|--------5---4---2---------------|
C|--------2---3-------------------|--------3---2---2---------------|
G|0-0-0-0-------------------------|----------------0---------------|
D|--------------------------------|--------------------------------|
 |                                                                 |
 |Guitar II (Dist)                                                 |
 |S S S S E   W                            E   E   End             |
D|--------------------------------|--------------------------------|
A|--------------------------------|--------------------------------|
F|--------2---3-------------------|--------5---4---2---------------|
C|--------2---3-------------------|--------3---2---2---------------|
G|0-0-0-0-------------------------|----------------0---------------|
D|--------------------------------|--------------------------------|








The Solo Done by Guitar III is a Keyboard solo I tried as best as I could
to tab it on guitar.  This was also a very hard tab to make so, please don't
be mean.  The previous tabs don't have the Rhythm Guitars so I added them.
Comment on any mistakes you see.
comments
We did not receive enough feedback on this tab! Please rate:
print report bad tab
1 2 3 4 5
I want to post or [tab]
guest
You may want to rate the tab now too:
select rating
Please do not post tabs as comments. Select "correction" instead!