Oops, an error
Loading. Please wait.

Deadnight Warrior Tab

ver1
ver1
More versions @911Tabs.com
7,248 views 3 this week
no commentswrite comment
1 2 3 4 5
accurate
x 4
Autoscroll
+/-
esc
set tempo
stop
Hey! There's an official Ultimate Guitar app which is ideal
for learning songs when you're away from computer. Get the app
WARNING: You are trying to view
                                    content from Ultimate-Guitar.com
                                    in an unauthorized application,
                                    which is prohibited.

                                    Please use an official Ultimate
                                    Guitar Tabs application for iPhone,
                                    iPad or Android to access legitimate
                                    chords, guitar, bass, and drum tabs
                                    from Ultimate-Guitar.com database.

                                    Type "ultimate guitar tabs" in Apple
                                    App Store's or Android Market's
                                    search to find the application.
Children of Bodom: Deadnight Warrior

from the album "Something Wild", 1997
Music and lyrics by Alexi Laiho

Tabbed by Juha-Matti Kallinen
More tabs at http://sivut.koti.tpo.fi/akallinen/

This is my interpretation of the song.
If you have any corrections, suggestions or questions,
mail me to juha-matti.kallinen@koti.tpo.fi


-------------------------------------------------------

Tune down 1 1/2 step
ca. 210 bpm

4/4 time

  (Drums)
|--------------|---------------|------------------------|
|--------------|---------------|--------8-----7--7----8-|
|--------------|---------7---9-|*-------9-----8--8----9-|
|--------------|---------7---9-|*-------9-----8--8----9-|
|--------------|---------5---7-|----7-7-7-----6--6----7-|
|--------------|---------------|------------------------|

                                              1.2.3.
|------------------|------------------------|--------------------|
|------------------|--------8-----7--7----8-|----8---------------|
|------------7---9-|--------9-----8--8----9-|------9----------9-*|
|------------7---9-|--------9-----8--8----9-|--------8~-------9-*|
|----------0-5---7-|----7-7-7-----6--6----7-|-----------------7--|
|----0-2-3---------|------------------------|--------------------|

  4.         E5
|---/18\---|-------------------------|------------------------|
|----------|-------------------------|------------------------|
|----------|-------------------------|----16----------16-9/16-|
|----------|----------14-17p14----14-|-17----17-14-17---------|
|----------|-------14----------17----|------------------------|
|----------|-12-15-------------------|------------------------|


|-------------------19p15-|-t24p19p15----------------|
|-17-------20p17----------|-----------17-------------|
|----16----------16-------|--------------16----------|
|-------17----------------|-----------------17p14----|
|-------------------------|-----------------------17-|
|-------------------------|--------------------------|

  C5
|----------------------------|-------------------------------|
|----------------------------|-------------------------------|
|----------------------------|-------------------------------|
|-------------17-16-17-14-17-|-12-17----17----------12-14-16-|
|-15h17p15-14----------------|-------15----12-14-15----------|
|----------------------------|-------------------------------|


|-------------------------------------|-------------17-19-20-19-17-------|
|-------------------------------------|-15-17-19-20----------------20-19-|
|----------------14-16-17-16-14-16-17-|----------------------------------|
|-17-16-14-16-17----------------------|----------------------------------|
|-------------------------------------|----------------------------------|
|-------------------------------------|----------------------------------|


|------------
|-17-\-------
|------------
|------------
|------------
|------------
|
|-------------------------------|--------------------------------|
|-------------------------------|--------------------------------|
|-------------------------------|------------------------7-------|
|-10\9-----------10\9-----------|-10\9-----------5-------7-------|
|--7--------------7-------------|--7-------------5-------5-------|
|--------0-0-0-0--------0-0-0-0-|--------0-0-0-0-3---------------|


|-------------------------------|--------------------------------|
|-------------------------------|--------------------------------|
|-------------------------------|---------7-------9--------------|
|-10\9-----------10\9-----------|-5-------7-------9--------------|
|--7--------------7-------------|-5-------5-------7--------------|
|--------0-0-0-0--------0-0-0-0-|-3------------------------------|

6/4 time
|------------------------------------|-------------------------------------|
|-------------------8-----------7----|-------------------8-----------4-----|
|*------------------9-----------7----|-------------------9-----------5----*|
|*------------------9-----------7----|-------------------9-----------5----*|
|-------------------7-----------5----|-------------------7-----------3-----|
|-0-0-0-0-0-0-0-0-0-------0-0-0------|-0-0-0-0-0-0-0-0-0-------0-0-0-------|

One empty 1/4 time bar

4/4 time Riff A
|------------------------|------------------------|
|-------------------8----|-------------------7----|
|*------------------9----|-------------------7----|
|*------------------9----|-------------------7----|
|-------------------7----|-------------------5----|
|-0-0-0-0-0-0-0-0-0------|-0-0-0-0-0-0-0-0-0------|


|------------------------|-------------------5----|
|-------------------8----|-------4-----------5----|
|-------------------9----|-------5-----------5---*|
|-------------------9----|-------5-----------7---*|
|-------------------7----|-------3-----------7----|
|-0-0-0-0-0-0-0-0-0------|-0-0-0-------0-0-0------|

Riff B
|-------------------------|-------------------------|
|-------------------------|-------------------------|
|-------------------------|-------------------------|
|-------------------------|-------------------------|
|-------------------------|-------------------------|
|-6-6-6-6-6-6-6-6-6-6-6-6-|-6-6-6-6-6-6-6-6-6-6-6-6-|


|-------------------------|-------------------------|
|-------------------------|-------------------------|
|-------------------------|-------------------------|
|-------------------------|-------------------------|
|-7-7-7-7-7-7-7-7-7-7-7-7-|-7-7-7-7-7-7-7-7-7-7-7-7-|
|-------------------------|-------------------------|


|-------------------------|-------------------------------------|
|-------------------------|-------------------------------------|
|-------------------------|-------------------------------------|
|-------------------------|-------------------------------------|
|-8-8-8-8-8-8-8-8-8-8-8-8-|-10-10-10-10-10-10-10-10-10-10-10-10-|
|-------------------------|-------------------------------------|


|-------------------------|-------------------------------|
|-------------------------|-------------------------------|
|-------------------------|-------------------------------|
|-7-7-7-7-7-7-7-7-7-9-9-9-|-10-10-10-10-10-10-9-9-9-9-9-9-|
|-------------------------|-------------------------------|
|-------------------------|-------------------------------|


|--------------------------|------------------------------------|
|--------------------------|------------------------------------|
|--------------------------|------------------------------------|
|-------10-----9-----7-----|----------12-------10-------9-------|
|-8-8-8----8-8---8-8---8-8-|-10-10-10----10-10----10-10---10-10-|
|--------------------------|------------------------------------|


|----------|-----------|------------|----|----|----|----|
|----------|-----------|------------|----|----|----|----|
|----------|---------2-|-2--------2-|--*/-/---|--*/-/---|
|-7\-------|---------2-|-2--------2-|--/-/*---|--/-/*---|
|----------|---------0-|-0--------0-|----|----|----|----|
|----------|-----------|------------|----|----|----|----|

play 4 times
|------------------|------------------|
|------------------|------------------|
|*-----------------|-----------------*|
|*-2-2-2-2-2-2-2-2-|-3-3-3-3-5-5-5-5-*|
|--0-0-0-0-0-0-0-0-|-3-3-3-3-2-2-2-2--|
|------------------|------------------|

Riff C              1.2.3.                 4.
|------------------|----------------------|  --------------------|
|------------------|----------------------|  --------------------|
|*-2---2-----2---2-|-----10---------12---*|  --5--------7--------|
|*-2---2-----2---2-|-----10---------12---*|  --5--------7--------|
|--0-0-0-0-0-0-0-0-|-8-8-8--8-10-10-10-10-|  --3--------5--------|
|------------------|----------------------|  --------------------|


|---------------------|--------------------|
|--8------------------|-----------7--7--7--|
|--9------------------|-----------8--8--8--|
|--9------------------|-----------8--8--8--|
|--7---77777777777777-|-77777777--6--6--6--|
|---------------------|--------------------|

                     2/4
|------------------|-----------|
|------------------|-----------|
|------------------|-------7---|
|------------------|--5----7---|
|-7777777777777777-|--5----5---|
|------------------|--3--------|

4/4
  E5         G5          D5              E5
|----------------------|---------------------------|
|------------------12--|-10-h12p10-----------------|
|*(9)---9-11-12--------|-----------12-11-12-9-9----|
|*---------------------|------------------------12-|
|----------------------|---------------------------|
|----------------------|---------------------------|

  1.2.3.   C5          D5         E5
|--------------------|--------------------|
|--------------------|--------------------|
|-9---9-11-12---12---|-11-9-------9------*|
|--------------------|------12-----------*|
|--------------------|--------------------|
|--------------------|--------------------|

4.                     2/4
..C5       G5          D5
|--------------------|------------|
|--------------------|------------|
|-9---9-11-12---12---|-11-9-------|
|--------------------|------12----|
|--------------------|------------|
|--------------------|------------|

4/4
  E5 dive w/bar
|-a7-\---------------|
|--------------------|
|--------------------|
|--------------------|
|--------------------|
|--------------------|


Riff A 2 times

Solo                                    harmonies third below
|-------------------15h19p15----------|--------------------------------|
|----------------17----------17-------|-15h17p15----15-----------------|
|-------------16----------------16----|----------17----17-16-----------|
|----------17----------------------17-|--------------------------17----|
|----14-19----------------------------|--------------------------------|
|-15----------------------------------|--------------------------------|


|-------------------------------------|-19-------19-20-19-22---------19|
|-------------------17-15-13-20-19-17-|--------------------------------|
|----------16-14-12-------------------|--------------------------------|
|-17-16-14----------------------------|--------------------------------|
|-------------------------------------|--------------------------------|
|-------------------------------------|--------------------------------|


|-24p19----------18-19p15----------15-|-20p17----------------------------17-|
|-------20----20----------17----17----|-------19----------------------19----|
|----------21----------------16-------|----------20p17----------17h20-------|
|-------------------------------------|----------------19-16h19-------------|
|-------------------------------------|-------------------------------------|
|-------------------------------------|-------------------------------------|


|-19p15----------------------------15-|-17p14----------------------------14-|
|-------17----------------------17----|-------16----------------------16----|
|----------16----------------16-------|----------17p14----------14h17-------|
|-------------17----------17----------|----------------16-13h16-------------|
|----------------19-14h19-------------|-------------------------------------|
|-------------------------------------|-------------------------------------|

w/Riff B                                                       raise & dive
|-13----------|---------13b(14)---t16(17)-p(13)r12-|----------|-/a5\--------|
|-------------|------------------------------------|----------|-------------|
|-------------|------------------------------------|----------|-------------|
|-------------|------------------------------------|----------|-------------|
|-------------|------------------------------------|----------|-------------|
|-------------|------------------------------------|----------|-------------|

4 bars

4 times
|--------------|-------------|
|--------------|-------------|
|*-2-----------|------------*|
|*-2-----------|-3-----5----*|
|--0-----------|-3-----5-----|
|--------------|-1-----3-----|

Riff C 4 times

  effects w/bar
|------------|------------|
|------------|------------|
|*-----------|-8---------*|
|*-7---------|-7---------*|
|--6---------|------------|
|------------|------------|


|-------------------|
|-------------------|
|--------7--9----\--|
|--------7--9----\--|
|--------5--7----\--|
|--X--X-------------|
comments
print report bad tab
I want to post or [tab]
guest
You may want to rate the tab now too:
select rating
Please do not post tabs as comments. Select "correction" instead!