Oops, an error
Loading. Please wait.

Deadnight Warrior Tab

ver3
ver3
More versions @911Tabs.com
2,313 views 3 this week
no commentswrite comment
1 2 3 4 5
excellent!
x 5
Autoscroll
+/-
esc
set tempo
stop
Contributor
Difficulty
advanced
Hey! There's an official Ultimate Guitar app which is ideal
for learning songs when you're away from computer. Get the app
WARNING: You are trying to view
                                    content from Ultimate-Guitar.com
                                    in an unauthorized application,
                                    which is prohibited.

                                    Please use an official Ultimate
                                    Guitar Tabs application for iPhone,
                                    iPad or Android to access legitimate
                                    chords, guitar, bass, and drum tabs
                                    from Ultimate-Guitar.com database.

                                    Type "ultimate guitar tabs" in Apple
                                    App Store's or Android Market's
                                    search to find the application.
-------------------------------------------------------------------------------
                   Deadnight Warrior - Children Of Bodom
-------------------------------------------------------------------------------

                                                            
Album: Something Wild
Tabbed By: Eric Tobian
e-mail: starcraftx@hotmail.de

Tuning: C# F# B E G# C#
Tempo: 214


Guitar 1: (Alexi)

      W                   Q.     E  Q    Q       Q    E  Q    E  Q     
C#||-------------------|----------------------|-----------------------|
G#||-------------------|----------------------|----------8----7--7----|
E ||-------------------|-----------------7----|--9-------9----8--8----|
B ||-------------------|-----------------7----|--9-------9----8--8----|
F#||-------------------|---------7--7----5----|--7-------7----6--6----|
C#||-------------------|---------0--0---------|-----------------------|


       PM PM  PM  PM PM  PM                                                   
  Q    E  E   E   E  E   E     Q    E  Q    E  Q       Q    E  E   H          
----------------------------|-----------------------|------------------------|
--8-------------------------|----------8----7--7----|--8---------------------|
--9-------------------------|--9-------9----8--8----|--9----9----------------|
--9-------------------------|--9-------9----8--8----|--9-------9-------------|
--7----7--9--10--10--9------|--7-------7----6--6----|--7----------10~--------|
------------------------10--|-----------------------|------------------------|


                               PM PM  PM  PM PM  PM                          
  Q    E  Q    E  Q       Q    E  E   E   E  E   E     Q    E  Q    E  Q     
-----------------------|----------------------------|-----------------------|
----------8----7--7----|--8-------------------------|----------8----7--7----|
--9-------9----8--8----|--9-------------------------|--9-------9----8--8----|
--9-------9----8--8----|--9-------------------------|--9-------9----8--8----|
--7-------7----6--6----|--7----7--9--10--10--9------|--7-------7----6--6----|
-----------------------|------------------------10--|-----------------------|


                                PM PM PM PM PM PM    PM PM PM PM PM PM       
  Q    E  E   H            Q    E  E  E  E  E  E     E  E  E  E  E  E  Q     
------------------------|-------------------------|-------------------------|
--8---------------------|-------------------------|-------------------------|
--9----9----------------|--9----------------------|--------------------7----|
--9-------9-------------|--9----------------------|--------------------7----|
--7----------10~--------|--7----------------------|--------------------5----|
------------------------|-------0--0--0--0--0--0--|--0--0--0--0--0--0-------|


       PM PM PM PM PM PM    PM PM                          PM PM PM PM PM PM  
  Q    E  E  E  E  E  E     E  E  E  E   H            Q    E  E  E  E  E  E   
-------------------------|-------------------------|-------------------------|
-------------------------|-------------------------|-------------------------|
--9----------------------|--------9----------------|--9----------------------|
--9----------------------|-----------9-------------|--9----------------------|
--7----------------------|--------------10~--------|--7----------------------|
-------0--0--0--0--0--0--|--0--0-------------------|-------0--0--0--0--0--0--|


  PM PM PM PM PM PM              PM PM PM PM PM PM    PM PM          /1        
  E  E  E  E  E  E  Q       Q    E  E  E  E  E  E     E  E  E  E     H         
-------------------------|-------------------------|--------------------------|
-------------------------|-------------------------|--------------------------|
--------------------7----|--9----------------------|--------9-----------------|
--------------------7----|--9----------------------|-----------9--------------|
--------------------5----|--7----------------------|--------------<>10--------|
--0--0--0--0--0--0-------|-------0--0--0--0--0--0--|--0--0--------------------|


                                                      
  E  E  E  E  E  E  E  E     E   E  E  E  E   E  E    E   
-----------0--3--0-----0--|--3S--7-----0-----------------|
--------0-----------3-----|---------8------------5S--12--|
-----0--------------------|---------------4S--7----------|
--2-----------------------|------------------------------|
--------------------------|------------------------------|
--------------------------|------------------------------|


                                      T                                 
   E   E   E   E   E   E   E   E      E    E    E   E   E   E   E   E   
--12----------15--12------19--15--|--24p--19p--15--12------------------|
------12--------------12----------|--------------------12--------------|
----------12----------------------|------------------------12p--9------|
----------------------------------|--------------------------------12--|
----------------------------------|------------------------------------|
----------------------------------|------------------------------------|


                                                      |---3---|   |---3---|   
   E   E   E   E   E   E   E   E      E   E   E   E   E   E   E   E   E   E   
----------------------------------|------------------------------------------|
----------------------------------|------------------------------------------|
----------------------------------|------------------------------------------|
--------------17--16--17--14--17--|--12--17------17--------------12--14--16--|
--15--17--15----------------------|----------15------12--14--15--------------|
----------------------------------|------------------------------------------|


   |---3---|   |---3---|   |---3---|   |---3---|   
   E   E   E   E   E   E   E   E   E   E   E   E   
--------------------------------------------------|
----------------------------------------------15--|
----------------------14--16--17--16--14--17------|
--17--16--14--16--17------------------------------|
--------------------------------------------------|
--------------------------------------------------|


   |---3---|   |---3---|   |---3---|   |---3---|                        
   E   E   E   E   E   E   E   E   E   E   E   E      W                 
----------15--17--19--20--22--20--19--17----------|--------------------|
--17--19----------------------------------20--19--|--17----------------|
--------------------------------------------------|--------------------|
--------------------------------------------------|--------------------|
--------------------------------------------------|--------------------|
--------------------------------------------------|--------------------|


                                                      
                               PM                                         
  H              Q    Q        Q     H.              Q    Q    Q    Q     
---------------------------|----------------------|----------------------|
---------------------------|----------------------|----------------------|
----------------------7----|----------------------|-------7----9---------|
-----------------5----7----|----------------------|--5----7----9---------|
-----------------5----5----|----------------------|--5----5----7---------|
-----------------3---------|--(0)-----------------|--3-------------------|


                                                        
       PM PM PM PM PM PM         PM PM PM           PM PM PM  
       |--3--|  |--3--|          |--3--|            |--3--|   
  Q    E  E  E  E  E  E  Q       E  E  E  Q    Q    E  E  E   
------------------------------|------------------------------|
-------------------------8----|-----------7------------------|
-------------------------9----|-----------7------------------|
-------------------------9----|-----------7------------------|
--7----------------------7----|-----------5----7-------------|
--0----0--0--0--0--0--0-------|--0--0--0-------0----0--0--0--|


  PM PM PM      PM PM PM              PM PM PM PM PM PM       
  |--3--|       |--3--|               |--3--|  |--3--|        
  E  E  E  Q    E  E  E  Q       Q    E  E  E  E  E  E  Q     
------------------------------|------------------------------|
-----------8-------------4----|-------------------------8----|
-----------9-------------5----|-------------------------9----|
-----------9-------------5----|-------------------------9----|
-----------7-------------3----|--7----------------------7----|
--0--0--0-------0--0--0-------|--0----0--0--0--0--0--0-------|


  PM PM PM           PM PM PM    PM PM PM      PM PM PM            
  |--3--|            |--3--|     |--3--|       |--3--|             
  E  E  E  Q    Q    E  E  E     E  E  E  Q    E  E  E  Q    Q     
------------------------------|-----------------------------------|
-----------7------------------|-----------8-------------4---------|
-----------7------------------|-----------9-------------5---------|
-----------7------------------|-----------9-------------5---------|
-----------5----7-------------|-----------7-------------3---------|
--0--0--0-------0----0--0--0--|--0--0--0-------0--0--0------------|


  PM PM PM PM PM PM PM PM PM         PM PM PM PM PM PM PM PM PM       
  |--3--|  |--3--|  |--3--|          |--3--|  |--3--|  |--3--|        
  E  E  E  E  E  E  E  E  E  Q       E  E  E  E  E  E  E  E  E  Q     
----------------------------------|----------------------------------|
-----------------------------8----|-----------------------------7----|
-----------------------------9----|-----------------------------7----|
-----------------------------9----|-----------------------------7----|
-----------------------------7----|-----------------------------5----|
--0--0--0--0--0--0--0--0--0-------|--0--0--0--0--0--0--0--0--0-------|


  PM PM PM PM PM PM PM PM PM         PM PM PM      PM PM PM       
  |--3--|  |--3--|  |--3--|          |--3--|       |--3--|        
  E  E  E  E  E  E  E  E  E  Q       E  E  E  Q    E  E  E  Q     
----------------------------------|-------------------------5----|
-----------------------------8----|-----------4-------------5----|
-----------------------------9----|-----------5-------------5----|
-----------------------------9----|-----------5-------------7----|
-----------------------------7----|-----------3-------------7----|
--0--0--0--0--0--0--0--0--0-------|--0--0--0-------0--0--0-------|


  PM PM PM PM PM PM PM PM PM         PM PM PM PM PM PM PM PM PM       
  |--3--|  |--3--|  |--3--|          |--3--|  |--3--|  |--3--|        
  E  E  E  E  E  E  E  E  E  Q       E  E  E  E  E  E  E  E  E  Q     
----------------------------------|----------------------------------|
-----------------------------8----|-----------------------------7----|
-----------------------------9----|-----------------------------7----|
-----------------------------9----|-----------------------------7----|
-----------------------------7----|-----------------------------5----|
--0--0--0--0--0--0--0--0--0-------|--0--0--0--0--0--0--0--0--0-------|


  PM PM PM PM PM PM PM PM PM         PM PM PM      PM PM PM       
  |--3--|  |--3--|  |--3--|          |--3--|       |--3--|        
  E  E  E  E  E  E  E  E  E  Q       E  E  E  Q    E  E  E  Q     
----------------------------------|-------------------------5----|
-----------------------------8----|-----------4-------------5----|
-----------------------------9----|-----------5-------------5----|
-----------------------------9----|-----------5-------------7----|
-----------------------------7----|-----------3-------------7----|
--0--0--0--0--0--0--0--0--0-------|--0--0--0-------0--0--0-------|


  PM PM PM PM PM PM PM PM PM PM PM PM    PM PM PM PM PM PM PM PM PM PM PM PM  
  |--3--|  |--3--|  |--3--|  |--3--|     |--3--|  |--3--|  |--3--|  |--3--|   
  E  E  E  E  E  E  E  E  E  E  E  E     E  E  E  E  E  E  E  E  E  E  E  E   
--------------------------------------|--------------------------------------|
--------------------------------------|--------------------------------------|
--------------------------------------|--------------------------------------|
--------------------------------------|--------------------------------------|
--------------------------------------|--------------------------------------|
--6--6--6--6--6--6--6--6--6--6--6--6--|--6--6--6--6--6--6--6--6--6--6--6--6--|


  PM PM PM PM PM PM PM PM PM PM PM PM    PM PM PM PM PM PM PM PM PM PM PM PM  
  |--3--|  |--3--|  |--3--|  |--3--|     |--3--|  |--3--|  |--3--|  |--3--|   
  E  E  E  E  E  E  E  E  E  E  E  E     E  E  E  E  E  E  E  E  E  E  E  E   
--------------------------------------|--------------------------------------|
--------------------------------------|--------------------------------------|
--------------------------------------|--------------------------------------|
--------------------------------------|--------------------------------------|
--7--7--7--7--7--7--7--7--7--7--7--7--|--7--7--7--7--7--7--7--7--7--7--7--7--|
--------------------------------------|--------------------------------------|


  PM PM PM PM PM PM PM PM PM PM PM PM  
  |--3--|  |--3--|  |--3--|  |--3--|   
  E  E  E  E  E  E  E  E  E  E  E  E   
--------------------------------------|
--------------------------------------|
--------------------------------------|
--------------------------------------|
--8--8--8--8--8--8--8--8--8--8--8--8--|
--------------------------------------|


   PM  PM  PM  PM  PM  PM  PM  PM  PM  PM  PM  PM  
   |---3---|   |---3---|   |---3---|   |---3---|   
   E   E   E   E   E   E   E   E   E   E   E   E   
--------------------------------------------------|
--------------------------------------------------|
--------------------------------------------------|
--------------------------------------------------|
--10--10--10--10--10--10--10--10--10--10--10--10--|
--------------------------------------------------|


  PM PM PM PM PM PM PM PM PM PM PM PM     PM  PM  PM  PM  PM  PM            
  |--3--|  |--3--|  |--3--|  |--3--|      |---3---|   |---3---|             
  E  E  E  E  E  E  E  E  E  E  E  E      E   E   E   E   E   E  Q    Q     
--------------------------------------|------------------------------------|
--------------------------------------|------------------------------------|
--------------------------------------|------------------------------------|
--7--7--7--7--7--7--7--7--7--9--9--9--|--10--10--10--10--10--10--9----7----|
--------------------------------------|------------------------------------|
--------------------------------------|------------------------------------|


        PM PM PM PM PM PM PM PM PM  
        |--3--|  |--3--|  |--3--|   
   Q    E  E  E  E  E  E  E  E  E   
-----------------------------------|
-----------------------------------|
-----------------------------------|
--10-------------------------------|
---8----8--8--8--8--8--8--8--8--8--|
-----------------------------------|


         PM  PM  PM  PM  PM  PM  PM  PM  PM                       
         |---3---|   |---3---|   |---3---|                        
   Q     E   E   E   E   E   E   E   E   E     H        H         
--------------------------------------------|--------------------|
--------------------------------------------|--------------------|
--------------------------------------------|--------------------|
--12----------------------------------------|--7-----------------|
--10----10--10--10--10--10--10--10--10--10--|--7-----------------|
--------------------------------------------|--5-----------------|


  H        Q    E  E     E  E  Q    H           H        Q    E  E   
----------------------|----------------------|----------------------|
----------------------|----------------------|----------------------|
-------------------2--|--2-------------------|-------------------2--|
-------------------2--|--2-------------------|-------------------2--|
-------------------0--|--0-------------------|-------------------0--|
----------------------|----------------------|----------------------|


  E  E  Q    H           H        Q    E  E     E  E  Q    H         
----------------------|----------------------|----------------------|
----------------------|----------------------|----------------------|
--2-------------------|-------------------2--|--2-------------------|
--2-------------------|-------------------2--|--2-------------------|
--0-------------------|-------------------0--|--0-------------------|
----------------------|----------------------|----------------------|


                        PM PM PM PM PM PM PM PM    PM PM PM PM PM PM PM PM  
  H        H            E  E  E  E  E  E  E  E     E  E  E  E  E  E  E  E   
---------------------|--------------------------|--------------------------|
---------------------|--------------------------|--------------------------|
---------------------|--------------------------|--------------------------|
-----------2/--------|--2--2--2--2--2--2--2--2--|--3--3--3--3--5--5--5--5--|
---------------------|--------------------------|--------------------------|
---------------------|--------------------------|--------------------------|


  PM PM PM PM PM PM PM PM    PM PM PM PM PM PM PM PM  
  E  E  E  E  E  E  E  E     E  E  E  E  E  E  E  E   
--------------------------|--------------------------|
--------------------------|--------------------------|
--------------------------|--------------------------|
--2--2--2--2--2--2--2--2--|--3--3--3--3--5--5--5--5--|
--------------------------|--------------------------|
--------------------------|--------------------------|


  PM PM PM PM PM PM PM PM         PM PM PM PM PM PM    PM   PM PM   PM PM PM  
  E  E  E  E  E  E  E  E     Q    E  E  E  E  E  E     Q    E  Q    E  E  E   
--------------------------|-------------------------|------------------------|
--------------------------|-------------------------|------------------------|
--------------------------|-------------------------|------------------------|
--2--2--2--2--2--2--2--2--|--3----3--3--5--5--5--5--|--2----2--2----2--2--2--|
--------------------------|-------------------------|------------------------|
--------------------------|-------------------------|------------------------|


  PM PM PM   PM PM PM         PM    PM PM    PM     
  E  E  Q    E  E  Q       E  E  E  E  E  E  E  E   
------------------------|--------------------------|
------------------------|--------------------------|
------------------------|--2-----2--------2-----2--|
--3--3--3----5--5--5----|--2-----2--------2-----2--|
------------------------|--0--0--0--0--0--0--0--0--|
------------------------|--------------------------|


  PM PM     PM  PM  PM      PM       PM    PM PM    PM     
  E  E   E  E   E   E   E   E     E  E  E  E  E  E  E  E   
-------------------------------|--------------------------|
-------------------------------|--------------------------|
--------10-------------12------|--2-----2--------2-----2--|
--------10-------------12------|--2-----2--------2-----2--|
--8--8---8--8--10--10--10--10--|--0--0--0--0--0--0--0--0--|
-------------------------------|--------------------------|


  PM PM     PM  PM  PM      PM       PM    PM PM    PM     
  E  E   E  E   E   E   E   E     E  E  E  E  E  E  E  E   
-------------------------------|--------------------------|
-------------------------------|--------------------------|
--------10-------------12------|--2-----2--------2-----2--|
--------10-------------12------|--2-----2--------2-----2--|
--8--8---8--8--10--10--10--10--|--0--0--0--0--0--0--0--0--|
-------------------------------|--------------------------|


  PM PM     PM  PM  PM      PM       PM    PM PM    PM                          
  E  E   E  E   E   E   E   E     E  E  E  E  E  E  E  E     H        H         
-------------------------------|--------------------------|--------------------|
-------------------------------|--------------------------|--------------------|
--------10-------------12------|--2-----2--------2-----2--|--5--------7--------|
--------10-------------12------|--2-----2--------2-----2--|--5--------7--------|
--8--8---8--8--10--10--10--10--|--0--0--0--0--0--0--0--0--|--3--------5--------|
-------------------------------|--------------------------|--------------------|


     PM PM PM PM PM PM PM PM PM PM PM PM PM PM  
  E  S  S  S  S  S  S  S  S  S  S  S  S  S  S   
-----------------------------------------------|
-----------------------------------------------|
--9--------------------------------------------|
--9--------------------------------------------|
--7--7--7--7--7--7--7--7--7--7--7--7--7--7--7--|
-----------------------------------------------|


  PM PM PM PM PM PM PM PM                 
                          |----3----|     
  S  S  S  S  S  S  S  S  Q    Q    Q     
-----------------------------------------|
--------------------------7----7----7----|
--------------------------8----8----8----|
--------------------------8----8----8----|
--7--7--7--7--7--7--7--7--6----6----6----|
-----------------------------------------|


  PM PM PM PM PM PM PM PM PM PM PM PM PM PM PM PM                        
  S  S  S  S  S  S  S  S  S  S  S  S  S  S  S  S     Q    Q    H         
--------------------------------------------------|---------------------|
--------------------------------------------------|---------------------|
--------------------------------------------------|-------7----9--------|
--------------------------------------------------|--5----7----9--------|
--7--7--7--7--7--7--7--7--7--7--7--7--7--7--7--7--|--5----5----7--------|
--------------------------------------------------|--3------------------|


  H        H           Q    H        Q       Q     H        Q     
--------------------|---------------------|----------------------|
--------------------|---------------------|----------------------|
-----------7--------|--7----9--------7----|--7--------------7----|
--5--------7--------|--7----9--------7----|--7----10--------7----|
--5--------5--------|--5----7--------5----|--5----10--------5----|
--3-----------------|---------------------|--------8-------------|


  Q    H.              H        H           Q    H        Q     
--------------------|--------------------|---------------------|
--------------------|--------------------|---------------------|
--7----9------------|-----------7--------|--7----9--------7----|
--7----9------------|--5--------7--------|--7----9--------7----|
--5----7------------|--5--------5--------|--5----7--------5----|
--------------------|--3-----------------|---------------------|


  Q     H        Q       Q    H.              H        H         
----------------------|--------------------|--------------------|
----------------------|--------------------|--------------------|
--7--------------7----|--7----9------------|-----------7--------|
--7----10--------7----|--7----9------------|--5--------7--------|
--5----10--------5----|--5----7------------|--5--------5--------|
--------8-------------|--------------------|--3-----------------|


  Q    H        Q       Q     H        Q       Q    H.            
---------------------|----------------------|--------------------|
---------------------|----------------------|--------------------|
--7----9--------7----|--7--------------7----|--7----9------------|
--7----9--------7----|--7----10--------7----|--7----9------------|
--5----7--------5----|--5----10--------5----|--5----7------------|
---------------------|--------8-------------|--------------------|


  H        H           Q    H        Q       Q     H        Q     
--------------------|---------------------|----------------------|
--------------------|---------------------|----------------------|
-----------7--------|--7----9--------7----|--7--------------7----|
--5--------7--------|--7----9--------7----|--7----10--------7----|
--5--------5--------|--5----7--------5----|--5----10--------5----|
--3-----------------|---------------------|--------8-------------|


       >                PM PM PM PM PM PM PM PM PM       
                        |--3--|  |--3--|  |--3--|        
  Q    Q    H           E  E  E  E  E  E  E  E  E  Q     
---------------------|----------------------------------|
---------------------|-----------------------------8----|
--L----9-------------|-----------------------------9----|
--L----9-------------|-----------------------------9----|
--L----7-------------|-----------------------------7----|
---------------------|--0--0--0--0--0--0--0--0--0-------|


  PM PM PM PM PM PM PM PM PM         PM PM PM PM PM PM PM PM PM       
  |--3--|  |--3--|  |--3--|          |--3--|  |--3--|  |--3--|        
  E  E  E  E  E  E  E  E  E  Q       E  E  E  E  E  E  E  E  E  Q     
----------------------------------|----------------------------------|
-----------------------------7----|-----------------------------8----|
-----------------------------7----|-----------------------------9----|
-----------------------------7----|-----------------------------9----|
-----------------------------5----|-----------------------------7----|
--0--0--0--0--0--0--0--0--0-------|--0--0--0--0--0--0--0--0--0-------|


  PM PM PM      PM PM PM         PM PM PM PM PM PM PM PM PM       
  |--3--|       |--3--|          |--3--|  |--3--|  |--3--|        
  E  E  E  Q    E  E  E  Q       E  E  E  E  E  E  E  E  E  Q     
-------------------------5----|----------------------------------|
-----------4-------------5----|-----------------------------8----|
-----------5-------------5----|-----------------------------9----|
-----------5-------------7----|-----------------------------9----|
-----------3-------------7----|-----------------------------7----|
--0--0--0-------0--0--0-------|--0--0--0--0--0--0--0--0--0-------|


  PM PM PM PM PM PM PM PM PM         PM PM PM PM PM PM PM PM PM       
  |--3--|  |--3--|  |--3--|          |--3--|  |--3--|  |--3--|        
  E  E  E  E  E  E  E  E  E  Q       E  E  E  E  E  E  E  E  E  Q     
----------------------------------|----------------------------------|
-----------------------------7----|-----------------------------8----|
-----------------------------7----|-----------------------------9----|
-----------------------------7----|-----------------------------9----|
-----------------------------5----|-----------------------------7----|
--0--0--0--0--0--0--0--0--0-------|--0--0--0--0--0--0--0--0--0-------|


  PM PM PM      PM PM PM       
  |--3--|       |--3--|        
  E  E  E  Q    E  E  E  Q     
-------------------------5----|
-----------4-------------5----|
-----------5-------------5----|
-----------5-------------7----|
-----------3-------------7----|
--0--0--0-------0--0--0-------|


                                                
   |---3---|   |---3---|   |----3----|   |---3---|   
   E   E   E   E   E   E   E    E    E   E   E   E   
--------------------------15h--19p--15--------------|
----------------------17----------------17----------|
------------------16------------------------16------|
--------------17--------------------------------17--|
------14--19----------------------------------------|
--15------------------------------------------------|


   |----3----|   |----3----|               
   E    E    E   E    E    E   Q     Q     
------------------------------------------|
------------------------------------------|
--19h--21p--19--17h--19p--17--16----------|
------------------------------------17----|
------------------------------------------|
------------------------------------------|


   |---3---|   |---3---|   |---3---|   |---3---|   
   E   E   E   E   E   E   E   E   E   E   E   E   
--------------------------------------------------|
--------------------------17--15--13--20--19--17--|
--------------16--14--12--------------------------|
--17--16--14--------------------------------------|
--------------------------------------------------|
--------------------------------------------------|


         |----3----|               
   Q     E    E    E   Q.      E   
--19----19h--20p--19--22------19--|
----------------------------------|
----------------------------------|
----------------------------------|
----------------------------------|
----------------------------------|


   |----3---|   |---3---|   |----3---|   |---3---|   
   E    E   E   E   E   E   E    E   E   E   E   E   
--24p--19--------------18--19p--15--------------15--|
-----------20------20---------------17------17------|
---------------21-----------------------16----------|
----------------------------------------------------|
----------------------------------------------------|
----------------------------------------------------|


   |----3---|   |----3---|   |----3---|    |---3---|   
   E    E   E   E    E   E   E    E   E    E   E   E   
--20p--17-----------------------------------------17--|
-----------19---------------------------------19------|
---------------20p--17---------------17h--20----------|
------------------------19--16h--19-------------------|
------------------------------------------------------|
------------------------------------------------------|


   |----3---|   |---3---|   |----3---|   |---3---|   
   E    E   E   E   E   E   E    E   E   E   E   E   
--19p--15---------------------------------------15--|
-----------17-------------------------------17------|
---------------16-----------------------16----------|
-------------------17---------------17--------------|
-----------------------19--14h--19------------------|
----------------------------------------------------|


   |----3---|   |----3---|   |----3---|    |---3---|                        
   E    E   E   E    E   E   E    E   E    E   E   E      W                 
--17p--14-----------------------------------------14--|--13----------------|
-----------16---------------------------------16------|--------------------|
---------------17p--14---------------14h--17----------|--------------------|
------------------------16--13h--16-------------------|--------------------|
------------------------------------------------------|--------------------|
------------------------------------------------------|--------------------|


                                                   /3\               
  H         Q       Q        W                     W                 
--L--------12br-----L----|---L----------------|--<>5----------------|
-------------------------|--------------------|---------------------|
-------------------------|--------------------|---------------------|
-------------------------|--------------------|---------------------|
-------------------------|--------------------|---------------------|
-------------------------|--------------------|---------------------|


                             
        PM PM PM PM PM PM PM PM PM  
        |--3--|  |--3--|  |--3--|   
   Q    E  E  E  E  E  E  E  E  E   
-----------------------------------|
-----------------------------------|
-----------------------------------|
--10-------------------------------|
---8----8--8--8--8--8--8--8--8--8--|
-----------------------------------|


         PM  PM  PM  PM  PM  PM  PM  PM  PM  
         |---3---|   |---3---|   |---3---|   
   Q     E   E   E   E   E   E   E   E   E   
--------------------------------------------|
--------------------------------------------|
--------------------------------------------|
--12----------------------------------------|
--10----10--10--10--10--10--10--10--10--10--|
--------------------------------------------|


         PM  PM  PM  PM  PM  PM  PM  PM  PM                           
         |---3---|   |---3---|   |---3---|                            
   Q     E   E   E   E   E   E   E   E   E      H         Q     Q     
--------------------------------------------|------------------------|
--------------------------------------------|------------------------|
--------------------------------------------|------------------------|
--14----------------------------------------|------------------------|
--12----12--12--12--12--12--12--14--14--14--|--15--------14----12----|
--------------------------------------------|------------------------|


       PM PM PM PM                        PM  PM  PM  PM  PM  PM              
       |--3--|       |---3---|            |---3---|   |---3---|   |---3---|   
  Q    E  E  E  Q    E   E   E      Q     E   E   E   E   E   E   E   E   E   
--------------------------------|--------------------------------------------|
--------------------------------|--------------------------------------------|
--------------------------------|--------------------------------------------|
--------------------------------|--------------------------------------------|
--8----8--8--8--8----8--10--12--|--10----10--10--10--10--10--10--10--12--14--|
--------------------------------|--------------------------------------------|


   Q    H.              H        H           Q    H.            
---------------------|--------------------|--------------------|
---------------------|--------------------|--------------------|
---------------------|--------------------|--2-----------------|
---------------------|--3--------5--------|--2-----------------|
--12-----------------|--3--------5--------|--0-----------------|
---------------------|--1--------3--------|--------------------|


  H        H           Q    H.              H        H         
--------------------|--------------------|--------------------|
--------------------|--------------------|--------------------|
--------------------|--2-----------------|--------------------|
--3--------5--------|--2-----------------|--3--------5--------|
--3--------5--------|--0-----------------|--3--------5--------|
--1--------3--------|--------------------|--1--------3--------|


  Q    H.              H         H          
--------------------|----------------------|
--------------------|----------------------|
--2-----------------|----------------------|
--2-----------------|----------------------|
--0-----------------|----------------------|
--------------------|-----------17\--------|


                   
  PM PM    PM PM    PM     
  E  E  E  E  E  E  E  E   
--------------------------|
--------------------------|
--------5--------2-----2--|
--------------------------|
--0--0-----0--0-----0-----|
--------------------------|


                             PM PM    PM PM    PM     
  E  E  E  E  E  E  E  E     E  E  E  E  E  E  E  E   
--------------------------|--------------------------|
--------------3--------3--|--------------------------|
--5--2--4--5-----4--5-----|--------5--------2-----2--|
--------------------------|--------------------------|
--------------------------|--0--0-----0--0-----0-----|
--------------------------|--------------------------|


                             PM PM    PM PM    PM     
  E  E  E  E  E  E  E  E     E  E  E  E  E  E  E  E   
--------------------------|--------------------------|
--------------3--------3--|--------------------------|
--5--2--4--5-----4--5-----|--------5--------2-----2--|
--------------------------|--------------------------|
--------------------------|--0--0-----0--0-----0-----|
--------------------------|--------------------------|


                             PM PM    PM PM    PM     
  E  E  E  E  E  E  E  E     E  E  E  E  E  E  E  E   
--------------------------|--------------------------|
--------------3--------3--|--------------------------|
--5--2--4--5-----4--5-----|--------5--------2-----2--|
--------------------------|--------------------------|
--------------------------|--0--0-----0--0-----0-----|
--------------------------|--------------------------|


                              W                     W                  
  E  E  E  E  E  E  E  E      W                     W                  
--------------------------|---------------------|---------------------|
--------------3-----------|---------------------|---------------------|
--5--2--4--5-----4--5--2--|---------------------|--(8)----------------|
--------------------------|--(7)----------------|---7-----------------|
--------------------------|---6-----------------|---6-----------------|
--------------------------|---5-----------------|---------------------|


    W                      W                     W                  
    W                      W                     W                  
----------------------|--(11)----------------|---------------------|
--(10)----------------|---10-----------------|---------------------|
----8-----------------|----8-----------------|---------------------|
----7-----------------|----------------------|--(7)----------------|
----------------------|----------------------|---6-----------------|
----------------------|----------------------|---5-----------------|


   W                      W                      W                  
   W                      W                      W                  
---------------------|----------------------|--(11)----------------|
---------------------|--(10)----------------|---10-----------------|
--(8)----------------|----8-----------------|----8-----------------|
---7-----------------|----7-----------------|----------------------|
---6-----------------|----------------------|----------------------|
---------------------|----------------------|----------------------|


                       PM PM                                        
  Q    H.              E  E  E  E  H           Q     H.             
--------------------|-----------------------|---------------------||
--------------------|-----------------------|---------------------||
--------------------|--------7--9--L--------|--L\-----------------||
--2-----------------|--------7--9--L--------|--L\-----------------||
--2-----------------|--0--0--5--7--L--------|--L\-----------------||
--0-----------------|-----------------------|---------------------||


-------------------------------------------------------------------------------

Guitar 2: (Alexander)

      W                   Q.     E  Q    Q       Q    H.            
C#||-------------------|----------------------|--------------------|
G#||-------------------|----------------------|--------------------|
E ||-------------------|-----------------7----|--9-----------------|
B ||-------------------|-----------------7----|--9-----------------|
F#||-------------------|---------7--7----5----|--7-----------------|
C#||-------------------|---------0--0---------|--------------------|


  H.           Q       Q    H.              Q    E  E  H          
--------------------|--------------------|-----------------------|
--------------------|--------------------|-------8---------------|
---------------7----|--9-----------------|----------9------------|
---------------7----|--9-----------------|-------------8~--------|
---------------5----|--7-----------------|-----------------------|
--------------------|--------------------|-----------------------|


  Q    H.              Q     H         Q       Q    H.            
--------------------|-----------------------|--------------------|
--------------------|-----------------------|--------------------|
--9-----------------|------------------7----|--9-----------------|
--9-----------------|------------------7----|--9-----------------|
--7-----------------|------------------5----|--7-----------------|
--------------------|-------17\-------------|--------------------|


                                                       PM PM  PM  PM PM  PM  
  Q    E  E  H            Q    E  Q    E  Q       Q    E  E   E   E  E   E   
-----------------------|-----------------------|----------------------------|
-------8---------------|----------8----7--7----|--8-------------------------|
----------9------------|--9-------9----8--8----|--9-------------------------|
-------------8~--------|--9-------9----8--8----|--9-------------------------|
-----------------------|--7-------7----6--6----|--7----7--9--10--10--9------|
-----------------------|-----------------------|------------------------10--|


  Q    E  Q    E  Q       Q    E  E  H            Q    E  Q    E  Q     
-----------------------|-----------------------|-----------------------|
----------8----7--7----|--8----8---------------|----------8----7--7----|
--9-------9----8--8----|--9-------9------------|--9-------9----8--8----|
--9-------9----8--8----|--9----------8~--------|--9-------9----8--8----|
--7-------7----6--6----|--7--------------------|--7-------7----6--6----|
-----------------------|-----------------------|-----------------------|


       PM PM  PM  PM PM  PM                                                  
  Q    E  E   E   E  E   E     Q    E  Q    E  Q       Q    E  E  H          
----------------------------|-----------------------|-----------------------|
--8-------------------------|----------8----7--7----|--8----8---------------|
--9-------------------------|--9-------9----8--8----|--9-------9------------|
--9-------------------------|--9-------9----8--8----|--9----------8~--------|
--7----7--9--10--10--9------|--7-------7----6--6----|--7--------------------|
------------------------10--|-----------------------|-----------------------|


  Balance = Middle                                              
  W                    H         H            W                 
-------------------|----------------------|--------------------|
-------------------|------------10--------|--12----------------|
-------------------|----------------------|--------------------|
--2----------------|---L------------------|--------------------|
--2----------------|---L------------------|--------------------|
--0----------------|---L------------------|--------------------|


  W                   W                    W                 
-------------------|-------------------|--------------------|
--L----------------|-------------------|--------------------|
-------------------|-------------------|--------------------|
-------------------|--5----------------|---L----------------|
-------------------|--5----------------|---L----------------|
-------------------|--3----------------|---L----------------|


  W                   W                 
-------------------|-------------------|
-------------------|-------------------|
-------------------|-------------------|
--7----------------|--L----------------|
--7----------------|--L----------------|
--5----------------|--L----------------|


                                                           
       PM PM PM PM      PM PM PM PM         PM PM PM PM            
  Q    S  S  S  S  Q    S  S  S  S     Q    S  S  S  S  Q    Q     
------------------------------------|-----------------------------|
------------------------------------|-----------------------------|
------------------------------------|------------------------7----|
--9----------------9----------------|--9----------------5----7----|
--7----------------7----------------|--7----------------5----5----|
-------0--0--0--0-------0--0--0--0--|-------0--0--0--0--3---------|


       PM PM PM PM      PM PM PM PM                         
  Q    S  S  S  S  Q    S  S  S  S     Q    Q    Q    Q     
------------------------------------|----------------------|
------------------------------------|----------------------|
------------------------------------|-------7----9---------|
--9----------------9----------------|--5----7----9---------|
--7----------------7----------------|--5----5----7---------|
-------0--0--0--0-------0--0--0--0--|--3-------------------|


                                                          
                 PM PM PM PM PM PM         PM PM PM           PM PM PM  
                 |--3--|  |--3--|          |--3--|            |--3--|   
  Q              E  E  E  E  E  E  Q       E  E  E  Q    Q    E  E  E   
------------------------------|------------------------------|
-------------------------8----|-----------7------------------|
-------------------------9----|-----------7------------------|
-------------------------9----|-----------7------------------|
--7----------------------7----|-----------5----7-------------|
--0----0--0--0--0--0--0-------|--0--0--0-------0----0--0--0--|


  PM PM PM      PM PM PM              PM PM PM PM PM PM       
  |--3--|       |--3--|               |--3--|  |--3--|        
  E  E  E  Q    E  E  E  Q       Q    E  E  E  E  E  E  Q     
------------------------------|------------------------------|
-----------8-------------4----|-------------------------8----|
-----------9-------------5----|-------------------------9----|
-----------9-------------5----|-------------------------9----|
-----------7-------------3----|--7----------------------7----|
--0--0--0-------0--0--0-------|--0----0--0--0--0--0--0-------|


  PM PM PM           PM PM PM    PM PM PM      PM PM PM            
  |--3--|            |--3--|     |--3--|       |--3--|             
  E  E  E  Q    Q    E  E  E     E  E  E  Q    E  E  E  Q    Q     
------------------------------|-----------------------------------|
-----------7------------------|-----------8-------------4---------|
-----------7------------------|-----------9-------------5---------|
-----------7------------------|-----------9-------------5---------|
-----------5----7-------------|-----------7-------------3---------|
--0--0--0-------0----0--0--0--|--0--0--0-------0--0--0------------|


  PM PM PM PM PM PM PM PM PM         PM PM PM PM PM PM PM PM PM       
  |--3--|  |--3--|  |--3--|          |--3--|  |--3--|  |--3--|        
  E  E  E  E  E  E  E  E  E  Q       E  E  E  E  E  E  E  E  E  Q     
----------------------------------|----------------------------------|
-----------------------------8----|-----------------------------7----|
-----------------------------9----|-----------------------------7----|
-----------------------------9----|-----------------------------7----|
-----------------------------7----|-----------------------------5----|
--0--0--0--0--0--0--0--0--0-------|--0--0--0--0--0--0--0--0--0-------|


  PM PM PM PM PM PM PM PM PM         PM PM PM      PM PM PM       
  |--3--|  |--3--|  |--3--|          |--3--|       |--3--|        
  E  E  E  E  E  E  E  E  E  Q       E  E  E  Q    E  E  E  Q     
----------------------------------|-------------------------5----|
-----------------------------8----|-----------4-------------5----|
-----------------------------9----|-----------5-------------5----|
-----------------------------9----|-----------5-------------7----|
-----------------------------7----|-----------3-------------7----|
--0--0--0--0--0--0--0--0--0-------|--0--0--0-------0--0--0-------|


  PM PM PM PM PM PM PM PM PM         PM PM PM PM PM PM PM PM PM       
  |--3--|  |--3--|  |--3--|          |--3--|  |--3--|  |--3--|        
  E  E  E  E  E  E  E  E  E  Q       E  E  E  E  E  E  E  E  E  Q     
----------------------------------|----------------------------------|
-----------------------------8----|-----------------------------7----|
-----------------------------9----|-----------------------------7----|
-----------------------------9----|-----------------------------7----|
-----------------------------7----|-----------------------------5----|
--0--0--0--0--0--0--0--0--0-------|--0--0--0--0--0--0--0--0--0-------|


  PM PM PM PM PM PM PM PM PM         PM PM PM      PM PM PM       
  |--3--|  |--3--|  |--3--|          |--3--|       |--3--|        
  E  E  E  E  E  E  E  E  E  Q       E  E  E  Q    E  E  E  Q     
----------------------------------|-------------------------5----|
-----------------------------8----|-----------4-------------5----|
-----------------------------9----|-----------5-------------5----|
-----------------------------9----|-----------5-------------7----|
-----------------------------7----|-----------3-------------7----|
--0--0--0--0--0--0--0--0--0-------|--0--0--0-------0--0--0-------|


  PM PM PM PM PM PM PM PM PM PM PM PM    PM PM PM PM PM PM PM PM PM PM PM PM  
  |--3--|  |--3--|  |--3--|  |--3--|     |--3--|  |--3--|  |--3--|  |--3--|   
  E  E  E  E  E  E  E  E  E  E  E  E     E  E  E  E  E  E  E  E  E  E  E  E   
--------------------------------------|--------------------------------------|
--------------------------------------|--------------------------------------|
--------------------------------------|--------------------------------------|
--------------------------------------|--------------------------------------|
--------------------------------------|--------------------------------------|
--6--6--6--6--6--6--6--6--6--6--6--6--|--6--6--6--6--6--6--6--6--6--6--6--6--|


  PM PM PM PM PM PM PM PM PM PM PM PM    PM PM PM PM PM PM PM PM PM PM PM PM  
  |--3--|  |--3--|  |--3--|  |--3--|     |--3--|  |--3--|  |--3--|  |--3--|   
  E  E  E  E  E  E  E  E  E  E  E  E     E  E  E  E  E  E  E  E  E  E  E  E   
--------------------------------------|--------------------------------------|
--------------------------------------|--------------------------------------|
--------------------------------------|--------------------------------------|
--------------------------------------|--------------------------------------|
--7--7--7--7--7--7--7--7--7--7--7--7--|--7--7--7--7--7--7--7--7--7--7--7--7--|
--------------------------------------|--------------------------------------|


       PM PM PM                   PM PM PM      PM PM PM  
       |--3--|                    |--3--|       |--3--|   
  Q    E  E  E  Q    Q       Q    E  E  E  Q    E  E  E   
--------------------------|------------------------------|
--------------------------|------------------------------|
--5----5--5--5--5----5----|--4----4--4--4--4----7--7--7--|
--------------------------|------------------------------|
--------------------------|------------------------------|
--------------------------|------------------------------|


  PM PM PM PM PM PM PM PM PM PM PM PM                        
  |--3--|  |--3--|  |--3--|  |--3--|                         
  E  E  E  E  E  E  E  E  E  E  E  E      W                  
--------------------------------------|---------------------|
-----------------------------8--8--8--|--10~----------------|
--9--9--9--9--9--9--9--9--9-----------|---------------------|
--------------------------------------|---------------------|
--------------------------------------|---------------------|
--------------------------------------|---------------------|


  PM PM PM PM PM PM              PM PM PM PM PM PM PM PM PM PM PM PM  
  |--3--|  |--3--|               |--3--|  |--3--|  |--3--|  |--3--|   
  E  E  E  E  E  E  Q    Q       E  E  E  E  E  E  E  E  E  E  E  E   
------------------------------|--------------------------------------|
------------------------------|--------------------------------------|
--9--9--9--9--9--9--7----5----|--4--4--4--4--4--4--4--4--4--4--4--4--|
------------------------------|--------------------------------------|
------------------------------|--------------------------------------|
------------------------------|--------------------------------------|


  H        H           H        Q    E  E     E  E  Q    H         
--------------------|----------------------|----------------------|
--------------------|----------------------|----------------------|
--------------------|-------------------2--|--2-------------------|
--7-----------------|-------------------2--|--2-------------------|
--------------------|-------------------0--|--0-------------------|
--------------------|----------------------|----------------------|


  H        Q    E  E     E  E  Q    H           H        Q    E  E   
----------------------|----------------------|----------------------|
----------------------|----------------------|----------------------|
-------------------2--|--2-------------------|-------------------2--|
-------------------2--|--2-------------------|-------------------2--|
-------------------0--|--0-------------------|-------------------0--|
----------------------|----------------------|----------------------|


                                               PM PM PM PM PM PM PM PM  
  E  E  Q    H           H        H            E  E  E  E  E  E  E  E   
----------------------|---------------------|--------------------------|
----------------------|---------------------|--------------------------|
--2-------------------|---------------------|--------------------------|
--2-------------------|---------------------|--------------------------|
--0-------------------|-----------0/--------|--0--0--0--0--0--0--0--0--|
----------------------|---------------------|--------------------------|


  PM PM PM PM PM PM PM PM    PM PM PM PM PM PM PM PM  
  E  E  E  E  E  E  E  E     E  E  E  E  E  E  E  E   
--------------------------|--------------------------|
--------------------------|--------------------------|
--------------------------|--------------------------|
--------------------------|--------------------------|
--3--3--3--3--2--2--2--2--|--0--0--0--0--0--0--0--0--|
--------------------------|--------------------------|


  PM PM PM PM PM PM PM PM    PM PM PM PM PM PM PM PM  
  E  E  E  E  E  E  E  E     E  E  E  E  E  E  E  E   
--------------------------|--------------------------|
--------------------------|--------------------------|
--------------------------|--------------------------|
--------------------------|--------------------------|
--3--3--3--3--2--2--2--2--|--0--0--0--0--0--0--0--0--|
--------------------------|--------------------------|


  PM PM PM PM PM PM PM PM    PM PM PM PM PM PM PM PM  
  E  E  E  E  E  E  E  E     E  E  E  E  E  E  E  E   
--------------------------|--------------------------|
--------------------------|--------------------------|
--------------------------|--------------------------|
--------------------------|--------------------------|
--3--3--3--3--2--2--2--2--|--0--0--0--0--0--0--0--0--|
--------------------------|--------------------------|


  PM PM PM PM PM PM PM PM       PM    PM PM    PM     
  E  E  E  E  E  E  E  E     E  E  E  E  E  E  E  E   
--------------------------|--------------------------|
--------------------------|--------------------------|
--------------------------|--2-----2--------2-----2--|
--------------------------|--2-----2--------2-----2--|
--3--3--3--3--2--2--2--2--|--0--0--0--0--0--0--0--0--|
--------------------------|--------------------------|


  PM PM     PM  PM  PM      PM       PM    PM PM    PM     
  E  E   E  E   E   E   E   E     E  E  E  E  E  E  E  E   
-------------------------------|--------------------------|
-------------------------------|--------------------------|
--------10-------------12------|--2-----2--------2-----2--|
--------10-------------12------|--2-----2--------2-----2--|
--8--8---8--8--10--10--10--10--|--0--0--0--0--0--0--0--0--|
-------------------------------|--------------------------|


  PM PM     PM  PM  PM      PM       PM    PM PM    PM     
  E  E   E  E   E   E   E   E     E  E  E  E  E  E  E  E   
-------------------------------|--------------------------|
-------------------------------|--------------------------|
--------10-------------12------|--2-----2--------2-----2--|
--------10-------------12------|--2-----2--------2-----2--|
--8--8---8--8--10--10--10--10--|--0--0--0--0--0--0--0--0--|
-------------------------------|--------------------------|


  PM PM     PM  PM  PM      PM       PM    PM PM    PM                          
  E  E   E  E   E   E   E   E     E  E  E  E  E  E  E  E     H        H         
-------------------------------|--------------------------|--------------------|
-------------------------------|--------------------------|--------------------|
--------10-------------12------|--2-----2--------2-----2--|--5--------7--------|
--------10-------------12------|--2-----2--------2-----2--|--5--------7--------|
--8--8---8--8--10--10--10--10--|--0--0--0--0--0--0--0--0--|--3--------5--------|
-------------------------------|--------------------------|--------------------|


                                |----3----|                          
  Q    H.              H        Q    Q    Q       Q    H.            
--------------------|--------------------------|--------------------|
--------------------|-----------7----7----7----|--------------------|
--9-----------------|-----------8----8----8----|--9-----------------|
--9-----------------|-----------8----8----8----|--9-----------------|
--7-----------------|-----------6----6----6----|--7-----------------|
--------------------|--------------------------|--------------------|


                                              |---3---|   
   Q     Q    H           E   E   Q     Q     E   E   E   
-----------------------|---------------------------------|
-----------------------|---------------12----10--12--10--|
--12----11----9--------|--9--11--12----------------------|
--12----11----9--------|---------------------------------|
--10-----9----7--------|---------------------------------|
-----------------------|---------------------------------|


   E   E   E  E  E   E  Q       E   E   Q     Q     E  E   
-----------------------------|----------------------------|
-----------------------------|----------------------------|
--12--11--12--9--9------9----|--9--11--12----12----11--9--|
--------------------12-------|----------------------------|
-----------------------------|----------------------------|
-----------------------------|----------------------------|


                                            |---3---|   
   Q    H.              E   E   Q     Q     E   E   E   
---------------------|---------------------------------|
---------------------|---------------12----10--12--10--|
--------9------------|--9--11--12----------------------|
--12-----------------|---------------------------------|
---------------------|---------------------------------|
---------------------|---------------------------------|


   E   E   E  E  E   E  Q       E   E   Q     Q     E  E   
-----------------------------|----------------------------|
-----------------------------|----------------------------|
--12--11--12--9--9------9----|--9--11--12----12----11--9--|
--------------------12-------|----------------------------|
-----------------------------|----------------------------|
-----------------------------|----------------------------|


                                            |---3---|   
   Q    H.              E   E   Q     Q     E   E   E   
---------------------|---------------------------------|
---------------------|---------------12----10--12--10--|
--------9------------|--9--11--12----------------------|
--12-----------------|---------------------------------|
---------------------|---------------------------------|
---------------------|---------------------------------|


   E   E   E  E  E   E  Q       E   E   Q     Q     E  E   
-----------------------------|----------------------------|
-----------------------------|----------------------------|
--12--11--12--9--9------9----|--9--11--12----12----11--9--|
--------------------12-------|----------------------------|
-----------------------------|----------------------------|
-----------------------------|----------------------------|


                                            |---3---|   
   Q    H.              E   E   Q     Q     E   E   E   
---------------------|---------------------------------|
---------------------|---------------12----10--12--10--|
--------9------------|--9--11--12----------------------|
--12-----------------|---------------------------------|
---------------------|---------------------------------|
---------------------|---------------------------------|


   E   E   E  E  E   E  Q       E   E   Q     Q     E  E   
-----------------------------|----------------------------|
-----------------------------|----------------------------|
--12--11--12--9--9------9----|--9--11--12----12----11--9--|
--------------------12-------|----------------------------|
-----------------------------|----------------------------|
-----------------------------|----------------------------|


                        PM PM PM PM PM PM PM PM PM       
                        |--3--|  |--3--|  |--3--|        
   Q    H.              E  E  E  E  E  E  E  E  E  Q     
--------7------------|----------------------------------|
---------------------|-----------------------------8----|
---------------------|-----------------------------9----|
--12-----------------|-----------------------------9----|
---------------------|-----------------------------7----|
---------------------|--0--0--0--0--0--0--0--0--0-------|


  PM PM PM PM PM PM PM PM PM         PM PM PM PM PM PM PM PM PM       
  |--3--|  |--3--|  |--3--|          |--3--|  |--3--|  |--3--|        
  E  E  E  E  E  E  E  E  E  Q       E  E  E  E  E  E  E  E  E  Q     
----------------------------------|----------------------------------|
-----------------------------7----|-----------------------------8----|
-----------------------------7----|-----------------------------9----|
-----------------------------7----|-----------------------------9----|
-----------------------------5----|-----------------------------7----|
--0--0--0--0--0--0--0--0--0-------|--0--0--0--0--0--0--0--0--0-------|


  PM PM PM      PM PM PM         PM PM PM PM PM PM PM PM PM       
  |--3--|       |--3--|          |--3--|  |--3--|  |--3--|        
  E  E  E  Q    E  E  E  Q       E  E  E  E  E  E  E  E  E  Q     
-------------------------5----|----------------------------------|
-----------4-------------5----|-----------------------------8----|
-----------5-------------5----|-----------------------------9----|
-----------5-------------7----|-----------------------------9----|
-----------3-------------7----|-----------------------------7----|
--0--0--0-------0--0--0-------|--0--0--0--0--0--0--0--0--0-------|


  PM PM PM PM PM PM PM PM PM         PM PM PM PM PM PM PM PM PM       
  |--3--|  |--3--|  |--3--|          |--3--|  |--3--|  |--3--|        
  E  E  E  E  E  E  E  E  E  Q       E  E  E  E  E  E  E  E  E  Q     
----------------------------------|----------------------------------|
-----------------------------7----|-----------------------------8----|
-----------------------------7----|-----------------------------9----|
-----------------------------7----|-----------------------------9----|
-----------------------------5----|-----------------------------7----|
--0--0--0--0--0--0--0--0--0-------|--0--0--0--0--0--0--0--0--0-------|


  PM PM PM      PM PM PM       
  |--3--|       |--3--|        
  E  E  E  Q    E  E  E  Q     
-------------------------5----|
-----------4-------------5----|
-----------5-------------5----|
-----------5-------------7----|
-----------3-------------7----|
--0--0--0-------0--0--0-------|


                                        
                   PM PM PM      PM PM PM  
                   |--3--|       |--3--|   
  Q                E  E  E  Q    E  E  E   
------------------------------------------|
------------------------------------------|
--9-------------------------9-------------|
--9-------------------------9-------------|
--7----------------7--7--7--7----7--7--7--|
------------------------------------------|


Two guitar tracks. 

             PM  PM  PM                   PM PM PM      PM PM PM  
  |---3---|  |---3---|                    |--3--|       |--3--|   
  E   E   E  E   E   E  Q    Q       Q    E  E  E  Q    E  E  E   
--7h--8p--7--5h--7p--5--3----0----|------------------------------|
----------------------------------|------------------------------|
----------------------------------|--9-------------9-------------|
--9---------------------5----2----|--9-------------9-------------|
--9---------------------5----2----|--7----7--7--7--7----7--7--7--|
--7----------7---7---7--3----0----|------------------------------|


                        PM PM PM PM PM PM PM PM PM PM PM PM  
                        |--3--|  |--3--|  |--3--|  |--3--|   
   H        H           E  E  E  E  E  E  E  E  E  E  E  E   
---------------------|--------------------------------------|
---------------------|--------------------------------------|
--12--------7--------|--------------------------------------|
--12--------7--------|--------------------------------------|
--10--------5--------|--7--7--7--7--7--7--7--7--7--7--7--7--|
---------------------|--------------------------------------|


  PM PM PM PM PM PM PM PM PM PM PM PM    PM PM PM PM PM PM PM PM PM PM PM PM  
  |--3--|  |--3--|  |--3--|  |--3--|     |--3--|  |--3--|  |--3--|  |--3--|   
  E  E  E  E  E  E  E  E  E  E  E  E     E  E  E  E  E  E  E  E  E  E  E  E   
--------------------------------------|--------------------------------------|
--------------------------------------|--------------------------------------|
--------------------------------------|--------------------------------------|
--------------------------------------|--------------------------------------|
--------------------------------------|--7--7--7--7--7--7--------------------|
--7--7--7--7--7--7--7--7--7--7--7--7--|--------------------8--8--8--8--8--8--|


   PM  PM  PM  PM  PM  PM PM PM PM PM PM PM  
   |---3---|   |---3---|  |--3--|  |--3--|   
   E   E   E   E   E   E  E  E  E  E  E  E   
--------------------------------------------|
--------------------------------------------|
--------------------------------------------|
--------------------------------------------|
--------------------------------------------|
--10--10--10--10--10--10--7--7--7--7--7--7--|


  PM PM PM PM PM PM PM PM PM PM PM PM    PM PM PM PM PM PM PM PM PM PM PM PM  
  |--3--|  |--3--|  |--3--|  |--3--|     |--3--|  |--3--|  |--3--|  |--3--|   
  E  E  E  E  E  E  E  E  E  E  E  E     E  E  E  E  E  E  E  E  E  E  E  E   
--------------------------------------|--------------------------------------|
--------------------------------------|--------------------------------------|
--------------------------------------|--------------------------------------|
--------------------------------------|--------------------------------------|
--------------------------------------|--------------------------------------|
--6--6--6--6--6--6--6--6--6--6--6--6--|--6--6--6--6--6--6--6--6--6--6--6--6--|


  PM PM PM PM PM PM PM PM PM PM PM PM    PM PM PM PM PM PM PM PM PM PM PM PM  
  |--3--|  |--3--|  |--3--|  |--3--|     |--3--|  |--3--|  |--3--|  |--3--|   
  E  E  E  E  E  E  E  E  E  E  E  E     E  E  E  E  E  E  E  E  E  E  E  E   
--------------------------------------|--------------------------------------|
--------------------------------------|--------------------------------------|
--------------------------------------|--------------------------------------|
--------------------------------------|--------------------------------------|
--7--7--7--7--7--7--7--7--7--7--7--7--|--7--7--7--7--7--7--7--7--7--7--7--7--|
--------------------------------------|--------------------------------------|


   Balance = Left                                     
                  PM  PM  PM  PM  PM  PM  PM  PM  PM  
                  |---3---|   |---3---|   |---3---|   
   Q              E   E   E   E   E   E   E   E   E   
-----------------------------------------------------|
-----------------------------------------------------|
-----------------------------------------------------|
--10-------------10--10--10--10--10--10--10--10--10--|
-----------------------------------------------------|
-----------------------------------------------------|


  PM PM PM PM PM PM PM PM PM PM PM PM  
  |--3--|  |--3--|  |--3--|  |--3--|   
  E  E  E  E  E  E  E  E  E  E  E  E   
--------------------------------------|
--------------------------------------|
--------------------7--7--7--7--7--7--|
--9--9--9--9--9--9--------------------|
--------------------------------------|
--------------------------------------|


  PM PM PM PM PM PM PM PM PM  PM  PM  PM     PM  PM  PM  PM  PM  PM             
  |--3--|  |--3--|  |--3--|   |---3---|      |---3---|   |---3---|              
  E  E  E  E  E  E  E  E  E   E   E   E      E   E   E   E   E   E   H          
-----------------------------------------|-------------------------------------|
-----------------------------------------|-------------------------------------|
--9--9--9--9--9--9--9--9--9--12--12--12--|--14--14--14--14--14--14--14\--------|
-----------------------------------------|-------------------------------------|
-----------------------------------------|-------------------------------------|
-----------------------------------------|-------------------------------------|


         PM  PM  PM  PM  PM  PM PM PM PM         PM PM PM                 
         |---3---|   |---3---|  |--3--|          |--3--|       |---3--|   
   Q     E   E   E   E   E   E  E  E  E     Q    E  E  E  Q    E   E  E   
-----------------------------------------|-------------------------------|
-----------------------------------------|-------------------------------|
--------------------------------9--9--9--|--7----7--7--7--7----7---------|
--10----10--10--10--10--10--10-----------|------------------------10--9--|
-----------------------------------------|-------------------------------|
-----------------------------------------|-------------------------------|


  Q    H.              H        H           Q    H.            
--------------------|--------------------|--------------------|
--------------------|--------------------|--------------------|
--9-----------------|--------------------|--------------------|
--7-----------------|--3--------5--------|--7-----------------|
--------------------|--------------------|--------------------|
--------------------|--------------------|--------------------|


   H        H           Q    H.               Q    Q    E   E  Q     
---------------------|--------------------|-------------------------|
---------------------|--------------------|-------------------------|
---------------------|--------------------|--------9----7-----------|
--10--------9--------|--7-----------------|--10------------10--9----|
---------------------|--------------------|-------------------------|
---------------------|--------------------|-------------------------|


  Q    H.              H         H          
--------------------|----------------------|
--------------------|----------------------|
--------------------|----------------------|
--7-----------------|----------------------|
--------------------|----------------------|
--------------------|-----------17\--------|

                      
  PM PM    PM PM    PM     
  E  E  E  E  E  E  E  E   
--------------------------|
--------------------------|
--------9--------9--------|
-----------------------7--|
--0--0-----0--0-----0-----|
--------------------------|


                              PM PM    PM PM    PM     
   E  E  E  E  E  E  E  E     E  E  E  E  E  E  E  E   
---------------------------|--------------------------|
---------------8--------8--|--------------------------|
------------9--------9-----|--------9--------9--------|
--10--7--9--------9--------|-----------------------7--|
---------------------------|--0--0-----0--0-----0-----|
---------------------------|--------------------------|


                              PM PM    PM PM    PM     
   E  E  E  E  E  E  E  E     E  E  E  E  E  E  E  E   
---------------------------|--------------------------|
---------------8--------8--|--------------------------|
------------9--------9-----|--------9--------9--------|
--10--7--9--------9--------|-----------------------7--|
---------------------------|--0--0-----0--0-----0-----|
---------------------------|--------------------------|


                              PM PM    PM PM    PM     
   E  E  E  E  E  E  E  E     E  E  E  E  E  E  E  E   
---------------------------|--------------------------|
---------------8--------8--|--------------------------|
------------9--------9-----|--------9--------9--------|
--10--7--9--------9--------|-----------------------7--|
---------------------------|--0--0-----0--0-----0-----|
---------------------------|--------------------------|


                              Just play the notes and use your whammy bar.  
                              \1                                            
   E  E  E  E  E  E  E  E     W                                             
---------------------------|-----------------------------------------------|
---------------8-----------|-----------------------------------------------|
------------9--------9-----|-----------------------------------------------|
--10--7--9--------9-----7--|-----------------------------------------------|
---------------------------|--6--------------------------------------------|
---------------------------|-----------------------------------------------|


  /4\                                      \3/               
  W                   W                    W                 
-------------------|-------------------|--------------------|
-------------------|-------------------|--10----------------|
-------------------|--8----------------|--------------------|
--7----------------|-------------------|--------------------|
-------------------|-------------------|--------------------|
-------------------|-------------------|--------------------|


  \1/                 \1/                 -/1               
  W                   W                   W                 
-------------------|-------------------|-------------------|
-------------------|--9----------------|-------------------|
-------------------|-------------------|--8----------------|
-------------------|-------------------|-------------------|
--6----------------|-------------------|-------------------|
-------------------|-------------------|-------------------|


   \1/                                      PM PM                 
   W                   Q    H.              E  E  E  E  H         
--11----------------|--------------------|-----------------------|
--------------------|--------------------|-----------------------|
--------------------|--------------------|--------7--9--L--------|
--------------------|--2-----------------|--------7--9--L--------|
--------------------|--2-----------------|--0--0--5--7--L--------|
--------------------|--0-----------------|-----------------------|


  Q     H.             
---------------------||
---------------------||
--L\-----------------||
--L\-----------------||
--L\-----------------||
---------------------||

Please rate & comment :) \m/


© Copyright


Duration Legend
---------------
W - whole
H - half
Q - quarter
E - 8th
S - 16th
T - 32nd
X - 64th
. - note dotted
|-n-|  - n-tuplets


Tablature Legend
----------------
L - tied note
x - dead note
g - grace note
(n) - ghost note
> - accentuded note
NH - natural harmonic
AH - artificial harmonic
TH - tapped harmonic
SH - semi harmonic
PH - pitch harmonic
h - hammer on
p - pull off
b - bend
br - bendRelease
pb - preBend
pbr - preBendRelease
brb - bendReleaseBend
\n/ - tremolo bar dip
\n - tremolo bar dive
-/n - tremolo bar Release up
/n\ - tremolo bar inverted dip
/n - tremolo bar return
-\n - tremolo bar Release down
S - shift slide
s - legato slide
/ -  slide into from below or out of upwards
\ -  slide into from above or out of downwards
~ - vibrato
W - wide vibrato
tr - trill
TP - tremolo picking
T - tapping
S - slap
P - pop
< - fade in
^ - brush up
v - brush down
comments
print report bad tab
I want to post or [tab]
guest
You may want to rate the tab now too:
select rating
Please do not post tabs as comments. Select "correction" instead!