Oops, an error
Loading. Please wait.

Done With Everything Die For Nothing Tab

ver1
ver1

Solo

Whole song

More versions @911Tabs.com
15,833 views 12 this week
no commentswrite comment
1 2 3 4 5
excellent!
x 4
Autoscroll
+/-
esc
set tempo
stop
Contributor
Difficulty
Tuning
intermediate
D G C F A D
WARNING: You are trying to view
                                    content from Ultimate-Guitar.com
                                    in an unauthorized application,
                                    which is prohibited.

                                    Please use an official Ultimate
                                    Guitar Tabs application for iPhone,
                                    iPad or Android to access legitimate
                                    chords, guitar, bass, and drum tabs
                                    from Ultimate-Guitar.com database.

                                    Type "ultimate guitar tabs" in Apple
                                    App Store's or Android Market's
                                    search to find the application.
                    Done With Everything, Die For Nothing                  


First off, I would like to say THIS IS NOT MY WORK. I got this tab off of somebody 
from YouTube. This is NOT my tab.

                                                               Children Of Bodom


Rhythm 1

     E  E  E  E  E  E  E  E     E  E  E  E  E  E  Q     
D||--------------------------|-------------------------|
A||--------------------------|-------------------------|
F||--------------------------|-------------------------|
C||--------------------------|--------------------5----|
G||--2--4--4--2--4--4-----2--|--4--4-----2--4-----3----|
D||--0--2--2--0--2--2-----0--|--2--2-----0--2--0-------|


                                             PM PM     PM PM  
  E  E  E  E  E  E  E  E     E  E  E  E  S S S  S  S S S  S   
--------------------------|----------------------------------|
--------------------------|----------------------------------|
--------------------------|----------------------------------|
--------------------------|----------------------------------|
--2--4--4--2--4--4-----2--|--4--4-----2--2---------3---------|
--0--2--2--0--2--2-----0--|--2--2-----0----2-0--0----2-0--0--|


  E  E  E  E  E  E  E  E     E  E  E  E  E  E  Q       E  E  E  E  E  E  E  E   
--------------------------|-------------------------|--------------------------|
--------------------------|-------------------------|--------------------------|
--------------------------|-------------------------|--------------------------|
--------------------------|--------------------2----|--------------------------|
--2--4--4--2--4--4-----2--|--4--4-----2--4--2--0----|--2--4--4--2--4--4-----2--|
--0--2--2--0--2--2-----0--|--2--2-----0--2--0-------|--0--2--2--0--2--2-----0--|


  E  E  E  E  S  S S S S S S S    E  E  E  E  E  E  E  E   
-------------------------------|--------------------------|
-------------------------------|--------------------------|
-------------------------------|--------------------------|
---------------------------2-4-|--------------------------|
--4--4-----2--3p-2-0-2-3-4-----|--2--4--4--2--4--4-----2--|
--2--2-----0-------------------|--0--2--2--0--2--2-----0--|


  E  E  E  E  E  E  Q       E  E  E  E  E  E  E  E   
-------------------------|--------------------------|
-------------------------|--------------------------|
-------------------------|--------------------------|
--------------------5----|--------------------------|
--4--4-----2--4--2--3----|--2--4--4--2--4--4-----2--|
--2--2-----0--2--0-------|--0--2--2--0--2--2-----0--|


  E  E  E  E  S  S S S S S S S    E  E  E  E  E  E  E  E   
-------------------------------|--------------------------|
-------------------------------|--------------------------|
-------------------------------|--------------------------|
---------------------------2-4-|--------------------------|
--4--4-----2--3p-2-0-2-3-4-----|--2--4--4--2--4--4-----2--|
--2--2-----0-------------------|--0--2--2--0--2--2-----0--|


  E  E  E  E  E  E  Q       E  E  E  E  E  E  E  E   
-------------------------|--------------------------|
-------------------------|--------------------------|
-------------------------|--------------------------|
--------------------2----|--------------------------|
--4--4-----2--4--2--0----|--2--4--4--2--4--4-----2--|
--2--2-----0--2--0-------|--0--2--2--0--2--2-----0--|


                   PM PM                                                       
  E  E  E  E  S  S S  S  Q        Q    Q     Q    Q        Q    Q    H         
------------------------------|------------------------|----------------------|
------------------------------|------------------------|----------------------|
------------------------------|------------------------|----------------------|
------------------------------|--11----9----14----9----|--11----9----7--------|
--4--4-----2--2p-0-------3----|---9----7----12----7----|---9----7----5--------|
--2--2-----0-------2p-0-------|------------------------|----------------------|


  PM PM        PM PM PM            PM PM PM                  
  E  E  E   E  E  E  E   E      E  E  E  E   E   E   E  E    
-----------------------------|------------------------------|
-----------------------------|--------------12--10----------|
--------7h--9-----------12h--|--9-------------------12--L\--|
-----------------------------|------------------------------|
-----------------------------|------------------------------|
--0--0---------0--0--0-------|-----0--0--0------------------|


  PM        PM PM PM PM            PM PM PM                 
  E  E   E  E  E  E  E   E      E  E  E  E  E   E  E    E   
-----------------------------|-----------------------------|
-----------------------------|-----------------------------|
-----7h--9--------------11h--|--7------------------7h--11--|
-----------------------------|--------------7h--9----------|
-----------------------------|-----------------------------|
--0---------0--0--0--0-------|-----0--0--0-----------------|


  PM PM        PM PM PM            PM PM PM                  
  E  E  E   E  E  E  E   E      E  E  E  E   E   E   E  E    
-----------------------------|------------------------------|
-----------------------------|--------------12--10----------|
--------7h--9-----------12h--|--9-------------------12--L\--|
-----------------------------|------------------------------|
-----------------------------|------------------------------|
--0--0---------0--0--0-------|-----0--0--0------------------|


  PM        PM PM PM PM            PM PM PM                 
  E  E   E  E  E  E  E   E      E  E  E  E  E   E  E    E   
-----------------------------|-----------------------------|
-----------------------------|-----------------------------|
-----7h--9--------------11h--|--7------------------7h--11--|
-----------------------------|--------------7h--9----------|
-----------------------------|-----------------------------|
--0---------0--0--0--0-------|-----0--0--0-----------------|


           PM       PM PM       PM                           
  E  E  E  E  Q     E  E     E  E   E   E   E   E   E   E    
--------------------------|--------12----------15--12---L\--|
--------------------------|------------12--13---------------|
--------9-----9~----------|--9------------------------------|
--------------------------|---------------------------------|
--7--7-----7--------7--7--|-----7---------------------------|
--------------------------|---------------------------------|


    PM  PM      PM         PM  PM         PM      PM             W     
    E   E   E   E   Q      E   E      E   E   E   E   E   S   S  Q     
----------------------------------|-----------------------------------|
----------------------------------|-----------------------------------|
-----------11------12~------------|--11------12------11--14s-16-14----|
--/12--12------12---------12--12--|------12------12-------------------|
----------------------------------|-----------------------------------|
----------------------------------|-----------------------------------|


     PM    PM      PM PM       PM                          
  E  E  E  E  Q    E  E     E  E   E   E   E   E   E  E    
-------------------------|--------12----------15--12--L\--|
-------------------------|------------12--13--------------|
--------9-----9----------|--9-----------------------------|
-------------------------|--------------------------------|
--7--7-----7-------7--7--|-----7--------------------------|
-------------------------|--------------------------------|


   PM  PM      PM         PM  PM         PM      PM             W     
   E   E   E   E   Q      E   E      E   E   E   E   E   S   S  Q     
---------------------------------|-----------------------------------|
---------------------------------|-----------------------------------|
----------11------12~------------|--11------12------11--14s-16-14----|
--12--12------12---------12--12--|------12------12-------------------|
---------------------------------|-----------------------------------|
---------------------------------|-----------------------------------|


  PM PM    PM      PM PM       PM                          
  E  E  E  E  Q    E  E     E  E   E   E   E   E   E  E    
-------------------------|--------12----------15--12--L\--|
-------------------------|------------12--13--------------|
-------------------------|--------------------------------|
--------5-----7----------|--5-----------------------------|
--7--7--7--7--7----7--7--|--7--7--------------------------|
-------------------------|--------------------------------|


   PM  PM      PM        PM  PM         PM      PM                    
   E   E   E   E   Q     E   E      E   E   E   E   E   S   S  Q      
--------------------------------|------------------------------------|
--------------------------------|------------------------------------|
----------11------12------------|--11------12------11--14s-16-14b----|
--12--12--12--12--12----12--12--|--12--12------12--------------------|
--------------------------------|------------------------------------|
--------------------------------|------------------------------------|


  PM PM    PM      PM PM       PM                          
  E  E  E  E  Q    E  E     E  E   E   E   E   E   E  E    
-------------------------|--------12----------15--12--L\--|
-------------------------|------------12--13--------------|
-------------------------|--------------------------------|
--------5-----7----------|--5-----------------------------|
--7--7--7--7--7----7--7--|--7--7--------------------------|
-------------------------|--------------------------------|


        PM      PM        PM  PM         PM      PM                    
    E   E   E   E   Q     E   E      E   E   E   E   E   S   S  Q      
---------------------------------|------------------------------------|
---------------------------------|------------------------------------|
-----------11------12------------|--11------12------11--14s-16-14~----|
--/12--12--12--12--12----12--12--|--12--12--12--12--------------------|
---------------------------------|------------------------------------|
---------------------------------|------------------------------------|


  PM PM        PM PM PM            PM PM PM                  
  E  E  E   E  E  E  E   E      E  E  E  E   E   E   E  E    
-----------------------------|------------------------------|
-----------------------------|--------------12--10----------|
--------7h--9-----------12h--|--9-------------------12--L\--|
-----------------------------|------------------------------|
-----------------------------|------------------------------|
--0--0---------0--0--0-------|-----0--0--0------------------|


  PM        PM PM PM PM            PM PM PM                 
  E  E   E  E  E  E  E   E      E  E  E  E  E   E  E    E   
-----------------------------|-----------------------------|
-----------------------------|-----------------------------|
-----7h--9--------------11h--|--7------------------7h--11--|
-----------------------------|--------------7h--9----------|
-----------------------------|-----------------------------|
--0---------0--0--0--0-------|-----0--0--0-----------------|


  PM PM        PM PM PM            PM PM PM                  
  E  E  E   E  E  E  E   E      E  E  E  E   E   E   E  E    
-----------------------------|------------------------------|
-----------------------------|--------------12--10----------|
--------7h--9-----------12h--|--9-------------------12--L\--|
-----------------------------|------------------------------|
-----------------------------|------------------------------|
--0--0---------0--0--0-------|-----0--0--0------------------|


  PM        PM PM PM PM            PM \1/  \1/                                  
  E  E   E  E  E  E  E   E      E  E  Q    H           E  E  E  E  E  E  E  E   
-----------------------------|----------------------|--------------------------|
-----------------------------|----------------------|--------------------------|
-----7h--9--------------11h--|--7----------9--------|--------------------------|
-----------------------------|----------------------|--------------------------|
-----------------------------|--------7-------------|--2--4--4--2--4--4-----2--|
--0---------0--0--0--0-------|-----0----------------|--0--2--2--0--2--2-----0--|


  E  E  E  E  E  E  Q       E  E  E  E  E  E  E  E     E  E  E  E  E  E  Q     
-------------------------|--------------------------|-------------------------|
-------------------------|--------------------------|-------------------------|
-------------------------|--------------------------|-------------------------|
--------------------5----|--------------------------|-------------------------|
--4--4-----2--4--2--3----|--2--4--4--2--4--4-----2--|--4--4-----2--4--2--7----|
--2--2-----0--2--0-------|--0--2--2--0--2--2-----0--|--2--2-----0--2--0--5----|


  E  E  E  E  E  E  E  E     E  E  E  E  E  E  Q       E  E  E  E  E  E  E  E   
--------------------------|-------------------------|--------------------------|
--------------------------|-------------------------|--------------------------|
--------------------------|-------------------------|--------------------------|
--------------------------|--------------------5----|--------------------------|
--2--4--4--2--4--4-----2--|--4--4-----2--4--2--3----|--2--4--4--2--4--4-----2--|
--0--2--2--0--2--2-----0--|--2--2-----0--2--0-------|--0--2--2--0--2--2-----0--|


  E  E  E  E  E  E  Q        Q    Q     Q    Q        Q    Q     H         
-------------------------|------------------------|-----------------------|
-------------------------|------------------------|-----------------------|
-------------------------|------------------------|-----------------------|
-------------------------|--11----9----14----9----|--11----9----10--------|
--4--4-----2--4--2--7----|---9----7----12----7----|---9----7-----8--------|
--2--2-----0--2--0--5----|------------------------|-----------------------|


  PM PM    PM      PM PM       PM                           
  E  E  E  E  Q    E  E     E  E   E   E   E   E   E   E    
-------------------------|--------12----------15--12---L\--|
-------------------------|------------12--13---------------|
--------9-----9----------|--9------------------------------|
-------------------------|---------------------------------|
--7--7-----7-------7--7--|-----7---------------------------|
-------------------------|---------------------------------|


    PM  PM      PM        PM  PM         PM      PM             W     
    E   E   E   E   Q     E   E      E   E   E   E   E   S   S  Q     
---------------------------------|-----------------------------------|
---------------------------------|-----------------------------------|
-----------11------12------------|--11------12------11--14s-16-14----|
--/12--12------12--------12--12--|------12------12-------------------|
---------------------------------|-----------------------------------|
---------------------------------|-----------------------------------|


  PM PM    PM      PM PM       PM                          
  E  E  E  E  Q    E  E     E  E   E   E   E   E   E  E    
-------------------------|--------12----------15--12--L\--|
-------------------------|------------12--13--------------|
--------9-----9----------|--9-----------------------------|
-------------------------|--------------------------------|
--7--7-----7-------7--7--|-----7--------------------------|
-------------------------|--------------------------------|


   PM  PM      PM         PM  PM         PM      PM             W     
   E   E   E   E   Q      E   E      E   E   E   E   E   S   S  Q     
---------------------------------|-----------------------------------|
---------------------------------|-----------------------------------|
----------11------12~------------|--11------12------11--14s-16-14----|
--12--12------12---------12--12--|------12------12-------------------|
---------------------------------|-----------------------------------|
---------------------------------|-----------------------------------|


  PM PM    PM      PM PM       PM                          
  E  E  E  E  Q    E  E     E  E   E   E   E   E   E  E    
-------------------------|--------14----------17--14--L\--|
-------------------------|------------14--15--------------|
--------6-----7----------|--------------------------------|
--------7-----7----------|--7-----------------------------|
--9--9--9--9--9----9--9--|--9--9--------------------------|
-------------------------|--------------------------------|


        PM      PM        PM  PM         PM      PM                    
    E   E   E   E   Q     E   E      E   E   E   E   E   S   S  Q      
---------------------------------|------------------------------------|
---------------------------------|------------------------------------|
-----------13------14------------|--13------14------13--16s-18-16b----|
--/14--14--14--14--14----14--14--|--14--14------14--------------------|
---------------------------------|------------------------------------|
---------------------------------|------------------------------------|


  PM PM    PM      PM PM       PM                          
  E  E  E  E  Q    E  E     E  E   E   E   E   E   E  E    
-------------------------|--------14----------17--14--L\--|
-------------------------|------------14--15--------------|
--------6-----7----------|--------------------------------|
--------7-----7----------|--7-----------------------------|
--9--9--9--9--9----9--9--|--9--9--------------------------|
-------------------------|--------------------------------|


   PM  PM      PM        PM  PM                                               
   E   E   E   E   Q     E   E     Q    Q    E  E  E  E     W                 
--------------------------------|------------------------|-------------------|
--------------------------------|------------------------|-------------------|
----------13------14------------|------------------------|--7----------------|
--14--14--14--14--14----14--14--|--6----6----------------|--7----------------|
--------------------------------|--4----4----2--2--2--2--|--5----------------|
--------------------------------|------------0--0--0--0--|-------------------|


  W                   W                   W                   W                 
-------------------|-------------------|-------------------|-------------------|
-------------------|-------------------|-------------------|-------------------|
--L----------------|-------------------|-------------------|--4----------------|
--L----------------|--4----------------|--L----------------|--4----------------|
--L----------------|--4----------------|--L----------------|--2----------------|
-------------------|--2----------------|--L----------------|-------------------|


  W                   W                    W                 
-------------------|-------------------|--------------------|
-------------------|-------------------|--------------------|
--6----------------|--7----------------|--10----------------|
--7----------------|--7----------------|--10----------------|
--4----------------|--5----------------|---8----------------|
-------------------|-------------------|--------------------|


  W                   W                   W                   W                 
-------------------|-------------------|-------------------|-------------------|
-------------------|-------------------|-------------------|-------------------|
-------------------|-------------------|--7----------------|--L----------------|
--4----------------|--L----------------|--7----------------|--L----------------|
--4----------------|--L----------------|--5----------------|--L----------------|
--2----------------|--L----------------|-------------------|-------------------|


  W                   W                   W                   W                 
-------------------|-------------------|-------------------|-------------------|
-------------------|-------------------|-------------------|-------------------|
--4----------------|--6----------------|--7----------------|-------------------|
--4----------------|--7----------------|--7----------------|--3----------------|
--2----------------|--4----------------|--5----------------|--3----------------|
-------------------|-------------------|-------------------|--1----------------|


  PM PM        PM PM PM          PM PM PM   NH           
  E  E  E   E  E  E  E  E     E  E  E  E    Q      Q     
---------------------------|----------------------------|
---------------------------|----------------------------|
------------------------2--|--------------<>4br----2----|
--------2h--4--------------|--4-------------------------|
---------------------------|----------------------------|
--2--2---------2--2--2-----|-----2--2--2----------------|


  PM        PM PM PM PM           PM PM PM                
  E  E   E  E  E  E  E  E      E  E  E  E  E   E  E   E   
----------------------------|----------------------------|
----------------------------|----------------------------|
----------------------------|----------------------------|
-----2h--4--------------6h--|--2------------------2h--6--|
----------------------------|--------------2h--4---------|
--2---------2--2--2--2------|-----0--2--2----------------|


  PM PM PM    PM PM PM          PM PM PM   NH           
  E  E  E  E  E  E  E  E     E  E  E  E    Q      Q     
--------------------------|----------------------------|
--------------------------|----------------------------|
-----------------------2--|--------------<>4br----2----|
-----------4--------------|--4-------------------------|
--------------------------|----------------------------|
--2--2--2-----2--2--2-----|-----2--2--2----------------|


  PM        PM PM PM PM           PM PM PM                
  E  E   E  E  E  E  E  E      E  E  E  E  E   E  E   E   
----------------------------|----------------------------|
----------------------------|----------------------------|
----------------------------|----------------------------|
-----2h--4--------------6h--|--2------------------2h--6--|
----------------------------|--------------2h--4---------|
--2---------2--2--2--2------|-----2--2--2----------------|


  PM PM        PM PM PM            PM PM PM                  
  E  E  E   E  E  E  E   E      E  E  E  E   E   E   E  E    
-----------------------------|------------------------------|
-----------------------------|--------------12--10----------|
--------7h--9-----------12h--|--9-------------------12--L\--|
-----------------------------|------------------------------|
-----------------------------|------------------------------|
--0--0---------0--0--0-------|-----0--0--0------------------|


  PM        PM PM PM PM            PM PM PM                 
  E  E   E  E  E  E  E   E      E  E  E  E  E   E  E    E   
-----------------------------|-----------------------------|
-----------------------------|-----------------------------|
-----7h--9--------------11h--|--7------------------7h--11--|
-----------------------------|--------------7h--9----------|
-----------------------------|-----------------------------|
--0---------0--0--0--0-------|-----0--0--0-----------------|


  PM PM        PM PM PM            PM PM PM                  
  E  E  E   E  E  E  E   E      E  E  E  E   E   E   E  E    
-----------------------------|------------------------------|
-----------------------------|--------------12--10----------|
--------7h--9-----------12h--|--9-------------------12--L\--|
-----------------------------|------------------------------|
-----------------------------|------------------------------|
--0--0---------0--0--0-------|-----0--0--0------------------|


  PM        PM PM PM PM            PM PM PM                 
  E  E   E  E  E  E  E   E      E  E  E  E  E   E  E    E   
-----------------------------|-----------------------------|
-----------------------------|-----------------------------|
-----7h--9--------------11h--|--7------------------7h--11--|
-----------------------------|--------------7h--9----------|
-----------------------------|-----------------------------|
--0---------0--0--0--0-------|-----0--0--0-----------------|


  PM PM PM PM PM PM PM PM                                   
  S  S  S  S  S  S  S  S  H            H        E  E  Q     
------------------------------------|----------------------|
--------------------------8\--------|----------------------|
--------------------------9\--------|--------------9-------|
--------------------------9\--------|-----------9-----8----|
--------------------------7\--------|----------------------|
--0--0--0--0--0--0--0--0------------|----------------------|


  PM PM PM PM PM PM PM PM                                   
  S  S  S  S  S  S  S  S  H            H        Q     Q     
------------------------------------|----------------------|
--------------------------8\--------|----------------------|
--------------------------9\--------|----------------------|
--------------------------9\--------|----------------------|
--------------------------7\--------|-----------7----10----|
--0--0--0--0--0--0--0--0------------|-----------5-----8----|


  PM PM PM PM PM PM PM PM                                   
  S  S  S  S  S  S  S  S  H            H        E  E  Q     
------------------------------------|----------------------|
--------------------------8\--------|----------------------|
--------------------------9\--------|--------------9-------|
--------------------------9\--------|-----------9-----8----|
--------------------------7\--------|----------------------|
--0--0--0--0--0--0--0--0------------|----------------------|


  PM PM PM PM PM PM PM PM                                   
  S  S  S  S  S  S  S  S  H            H        Q     Q     
------------------------------------|----------------------|
--------------------------8\--------|----------------------|
--------------------------9\--------|----------------------|
--------------------------9\--------|----------------------|
--------------------------7\--------|-----------7----10----|
--0--0--0--0--0--0--0--0------------|-----------5-----8----|


  PM PM PM PM PM PM PM PM                                   
  S  S  S  S  S  S  S  S   H            H        Q    Q     
-------------------------------------|---------------------|
-------------------------------------|---------------------|
--------------------------(6)--------|--L------------------|
---------------------------6---------|--L--------4----4----|
--4--4--4--4--4--4--4--4---4---------|--L--------2----2----|
-------------------------------------|---------------------|


  PM PM PM PM PM PM PM PM                                   
  S  S  S  S  S  S  S  S   H            H        Q    Q     
-------------------------------------|---------------------|
-------------------------------------|---------------------|
--------------------------(6)--------|---------------------|
---------------------------6---------|--L-------------9----|
--4--4--4--4--4--4--4--4---4---------|--L--------7----7----|
-------------------------------------|-----------5---------|


  PM PM PM PM PM PM PM PM                                 
  S  S  S  S  S  S  S  S  H           H        Q    Q     
-----------------------------------|---------------------|
--------------------------5--------|--L------------------|
--------------------------6--------|--L------------------|
--------------------------6--------|--L--------4----4----|
--4--4--4--4--4--4--4--4--4--------|--L--------2----2----|
-----------------------------------|---------------------|


  PM PM PM PM PM PM PM PM                                 
  S  S  S  S  S  S  S  S  H           H        Q    Q     
-----------------------------------|---------------------|
--------------------------5--------|--L------------------|
--------------------------6--------|--L------------------|
--------------------------6--------|--L--------2----5----|
--4--4--4--4--4--4--4--4--4--------|--L--------0----3----|
-----------------------------------|---------------------|


  Q    Q    Q    H.            
------------------------------|
------------------------------|
------------------------------|
--6---------------------------|
--4----2----3-----------------|
-------0----1-----------------|


  PM PM PM PM PM PM PM PM PM PM PM PM PM PM PM PM  
  S  S  S  S  S  S  S  S  S  S  S  S  S  S  S  S   
--------------------------------------------------|
--------------------------------------------------|
--------------------------------------------------|
--------------------------------------------------|
--------------------------------------------------|
--0--2--2--2--2--2--2--2--2--2--2--2--2--2--2--2--|


  PM PM PM PM PM PM PM PM PM PM PM PM PM PM PM PM  
  S  S  S  S  S  S  S  S  S  S  S  S  S  S  S  S   
--------------------------------------------------|
--------------------------------------------------|
--------------------------------------------------|
--------------------------2--2--2--2--2--2--2--2--|
--------------------------------------------------|
--2--2--2--2--2--2--2--2--------------------------|


  PM PM PM PM PM PM PM PM PM PM PM PM PM PM PM PM  
  S  S  S  S  S  S  S  S  S  S  S  S  S  S  S  S   
--------------------------------------------------|
--------------------------------------------------|
--------------------------------------------------|
--4--4--4--4--4--4--4--4--4--4--4--4--4--4--4--4--|
--------------------------------------------------|
--------------------------------------------------|


  PM PM PM PM PM PM PM PM PM PM PM PM PM PM PM PM                       
  S  S  S  S  S  S  S  S  S  S  S  S  S  S  S  S     H        H         
--------------------------------------------------|--------------------|
--------------------------------------------------|--------------------|
--------------------------------------------------|--------------------|
--4--4--4--4--4--4--4--4--4--4--4--4--4--4--4--4--|--2--------4--------|
--------------------------------------------------|--0--------2--------|
--------------------------------------------------|--------------------|


                            PM PM PM PM PM PM      PM PM PM PM PM PM  
  H        H           S  S S  S  S  S  S  S  S  S S  S  S  S  S  S   
--------------------|------------------------------------------------|
--------------------|------------------------------------------------|
--------------------|------------------------------------------------|
--6-----------------|------------------------------------------------|
--4--------5--------|------------------------------------------------|
-----------3--------|--0h-2-2--2--2--2--2--2--0h-2-2--2--2--2--2--2--|


       PM PM PM PM PM PM      PM PM PM PM PM PM                       
  S  S S  S  S  S  S  S  S  S S  S  S  S  S  S     H        H         
------------------------------------------------|--------------------|
------------------------------------------------|--------------------|
------------------------------------------------|--------------------|
------------------------------------------------|--2--------4--------|
------------------------------------------------|--0--------2--------|
--0h-2-2--2--2--2--2--2--0h-2-2--2--2--2--2--2--|--------------------|


                           PM PM     PM PM       PM PM PM  
  H        H           S S S  S  S S S  S  E  E  E  S  S   
--------------------|-------------------------------------|
--------------------|-------------------------------------|
--------------------|----------------------5--5-----------|
--6-----------------|----------------------7--7-----------|
--4--------5--------|--0-0-0--0--0-L-0--0--------0--0--0--|
-----------3--------|-------------------------------------|


     PM PM                                                  PM PM  
  E  S  S   E  E   E   E   E  E     S S S S E  S S E  E  E  S  S   
---------------------------------|--------------------------------|
-----------10--------------------|--------------------------------|
---------------9--12--11--10--9--|-----------------9--9-----------|
---------------------------------|-----------------7--7-----------|
--0--0--0------------------------|--0-0-0-0-0--0-0-0--0--0--0--0--|
---------------------------------|--------------------------------|


                                                              PM    
   E  E    E   E   E   E   E   E     S S S S E  S S E  E  S S S  S  
----------------------------------|--------------------------------|
--10-----/12--12b--L--12--11------|--------------------------------|
------9-----------------------10--|-----------------5--5-----------|
----------------------------------|-----------------7--7-----------|
----------------------------------|--0-0-0-0-0--0-0-0--0--0-0-0--0-|
----------------------------------|--------------------------------|


  PM PM PM                                                   PM    
  E  S  S   E  E   E   E   E  E     S S S S E  S S E  E  S S S  S  
---------------------------------|--------------------------------|
-----------10--------------------|--------------------------------|
---------------9--12--11--10--9--|-----------------5--5-----------|
---------------------------------|-----------------7--7-----------|
--0--0--0------------------------|--0-0-0-0-0--0-0-0--0--0-L-0--0-|
---------------------------------|--------------------------------|


                                         PM PM PM PM PM PM  
   E  E  E  S   S  E   E   E  E     Q    E  E  E  E  E  E   
---------------------------------|-------------------------|
---------------------------------|-------------------------|
------------9s-12s-9-------------|-------------------------|
--10--9--7------------12--10--9--|--9----------------------|
---------------------------------|--7----7--7--7--7--7--7--|
---------------------------------|-------------------------|


  PM PM PM PM                                                      
  E  E  E  E   Q     Q       W                   W                 
--------------------------|-------------------|-------------------|
--------------------------|-------------------|-------------------|
--------------------------|--7----------------|--L----------------|
--------------24\----L----|--7----------------|--L----------------|
--7--7--7--7--24\----L----|--5----------------|--L----------------|
--------------------------|-------------------|-------------------|


  W                   W                   W                   W                 
-------------------|-------------------|-------------------|-------------------|
-------------------|-------------------|-------------------|-------------------|
-------------------|-------------------|-------------------|-------------------|
--4----------------|--L----------------|--4----------------|--7----------------|
--4----------------|--L----------------|--2----------------|--4----------------|
--2----------------|--L----------------|-------------------|-------------------|


  W                    W                     W                  
-------------------|--------------------|----------------------|
-------------------|--------------------|----------------------|
-------------------|--------------------|--(11)----------------|
--7----------------|--10----------------|---11-----------------|
--5----------------|---8----------------|----9-----------------|
-------------------|--------------------|----------------------|


  W                   W                   W                   W                 
-------------------|-------------------|-------------------|-------------------|
-------------------|-------------------|-------------------|-------------------|
--L----------------|--7----------------|--L----------------|--4----------------|
--L----------------|--7----------------|--L----------------|--4----------------|
--L----------------|--5----------------|--L----------------|--2----------------|
-------------------|-------------------|-------------------|-------------------|


  W                   W                    W                 
-------------------|-------------------|--------------------|
-------------------|-------------------|--------------------|
--6----------------|--7----------------|--------------------|
--7----------------|--7----------------|--10----------------|
--4----------------|--5----------------|---8----------------|
-------------------|-------------------|---8----------------|


  E  E  E  E  E  E  E  E     E  E  E  E  H          
--------------------------|-----------------------||
--------------------------|-----------------------||
--------------------------|-----------------------||
--------------------------|-----------------------||
--2--4--4--2--4--4--x--2--|--4--4--L--------------||
--0--2--2--0--2--2--x--0--|--2--2--L--------------||


Rhythm 2 _____________________________________________________
______________________________________________________________
______________________________________________________________
______________________________________________________________
______________________________________________________________

     W                   H.           Q       W                 
D||-------------------|--------------------|-------------------|
A||-------------------|--------------------|-------------------|
F||-------------------|---------------5----|-------------------|
C||-------------------|---------------5----|-------------------|
G||-------------------|---------------3----|-------------------|
D||-------------------|--------------------|-------------------|


  H        S S S S S S S S    E  E  E  E  E  E  E  E   
---------------------------|--------------------------|
---------------------------|--------------------------|
---------------------------|--------------------------|
---------------------------|--------------------------|
---------------------------|--2--4--4--2--4--4-----2--|
-----------7-2-0-0-7-2-0-0-|--0--2--2--0--2--2-----0--|


  E  E  E  E  E  E  Q       E  E  E  E  E  E  E  E   
-------------------------|--------------------------|
-------------------------|--------------------------|
-------------------------|--------------------------|
--------------------2----|--------------------------|
--4--4-----2--4--2--0----|--2--4--4--2--4--4-----2--|
--2--2-----0--2--0-------|--0--2--2--0--2--2-----0--|


  E  E  E  E  S  S S S S S S S    E  E  E  E  E  E  E  E   
-------------------------------|--------------------------|
-------------------------------|--------------------------|
-------------------------------|--------------------------|
---------------------------2-4-|--------------------------|
--4--4-----2--3p-2-0-2-3-4-----|--2--4--4--2--4--4-----2--|
--2--2-----0-------------------|--0--2--2--0--2--2-----0--|


  E  E  E  E  E  E  Q       E  E  E  E  E  E  E  E   
-------------------------|--------------------------|
-------------------------|--------------------------|
-------------------------|--------------------------|
--------------------5----|--------------------------|
--4--4-----2--4--2--3----|--2--4--4--2--4--4-----2--|
--2--2-----0--2--0-------|--0--2--2--0--2--2-----0--|


  E  E  E  E  S  S S S S S S S    E  E  E  E  E  E  E  E   
-------------------------------|--------------------------|
-------------------------------|--------------------------|
-------------------------------|--------------------------|
---------------------------2-4-|--------------------------|
--4--4-----2--3p-2-0-2-3-4-----|--2--4--4--2--4--4-----2--|
--2--2-----0-------------------|--0--2--2--0--2--2-----0--|


  E  E  E  E  E  E  Q       E  E  E  E  E  E  E  E   
-------------------------|--------------------------|
-------------------------|--------------------------|
-------------------------|--------------------------|
--------------------2----|--------------------------|
--4--4-----2--4--2--0----|--2--4--4--2--4--4-----2--|
--2--2-----0--2--0-------|--0--2--2--0--2--2-----0--|


                   PM PM                                                       
  E  E  E  E  S  S S  S  Q        Q    Q     Q    Q        Q    Q    H         
------------------------------|------------------------|----------------------|
------------------------------|------------------------|----------------------|
------------------------------|------------------------|----------------------|
------------------------------|--11----9----14----9----|--11----9----7--------|
--4--4-----2--2p-0-------3----|---9----7----12----7----|---9----7----5--------|
--2--2-----0-------2--0-------|------------------------|----------------------|


  PM PM        PM PM PM            PM PM PM              
  E  E  E   E  E  E  E   E      E  E  E  E  E  E   Q     
-----------------------------|--------------------------|
-----------------------------|--------------------------|
-----------------------------|--------------------------|
-----------------------------|--------------9--7--------|
--------5h--7-----------10h--|--7-----------------10----|
--0--0---------0--0--0-------|-----0--0--0--------------|


  PM        PM PM PM PM           PM PM PM                
  E  E   E  E  E  E  E  E      E  E  E  E  E   E  E   E   
----------------------------|----------------------------|
----------------------------|----------------------------|
----------------------------|----------------------------|
----------------------------|----------------------------|
-----5h--7--------------9h--|--5------------------5h--9--|
--0---------0--0--0--0------|-----0--0--0--5h--7---------|


  PM PM        PM PM PM            PM PM PM              
  E  E  E   E  E  E  E   E      E  E  E  E  E  E   Q     
-----------------------------|--------------------------|
-----------------------------|--------------------------|
-----------------------------|--------------------------|
-----------------------------|--------------9--7--------|
--------5h--7-----------10h--|--7-----------------10----|
--0--0---------0--0--0-------|-----0--0--0--------------|


  PM        PM PM PM PM           PM PM PM                
  E  E   E  E  E  E  E  E      E  E  E  E  E   E  E   E   
----------------------------|----------------------------|
----------------------------|----------------------------|
----------------------------|----------------------------|
----------------------------|----------------------------|
-----5h--7--------------9h--|--5------------------5h--9--|
--0---------0--0--0--0------|-----0--0--0--5h--7---------|


  PM PM    PM       PM PM       PM                      
  E  E  E  E   Q    E  E     E  E  E  E   E   E  Q      
--------------------------|----------------------------|
--------------------------|----------------------------|
--------------------------|--------9---------12--9~----|
--------9-----10----------|--9--------9--10------------|
--7--7-----7--------7--7--|-----7----------------------|
--------------------------|----------------------------|


   PM  PM      PM       PM PM        PM                W     
   E   E   E   E   Q    E  E      E  E  E  E   E   E   Q     
------------------------------|-----------------------------|
------------------------------|-----------------------------|
------------------------------|---------9---------12--11----|
----------12------14----------|--12--------9--12------------|
--10--10------10--------9--9--|------9----------------------|
------------------------------|-----------------------------|


  PM PM    PM       PM PM       PM                      
  E  E  E  E   Q    E  E     E  E  E  E   E   E  Q      
--------------------------|----------------------------|
--------------------------|----------------------------|
--------------------------|--------9---------12--9~----|
--------9-----10----------|--9--------9--10------------|
--7--7-----7--------7--7--|-----7----------------------|
--------------------------|----------------------------|


   PM  PM      PM       PM PM        PM                         
   E   E   E   E   Q    E  E      E  E  E  E   E   E     Q      
------------------------------|--------------------------------|
------------------------------|--------------------------------|
------------------------------|---------9---------12--<>11b----|
----------12------14----------|--12--------9--12---------------|
--10--10------10--------9--9--|------9-------------------------|
------------------------------|--------------------------------|


  PM PM    PM       PM PM        PM                     
  E  E  E  E   Q    E  E      E  E  E  E   E   E  Q     
--------------------------|----------------------------|
--------------------------|----------------------------|
--------------------------|---------9---------12--9----|
--------9-----10----------|--10--------9--10-----------|
--7--7-----7--------7--7--|------7---------------------|
--------------------------|----------------------------|


   PM  PM      PM       PM PM        PM   SH                    
   E   E   E   E   Q    E  E      E  E    E  E   E   E   Q      
------------------------------|--------------------------------|
------------------------------|--------------------------------|
------------------------------|---------<>9---------12--11b----|
----------12------14----------|--12----------9--12-------------|
--10--10------10--------9--9--|------9-------------------------|
------------------------------|--------------------------------|


  PM PM    PM       PM PM        PM                     
  E  E  E  E   Q    E  E      E  E  E  E   E   E  Q     
--------------------------|----------------------------|
--------------------------|----------------------------|
--------------------------|---------9---------12--9----|
--------9-----10----------|--10--------9--10-----------|
--7--7-----7--------7--7--|------7---------------------|
--------------------------|----------------------------|


   PM  PM      PM       PM PM        PM                W     
   E   E   E   E   Q    E  E      E  E  E  E   E   E   Q     
------------------------------|-----------------------------|
------------------------------|-----------------------------|
------------------------------|---------9---------12--11----|
----------12------14----------|--12--------9--12------------|
--10--10------10--------9--9--|------9----------------------|
------------------------------|-----------------------------|


  PM PM        PM PM PM            PM PM PM               
  E  E  E   E  E  E  E   E      E  E  E  E  E  E   Q      
-----------------------------|---------------------------|
-----------------------------|---------------------------|
-----------------------------|---------------------------|
-----------------------------|--------------9--7---------|
--------5h--7-----------10h--|--7-----------------10~----|
--0--0---------0--0--0-------|-----0--0--0---------------|


  PM        PM PM PM PM           PM PM PM                
  E  E   E  E  E  E  E  E      E  E  E  E  E   E  E   E   
----------------------------|----------------------------|
----------------------------|----------------------------|
----------------------------|----------------------------|
----------------------------|----------------------------|
-----5h--7--------------9h--|--5------------------5h--9--|
--0---------0--0--0--0------|-----0--0--0--5h--7---------|


  PM PM PM        PM PM PM PM            PM PM PM              
  S  S  E  E   E  S  S  E  E   E      E  E  E  E  E  E   Q     
-----------------------------------|--------------------------|
-----------------------------------|--------------------------|
-----------------------------------|--------------------------|
-----------------------------------|--------------9--7--------|
-----------5h--7--------------10h--|--7-----------------10----|
--0--0--0---------0--0--0--0-------|-----0--0--0--------------|


  PM        PM PM PM PM           PM PM PM PM PM            
  E  E   E  E  E  E  E  E      E  E  E  E  E  S  S S E   S  
----------------------------|------------------------------|
----------------------------|------------------------------|
----------------------------|------------------------------|
----------------------------|------------------------9\--L-|
-----5h--7--------------9h--|--5-------------------5-7\--L-|
--0---------0--0--0--0------|-----0--0--0--0--5--7---------|


  E  E  E  E  E  E  E  E     E  E  E  E  E  E  Q       E  E  E  E  E  E  E  E   
--------------------------|-------------------------|--------------------------|
--------------------------|-------------------------|--------------------------|
--------------------------|-------------------------|--------------------------|
--------------------------|--------------------5----|--------------------------|
--2--4--4--2--4--4-----2--|--4--4-----2--4--2--3----|--2--4--4--2--4--4-----2--|
--0--2--2--0--2--2-----0--|--2--2-----0--2--0-------|--0--2--2--0--2--2-----0--|


  E  E  E  E  E  E  Q       E  E  E  E  E  E  E  E     E  E  E  E  E  E  Q     
-------------------------|--------------------------|-------------------------|
-------------------------|--------------------------|-------------------------|
-------------------------|--------------------------|-------------------------|
--------------------2----|--------------------------|--------------------5----|
--4--4-----2--4--2--0----|--2--4--4--2--4--4-----2--|--4--4-----2--4--2--3----|
--2--2-----0--2--0-------|--0--2--2--0--2--2-----0--|--2--2-----0--2--0-------|


  E  E  E  E  E  E  E  E     E  E  E  E  E  E  Q        Q    Q     Q    Q     
--------------------------|-------------------------|------------------------|
--------------------------|-------------------------|------------------------|
--------------------------|-------------------------|------------------------|
--------------------------|--------------------2----|--11----9----14----9----|
--2--4--4--2--4--4-----2--|--4--4-----2--4--2--0----|---9----7----12----7----|
--0--2--2--0--2--2-----0--|--2--2-----0--2--0-------|------------------------|


                          PM PM    PM       PM PM       PM                     
   Q    Q     H           E  E  E  E   Q    E  E     E  E  E  E   E   E  Q     
-----------------------|--------------------------|---------------------------|
-----------------------|--------------------------|---------------------------|
-----------------------|--------------------------|--------9---------12--9----|
--11----9----10--------|--------9-----10----------|-----------9--10-----------|
---9----7-----8--------|--7--7-----7--------7--7--|--7--7---------------------|
-----------------------|--------------------------|--0------------------------|


   PM  PM      PM       PM PM        PM                W     
   E   E   E   E   Q    E  E      E  E  E  E   E   E   Q     
------------------------------|-----------------------------|
------------------------------|-----------------------------|
------------------------------|---------9---------12--11----|
----------12------14----------|--12--------9--12------------|
--10--10------10--------9--9--|------9----------------------|
------------------------------|-----------------------------|


  PM PM    PM        PM PM       PM                     
  E  E  E  E   Q     E  E     E  E  E  E   E   E  Q     
---------------------------|---------------------------|
---------------------------|---------------------------|
---------------------------|--------9---------12--9----|
--------9-----10~----------|-----------9--10-----------|
--7--7-----7---------7--7--|--7--7---------------------|
---------------------------|--0------------------------|


   PM  PM      PM       PM PM        PM                         
   E   E   E   E   Q    E  E      E  E  E  E   E   E     Q      
------------------------------|--------------------------------|
------------------------------|--------------------------------|
------------------------------|---------9---------12--<>11b----|
----------12------14----------|--12--------9--12---------------|
--10--10------10--------9--9--|------9-------------------------|
------------------------------|--------------------------------|


  PM PM     PM       PM PM        PM                         
  E  E   E  E   Q    E  E      E  E   E   E   E   E   Q      
---------------------------|--------------------------------|
---------------------------|--------------------------------|
---------------------------|---------11----------14--11~----|
--------11-----12----------|--12---------11--12-------------|
--9--9------9--------9--9--|------9-------------------------|
---------------------------|--------------------------------|


   PM  PM      PM        PM  PM         PM                         
   E   E   E   E   Q     E   E      E   E   E   E   E   E   Q      
--------------------------------|---------------------------------|
--------------------------------|---------------------------------|
--------------------------------|----------11----------14--13b----|
----------14------16------------|--14----------11--14-------------|
--12--12------12--------11--11--|------11-------------------------|
--------------------------------|---------------------------------|


  PM PM     PM       PM PM        PM                        
  E  E   E  E   Q    E  E      E  E   E   E   E   E   Q     
---------------------------|-------------------------------|
---------------------------|-------------------------------|
---------------------------|---------11----------14--11----|
--------11-----12----------|--12---------11--12------------|
--9--9------9--------9--9--|------9------------------------|
---------------------------|-------------------------------|


   PM  PM      PM                               PM        
   E   E   E   E   Q     E   E     Q    Q    E  E  E  E   
--------------------------------|------------------------|
--------------------------------|------------------------|
--------------------------------|------------------------|
----------14------16------------|--6----6----------------|
--12--12------12--------11\--4--|--4----4----2--2--2--2--|
-----------------------------2--|------------0--0--0--0--|


   H         H            H         H            H         H         
----------------------|----------------------|----------------------|
----------------------|----------------------|----------------------|
--10--------11--------|--13--------14--------|--10--------11--------|
----------------------|----------------------|----------------------|
---8---------9--------|--11--------12--------|---8---------9--------|
----------------------|----------------------|----------------------|


   H         H           H         H            H         H         
----------------------|---------------------|----------------------|
----------------------|---------------------|----------------------|
--13--------14--------|--9--------11--------|--14--------18--------|
----------------------|---------------------|----------------------|
--11--------12--------|--7---------9--------|--12--------16--------|
----------------------|---------------------|----------------------|


  H         H            H         H            H         H         
---------------------|----------------------|----------------------|
---------------------|----------------------|----------------------|
--9--------11--------|--14--------17--------|--10--------11--------|
---------------------|----------------------|----------------------|
--7---------9--------|--12--------15--------|---8---------9--------|
---------------------|----------------------|----------------------|


   H         H            H         H            H         H         
----------------------|----------------------|----------------------|
----------------------|----------------------|----------------------|
--13--------14--------|--10--------11--------|--13--------14--------|
----------------------|----------------------|----------------------|
--11--------12--------|---8---------9--------|--11--------12--------|
----------------------|----------------------|----------------------|


  H         H            H         H           H         H         
---------------------|----------------------|---------------------|
---------------------|----------------------|---------------------|
--9--------11--------|--14--------18--------|--9--------11--------|
---------------------|----------------------|---------------------|
--7---------9--------|--12--------16--------|--7---------9--------|
---------------------|----------------------|---------------------|


   H         H             E   E   E   E   E   E   E   E   
-----------------------|----------------------------------|
-----------------------|----------------------------------|
--16--------14~--------|--18------------------------------|
-----------------------|----------------------------------|
--14--------12~--------|--16------------------------------|
-----------------------|--14--14--14--14--14--14--14--14--|


                                                            \1/                
   E   E   E   E   E   E   E   E      W                     W                  
----------------------------------|--------------------|----------------------|
----------------------------------|--------------------|----------------------|
---------------------------L---L--|--14----------------|---18-----------------|
----------------------------------|--------------------|---16-----------------|
---------------------------L---L--|--12----------------|--(16)----------------|
--14--14--14--14--14--14--14--14--|--------------------|----------------------|


   H         H            E   E   E   E   E   E   E   E   
--21------------------|--21--21---L--21--21----------21--|
--19------------------|---L-----------L------19-------L--|
--18--------18--------|--18---L--18-----------L--18---L--|
----------------------|----------------------------------|
----------------------|----------------------------------|
----------------------|----------------------------------|


                                    Phaser             
   S  S  S  S  S  S  S  S  S  S  S  S      S  S  S  S  
--24-24--L--L-------24--L-----L-----L-----24-24-24-24-|
--22-22-22-22--L--L-22--L-22-22-22-22-----22-22-22-22-|
--21-21-21-21-21-21-21-21-21-21-21-21-----21-21-21-21-|
------------------------------------------------------|
------------------------------------------------------|
------------------------------------------------------|


                                        \1/    PM PM        PM PM PM       
   S  S  S  S  S  S  S  S  S  S    Q    E      E  E  E   E  E  E  E   E    
--22--------L-------22-----L----<>22----L---|-----------------------------|
--20-20-20-20-----L-20-20-20----------------|-----------------------------|
--19-19-19-19-19-19-19-----L--L-------------|-----------------------------|
--------------------------------------------|-----------------------------|
--------------------------------------------|--------5h--7-----------10h--|
--------------------------------------------|--0--0---------0--0--0-------|


     PM PM PM                PM        PM PM PM PM      
  E  E  E  E  E  E   Q       E  E   E  E  E  E  E  E    
--------------------------|----------------------------|
--------------------------|----------------------------|
--------------------------|----------------------------|
--------------9--7--------|----------------------------|
--7-----------------10----|-----5h--7--------------9h--|
-----0--0--0--------------|--0---------0--0--0--0------|


     PM PM PM                  PM PM        PM PM PM       
  E  E  E  E  E   E  E   E     E  E  E   E  E  E  E   E    
----------------------------|-----------------------------|
----------------------------|-----------------------------|
----------------------------|-----------------------------|
----------------------------|-----------------------------|
--5------------------5h--9--|--------5h--7-----------10h--|
-----0--0--0--5h--7---------|--0--0---------0--0--0-------|


     PM PM PM                 PM        PM PM PM PM      
  E  E  E  E  E  E   Q        E  E   E  E  E  E  E  E    
---------------------------|----------------------------|
---------------------------|----------------------------|
---------------------------|----------------------------|
--------------9--7---------|----------------------------|
--7-----------------10~----|-----5h--7--------------9h--|
-----0--0--0---------------|--0---------0--0--0--0------|


     PM PM PM                  PM PM PM PM PM PM PM PM            
  E  E  E  E  E   E  E   E     S  S  S  S  S  S  S  S  H          
----------------------------|------------------------------------|
----------------------------|--------------------------8\--------|
----------------------------|--------------------------9\--------|
----------------------------|--------------------------9\--------|
--5------------------5h--9--|--------------------------7\--------|
-----0--0--0--5h--7---------|--0--0--0--0--0--0--0--0------------|


                         PM PM PM PM PM PM PM PM            
  H        E  E  Q       S  S  S  S  S  S  S  S  H          
----------------------|------------------------------------|
----------------------|------------------------------------|
----------------------|------------------------------------|
--------------2-------|--------------------------9\--------|
-----------2-----1----|--------------------------7\--------|
----------------------|--0--L--0--0--0--0--0--0------------|


                         PM PM PM PM PM PM PM PM            
  H        Q     Q       S  S  S  S  S  S  S  S  H          
----------------------|------------------------------------|
----------------------|------------------------------------|
----------------------|------------------------------------|
----------------------|--------------------------9\--------|
-----------7----10----|--------------------------7\--------|
-----------5-----8----|--0--0--0--0--0--0--0--0------------|


                          PM PM PM PM PM PM PM PM            
  H         E  E  Q       S  S  S  S  S  S  S  S  H          
-----------------------|------------------------------------|
-----------------------|------------------------------------|
-----------------------|------------------------------------|
---------------2--4----|--------------------------9\--------|
-----------/2----------|--------------------------7\--------|
-----------------------|--0--0--0--0--0--0--0--0------------|


                    W       PM PM PM PM PM PM PM PM             
  H         E  E    Q       S  S  S  S  S  S  S  S   H          
-------------------------|-------------------------------------|
-------------------------|---------------------------5---------|
-------------------------|--------------------------(6)--------|
---------------2--<>4----|---------------------------6---------|
-----------/2------------|--4--4--4--4--4--4--4--4---4---------|
-------------------------|-------------------------------------|


                        PM PM PM PM PM PM PM PM             
  H        Q    Q       S  S  S  S  S  S  S  S   H          
---------------------|-------------------------------------|
--L------------------|-------------------------------------|
---------------------|--------------------------(6)--------|
--L--------4----4----|---------------------------6---------|
--L--------2----2----|--4--4--4--4--4--4--4--4---4---------|
---------------------|-------------------------------------|


                        PM PM PM PM PM PM PM PM                                 
  H        Q    Q       S  S  S  S  S  S  S  S  H           H        Q    Q     
---------------------|-----------------------------------|---------------------|
---------------------|--------------------------5--------|--L------------------|
---------------------|--------------------------6--------|--L------------------|
--L-------------9----|--------------------------6--------|--L--------4----4----|
--L--------7----7----|--4--4--4--4--4--4--4--4--4--------|--L--------2----2----|
-----------5---------|--
I want to post or [tab]
guest
You may want to rate the tab now too:
select rating
Please do not post tabs as comments. Select "correction" instead!