Oops, an error
Loading. Please wait.

Done With Everything Die For Nothing Tab

ver1
ver1

Solo

Whole song

Interactive

More versions @911Tabs.com
16,092 views 3 this week
no commentswrite comment
1 2 3 4 5
excellent!
x 4
Autoscroll
+/-
esc
set tempo
stop
Contributor
Difficulty
Tuning
intermediate
D G C F A D
Hey! There's an official Ultimate Guitar app which is ideal
for learning songs when you're away from computer. Get the app
WARNING: You are trying to view
                                    content from Ultimate-Guitar.com
                                    in an unauthorized application,
                                    which is prohibited.

                                    Please use an official Ultimate
                                    Guitar Tabs application for iPhone,
                                    iPad or Android to access legitimate
                                    chords, guitar, bass, and drum tabs
                                    from Ultimate-Guitar.com database.

                                    Type "ultimate guitar tabs" in Apple
                                    App Store's or Android Market's
                                    search to find the application.
                    Done With Everything, Die For Nothing                  


First off, I would like to say THIS IS NOT MY WORK. I got this tab off of somebody 
from YouTube. This is NOT my tab.

                                                               Children Of Bodom


Rhythm 1

     E  E  E  E  E  E  E  E     E  E  E  E  E  E  Q     
D||--------------------------|-------------------------|
A||--------------------------|-------------------------|
F||--------------------------|-------------------------|
C||--------------------------|--------------------5----|
G||--2--4--4--2--4--4-----2--|--4--4-----2--4-----3----|
D||--0--2--2--0--2--2-----0--|--2--2-----0--2--0-------|


                                             PM PM     PM PM  
  E  E  E  E  E  E  E  E     E  E  E  E  S S S  S  S S S  S   
--------------------------|----------------------------------|
--------------------------|----------------------------------|
--------------------------|----------------------------------|
--------------------------|----------------------------------|
--2--4--4--2--4--4-----2--|--4--4-----2--2---------3---------|
--0--2--2--0--2--2-----0--|--2--2-----0----2-0--0----2-0--0--|


  E  E  E  E  E  E  E  E     E  E  E  E  E  E  Q       E  E  E  E  E  E  E  E   
--------------------------|-------------------------|--------------------------|
--------------------------|-------------------------|--------------------------|
--------------------------|-------------------------|--------------------------|
--------------------------|--------------------2----|--------------------------|
--2--4--4--2--4--4-----2--|--4--4-----2--4--2--0----|--2--4--4--2--4--4-----2--|
--0--2--2--0--2--2-----0--|--2--2-----0--2--0-------|--0--2--2--0--2--2-----0--|


  E  E  E  E  S  S S S S S S S    E  E  E  E  E  E  E  E   
-------------------------------|--------------------------|
-------------------------------|--------------------------|
-------------------------------|--------------------------|
---------------------------2-4-|--------------------------|
--4--4-----2--3p-2-0-2-3-4-----|--2--4--4--2--4--4-----2--|
--2--2-----0-------------------|--0--2--2--0--2--2-----0--|


  E  E  E  E  E  E  Q       E  E  E  E  E  E  E  E   
-------------------------|--------------------------|
-------------------------|--------------------------|
-------------------------|--------------------------|
--------------------5----|--------------------------|
--4--4-----2--4--2--3----|--2--4--4--2--4--4-----2--|
--2--2-----0--2--0-------|--0--2--2--0--2--2-----0--|


  E  E  E  E  S  S S S S S S S    E  E  E  E  E  E  E  E   
-------------------------------|--------------------------|
-------------------------------|--------------------------|
-------------------------------|--------------------------|
---------------------------2-4-|--------------------------|
--4--4-----2--3p-2-0-2-3-4-----|--2--4--4--2--4--4-----2--|
--2--2-----0-------------------|--0--2--2--0--2--2-----0--|


  E  E  E  E  E  E  Q       E  E  E  E  E  E  E  E   
-------------------------|--------------------------|
-------------------------|--------------------------|
-------------------------|--------------------------|
--------------------2----|--------------------------|
--4--4-----2--4--2--0----|--2--4--4--2--4--4-----2--|
--2--2-----0--2--0-------|--0--2--2--0--2--2-----0--|


                   PM PM                                                       
  E  E  E  E  S  S S  S  Q        Q    Q     Q    Q        Q    Q    H         
------------------------------|------------------------|----------------------|
------------------------------|------------------------|----------------------|
------------------------------|------------------------|----------------------|
------------------------------|--11----9----14----9----|--11----9----7--------|
--4--4-----2--2p-0-------3----|---9----7----12----7----|---9----7----5--------|
--2--2-----0-------2p-0-------|------------------------|----------------------|


  PM PM        PM PM PM            PM PM PM                  
  E  E  E   E  E  E  E   E      E  E  E  E   E   E   E  E    
-----------------------------|------------------------------|
-----------------------------|--------------12--10----------|
--------7h--9-----------12h--|--9-------------------12--L\--|
-----------------------------|------------------------------|
-----------------------------|------------------------------|
--0--0---------0--0--0-------|-----0--0--0------------------|


  PM        PM PM PM PM            PM PM PM                 
  E  E   E  E  E  E  E   E      E  E  E  E  E   E  E    E   
-----------------------------|-----------------------------|
-----------------------------|-----------------------------|
-----7h--9--------------11h--|--7------------------7h--11--|
-----------------------------|--------------7h--9----------|
-----------------------------|-----------------------------|
--0---------0--0--0--0-------|-----0--0--0-----------------|


  PM PM        PM PM PM            PM PM PM                  
  E  E  E   E  E  E  E   E      E  E  E  E   E   E   E  E    
-----------------------------|------------------------------|
-----------------------------|--------------12--10----------|
--------7h--9-----------12h--|--9-------------------12--L\--|
-----------------------------|------------------------------|
-----------------------------|------------------------------|
--0--0---------0--0--0-------|-----0--0--0------------------|


  PM        PM PM PM PM            PM PM PM                 
  E  E   E  E  E  E  E   E      E  E  E  E  E   E  E    E   
-----------------------------|-----------------------------|
-----------------------------|-----------------------------|
-----7h--9--------------11h--|--7------------------7h--11--|
-----------------------------|--------------7h--9----------|
-----------------------------|-----------------------------|
--0---------0--0--0--0-------|-----0--0--0-----------------|


           PM       PM PM       PM                           
  E  E  E  E  Q     E  E     E  E   E   E   E   E   E   E    
--------------------------|--------12----------15--12---L\--|
--------------------------|------------12--13---------------|
--------9-----9~----------|--9------------------------------|
--------------------------|---------------------------------|
--7--7-----7--------7--7--|-----7---------------------------|
--------------------------|---------------------------------|


    PM  PM      PM         PM  PM         PM      PM             W     
    E   E   E   E   Q      E   E      E   E   E   E   E   S   S  Q     
----------------------------------|-----------------------------------|
----------------------------------|-----------------------------------|
-----------11------12~------------|--11------12------11--14s-16-14----|
--/12--12------12---------12--12--|------12------12-------------------|
----------------------------------|-----------------------------------|
----------------------------------|-----------------------------------|


     PM    PM      PM PM       PM                          
  E  E  E  E  Q    E  E     E  E   E   E   E   E   E  E    
-------------------------|--------12----------15--12--L\--|
-------------------------|------------12--13--------------|
--------9-----9----------|--9-----------------------------|
-------------------------|--------------------------------|
--7--7-----7-------7--7--|-----7--------------------------|
-------------------------|--------------------------------|


   PM  PM      PM         PM  PM         PM      PM             W     
   E   E   E   E   Q      E   E      E   E   E   E   E   S   S  Q     
---------------------------------|-----------------------------------|
---------------------------------|-----------------------------------|
----------11------12~------------|--11------12------11--14s-16-14----|
--12--12------12---------12--12--|------12------12-------------------|
---------------------------------|-----------------------------------|
---------------------------------|-----------------------------------|


  PM PM    PM      PM PM       PM                          
  E  E  E  E  Q    E  E     E  E   E   E   E   E   E  E    
-------------------------|--------12----------15--12--L\--|
-------------------------|------------12--13--------------|
-------------------------|--------------------------------|
--------5-----7----------|--5-----------------------------|
--7--7--7--7--7----7--7--|--7--7--------------------------|
-------------------------|--------------------------------|


   PM  PM      PM        PM  PM         PM      PM                    
   E   E   E   E   Q     E   E      E   E   E   E   E   S   S  Q      
--------------------------------|------------------------------------|
--------------------------------|------------------------------------|
----------11------12------------|--11------12------11--14s-16-14b----|
--12--12--12--12--12----12--12--|--12--12------12--------------------|
--------------------------------|------------------------------------|
--------------------------------|------------------------------------|


  PM PM    PM      PM PM       PM                          
  E  E  E  E  Q    E  E     E  E   E   E   E   E   E  E    
-------------------------|--------12----------15--12--L\--|
-------------------------|------------12--13--------------|
-------------------------|--------------------------------|
--------5-----7----------|--5-----------------------------|
--7--7--7--7--7----7--7--|--7--7--------------------------|
-------------------------|--------------------------------|


        PM      PM        PM  PM         PM      PM                    
    E   E   E   E   Q     E   E      E   E   E   E   E   S   S  Q      
---------------------------------|------------------------------------|
---------------------------------|------------------------------------|
-----------11------12------------|--11------12------11--14s-16-14~----|
--/12--12--12--12--12----12--12--|--12--12--12--12--------------------|
---------------------------------|------------------------------------|
---------------------------------|------------------------------------|


  PM PM        PM PM PM            PM PM PM                  
  E  E  E   E  E  E  E   E      E  E  E  E   E   E   E  E    
-----------------------------|------------------------------|
-----------------------------|--------------12--10----------|
--------7h--9-----------12h--|--9-------------------12--L\--|
-----------------------------|------------------------------|
-----------------------------|------------------------------|
--0--0---------0--0--0-------|-----0--0--0------------------|


  PM        PM PM PM PM            PM PM PM                 
  E  E   E  E  E  E  E   E      E  E  E  E  E   E  E    E   
-----------------------------|-----------------------------|
-----------------------------|-----------------------------|
-----7h--9--------------11h--|--7------------------7h--11--|
-----------------------------|--------------7h--9----------|
-----------------------------|-----------------------------|
--0---------0--0--0--0-------|-----0--0--0-----------------|


  PM PM        PM PM PM            PM PM PM                  
  E  E  E   E  E  E  E   E      E  E  E  E   E   E   E  E    
-----------------------------|------------------------------|
-----------------------------|--------------12--10----------|
--------7h--9-----------12h--|--9-------------------12--L\--|
-----------------------------|------------------------------|
-----------------------------|------------------------------|
--0--0---------0--0--0-------|-----0--0--0------------------|


  PM        PM PM PM PM            PM \1/  \1/                                  
  E  E   E  E  E  E  E   E      E  E  Q    H           E  E  E  E  E  E  E  E   
-----------------------------|----------------------|--------------------------|
-----------------------------|----------------------|--------------------------|
-----7h--9--------------11h--|--7----------9--------|--------------------------|
-----------------------------|----------------------|--------------------------|
-----------------------------|--------7-------------|--2--4--4--2--4--4-----2--|
--0---------0--0--0--0-------|-----0----------------|--0--2--2--0--2--2-----0--|


  E  E  E  E  E  E  Q       E  E  E  E  E  E  E  E     E  E  E  E  E  E  Q     
-------------------------|--------------------------|-------------------------|
-------------------------|--------------------------|-------------------------|
-------------------------|--------------------------|-------------------------|
--------------------5----|--------------------------|-------------------------|
--4--4-----2--4--2--3----|--2--4--4--2--4--4-----2--|--4--4-----2--4--2--7----|
--2--2-----0--2--0-------|--0--2--2--0--2--2-----0--|--2--2-----0--2--0--5----|


  E  E  E  E  E  E  E  E     E  E  E  E  E  E  Q       E  E  E  E  E  E  E  E   
--------------------------|-------------------------|--------------------------|
--------------------------|-------------------------|--------------------------|
--------------------------|-------------------------|--------------------------|
--------------------------|--------------------5----|--------------------------|
--2--4--4--2--4--4-----2--|--4--4-----2--4--2--3----|--2--4--4--2--4--4-----2--|
--0--2--2--0--2--2-----0--|--2--2-----0--2--0-------|--0--2--2--0--2--2-----0--|


  E  E  E  E  E  E  Q        Q    Q     Q    Q        Q    Q     H         
-------------------------|------------------------|-----------------------|
-------------------------|------------------------|-----------------------|
-------------------------|------------------------|-----------------------|
-------------------------|--11----9----14----9----|--11----9----10--------|
--4--4-----2--4--2--7----|---9----7----12----7----|---9----7-----8--------|
--2--2-----0--2--0--5----|------------------------|-----------------------|


  PM PM    PM      PM PM       PM                           
  E  E  E  E  Q    E  E     E  E   E   E   E   E   E   E    
-------------------------|--------12----------15--12---L\--|
-------------------------|------------12--13---------------|
--------9-----9----------|--9------------------------------|
-------------------------|---------------------------------|
--7--7-----7-------7--7--|-----7---------------------------|
-------------------------|---------------------------------|


    PM  PM      PM        PM  PM         PM      PM             W     
    E   E   E   E   Q     E   E      E   E   E   E   E   S   S  Q     
---------------------------------|-----------------------------------|
---------------------------------|-----------------------------------|
-----------11------12------------|--11------12------11--14s-16-14----|
--/12--12------12--------12--12--|------12------12-------------------|
---------------------------------|-----------------------------------|
---------------------------------|-----------------------------------|


  PM PM    PM      PM PM       PM                          
  E  E  E  E  Q    E  E     E  E   E   E   E   E   E  E    
-------------------------|--------12----------15--12--L\--|
-------------------------|------------12--13--------------|
--------9-----9----------|--9-----------------------------|
-------------------------|--------------------------------|
--7--7-----7-------7--7--|-----7--------------------------|
-------------------------|--------------------------------|


   PM  PM      PM         PM  PM         PM      PM             W     
   E   E   E   E   Q      E   E      E   E   E   E   E   S   S  Q     
---------------------------------|-----------------------------------|
---------------------------------|-----------------------------------|
----------11------12~------------|--11------12------11--14s-16-14----|
--12--12------12---------12--12--|------12------12-------------------|
---------------------------------|-----------------------------------|
---------------------------------|-----------------------------------|


  PM PM    PM      PM PM       PM                          
  E  E  E  E  Q    E  E     E  E   E   E   E   E   E  E    
-------------------------|--------14----------17--14--L\--|
-------------------------|------------14--15--------------|
--------6-----7----------|--------------------------------|
--------7-----7----------|--7-----------------------------|
--9--9--9--9--9----9--9--|--9--9--------------------------|
-------------------------|--------------------------------|


        PM      PM        PM  PM         PM      PM                    
    E   E   E   E   Q     E   E      E   E   E   E   E   S   S  Q      
---------------------------------|------------------------------------|
---------------------------------|------------------------------------|
-----------13------14------------|--13------14------13--16s-18-16b----|
--/14--14--14--14--14----14--14--|--14--14------14--------------------|
---------------------------------|------------------------------------|
---------------------------------|------------------------------------|


  PM PM    PM      PM PM       PM                          
  E  E  E  E  Q    E  E     E  E   E   E   E   E   E  E    
-------------------------|--------14----------17--14--L\--|
-------------------------|------------14--15--------------|
--------6-----7----------|--------------------------------|
--------7-----7----------|--7-----------------------------|
--9--9--9--9--9----9--9--|--9--9--------------------------|
-------------------------|--------------------------------|


   PM  PM      PM        PM  PM                                               
   E   E   E   E   Q     E   E     Q    Q    E  E  E  E     W                 
--------------------------------|------------------------|-------------------|
--------------------------------|------------------------|-------------------|
----------13------14------------|------------------------|--7----------------|
--14--14--14--14--14----14--14--|--6----6----------------|--7----------------|
--------------------------------|--4----4----2--2--2--2--|--5----------------|
--------------------------------|------------0--0--0--0--|-------------------|


  W                   W                   W                   W                 
-------------------|-------------------|-------------------|-------------------|
-------------------|-------------------|-------------------|-------------------|
--L----------------|-------------------|-------------------|--4----------------|
--L----------------|--4----------------|--L----------------|--4----------------|
--L----------------|--4----------------|--L----------------|--2----------------|
-------------------|--2----------------|--L----------------|-------------------|


  W                   W                    W                 
-------------------|-------------------|--------------------|
-------------------|-------------------|--------------------|
--6----------------|--7----------------|--10----------------|
--7----------------|--7----------------|--10----------------|
--4----------------|--5----------------|---8----------------|
-------------------|-------------------|--------------------|


  W                   W                   W                   W                 
-------------------|-------------------|-------------------|-------------------|
-------------------|-------------------|-------------------|-------------------|
-------------------|-------------------|--7----------------|--L----------------|
--4----------------|--L----------------|--7----------------|--L----------------|
--4----------------|--L----------------|--5----------------|--L----------------|
--2----------------|--L----------------|-------------------|-------------------|


  W                   W                   W                   W                 
-------------------|-------------------|-------------------|-------------------|
-------------------|-------------------|-------------------|-------------------|
--4----------------|--6----------------|--7----------------|-------------------|
--4----------------|--7----------------|--7----------------|--3----------------|
--2----------------|--4----------------|--5----------------|--3----------------|
-------------------|-------------------|-------------------|--1----------------|


  PM PM        PM PM PM          PM PM PM   NH           
  E  E  E   E  E  E  E  E     E  E  E  E    Q      Q     
---------------------------|----------------------------|
---------------------------|----------------------------|
------------------------2--|--------------<>4br----2----|
--------2h--4--------------|--4-------------------------|
---------------------------|----------------------------|
--2--2---------2--2--2-----|-----2--2--2----------------|


  PM        PM PM PM PM           PM PM PM                
  E  E   E  E  E  E  E  E      E  E  E  E  E   E  E   E   
----------------------------|----------------------------|
----------------------------|----------------------------|
----------------------------|----------------------------|
-----2h--4--------------6h--|--2------------------2h--6--|
----------------------------|--------------2h--4---------|
--2---------2--2--2--2------|-----0--2--2----------------|


  PM PM PM    PM PM PM          PM PM PM   NH           
  E  E  E  E  E  E  E  E     E  E  E  E    Q      Q     
--------------------------|----------------------------|
--------------------------|----------------------------|
-----------------------2--|--------------<>4br----2----|
-----------4--------------|--4-------------------------|
--------------------------|----------------------------|
--2--2--2-----2--2--2-----|-----2--2--2----------------|


  PM        PM PM PM PM           PM PM PM                
  E  E   E  E  E  E  E  E      E  E  E  E  E   E  E   E   
----------------------------|----------------------------|
----------------------------|----------------------------|
----------------------------|----------------------------|
-----2h--4--------------6h--|--2------------------2h--6--|
----------------------------|--------------2h--4---------|
--2---------2--2--2--2------|-----2--2--2----------------|


  PM PM        PM PM PM            PM PM PM                  
  E  E  E   E  E  E  E   E      E  E  E  E   E   E   E  E    
-----------------------------|------------------------------|
-----------------------------|--------------12--10----------|
--------7h--9-----------12h--|--9-------------------12--L\--|
-----------------------------|------------------------------|
-----------------------------|------------------------------|
--0--0---------0--0--0-------|-----0--0--0------------------|


  PM        PM PM PM PM            PM PM PM                 
  E  E   E  E  E  E  E   E      E  E  E  E  E   E  E    E   
-----------------------------|-----------------------------|
-----------------------------|-----------------------------|
-----7h--9--------------11h--|--7------------------7h--11--|
-----------------------------|--------------7h--9----------|
-----------------------------|-----------------------------|
--0---------0--0--0--0-------|-----0--0--0-----------------|


  PM PM        PM PM PM            PM PM PM                  
  E  E  E   E  E  E  E   E      E  E  E  E   E   E   E  E    
-----------------------------|------------------------------|
-----------------------------|--------------12--10----------|
--------7h--9-----------12h--|--9-------------------12--L\--|
-----------------------------|------------------------------|
-----------------------------|------------------------------|
--0--0---------0--0--0-------|-----0--0--0------------------|


  PM        PM PM PM PM            PM PM PM                 
  E  E   E  E  E  E  E   E      E  E  E  E  E   E  E    E   
-----------------------------|-----------------------------|
-----------------------------|-----------------------------|
-----7h--9--------------11h--|--7------------------7h--11--|
-----------------------------|--------------7h--9----------|
-----------------------------|-----------------------------|
--0---------0--0--0--0-------|-----0--0--0-----------------|


  PM PM PM PM PM PM PM PM                                   
  S  S  S  S  S  S  S  S  H            H        E  E  Q     
------------------------------------|----------------------|
--------------------------8\--------|----------------------|
--------------------------9\--------|--------------9-------|
--------------------------9\--------|-----------9-----8----|
--------------------------7\--------|----------------------|
--0--0--0--0--0--0--0--0------------|----------------------|


  PM PM PM PM PM PM PM PM                                   
  S  S  S  S  S  S  S  S  H            H        Q     Q     
------------------------------------|----------------------|
--------------------------8\--------|----------------------|
--------------------------9\--------|----------------------|
--------------------------9\--------|----------------------|
--------------------------7\--------|-----------7----10----|
--0--0--0--0--0--0--0--0------------|-----------5-----8----|


  PM PM PM PM PM PM PM PM                                   
  S  S  S  S  S  S  S  S  H            H        E  E  Q     
------------------------------------|----------------------|
--------------------------8\--------|----------------------|
--------------------------9\--------|--------------9-------|
--------------------------9\--------|-----------9-----8----|
--------------------------7\--------|----------------------|
--0--0--0--0--0--0--0--0------------|----------------------|


  PM PM PM PM PM PM PM PM                                   
  S  S  S  S  S  S  S  S  H            H        Q     Q     
------------------------------------|----------------------|
--------------------------8\--------|----------------------|
--------------------------9\--------|----------------------|
--------------------------9\--------|----------------------|
--------------------------7\--------|-----------7----10----|
--0--0--0--0--0--0--0--0------------|-----------5-----8----|


  PM PM PM PM PM PM PM PM                                   
  S  S  S  S  S  S  S  S   H            H        Q    Q     
-------------------------------------|---------------------|
-------------------------------------|---------------------|
--------------------------(6)--------|--L------------------|
---------------------------6---------|--L--------4----4----|
--4--4--4--4--4--4--4--4---4---------|--L--------2----2----|
-------------------------------------|---------------------|


  PM PM PM PM PM PM PM PM                                   
  S  S  S  S  S  S  S  S   H            H        Q    Q     
-------------------------------------|---------------------|
-------------------------------------|---------------------|
--------------------------(6)--------|---------------------|
---------------------------6---------|--L-------------9----|
--4--4--4--4--4--4--4--4---4---------|--L--------7----7----|
-------------------------------------|-----------5---------|


  PM PM PM PM PM PM PM PM                                 
  S  S  S  S  S  S  S  S  H           H        Q    Q     
-----------------------------------|---------------------|
--------------------------5--------|--L------------------|
--------------------------6--------|--L------------------|
--------------------------6--------|--L--------4----4----|
--4--4--4--4--4--4--4--4--4--------|--L--------2----2----|
-----------------------------------|---------------------|


  PM PM PM PM PM PM PM PM                                 
  S  S  S  S  S  S  S  S  H           H        Q    Q     
-----------------------------------|---------------------|
--------------------------5--------|--L------------------|
--------------------------6--------|--L------------------|
--------------------------6--------|--L--------2----5----|
--4--4--4--4--4--4--4--4--4--------|--L--------0----3----|
-----------------------------------|---------------------|


  Q    Q    Q    H.            
------------------------------|
------------------------------|
------------------------------|
--6---------------------------|
--4----2----3-----------------|
-------0----1-----------------|


  PM PM PM PM PM PM PM PM PM PM PM PM PM PM PM PM  
  S  S  S  S  S  S  S  S  S  S  S  S  S  S  S  S   
--------------------------------------------------|
--------------------------------------------------|
--------------------------------------------------|
--------------------------------------------------|
--------------------------------------------------|
--0--2--2--2--2--2--2--2--2--2--2--2--2--2--2--2--|


  PM PM PM PM PM PM PM PM PM PM PM PM PM PM PM PM  
  S  S  S  S  S  S  S  S  S  S  S  S  S  S  S  S   
--------------------------------------------------|
--------------------------------------------------|
--------------------------------------------------|
--------------------------2--2--2--2--2--2--2--2--|
--------------------------------------------------|
--2--2--2--2--2--2--2--2--------------------------|


  PM PM PM PM PM PM PM PM PM PM PM PM PM PM PM PM  
  S  S  S  S  S  S  S  S  S  S  S  S  S  S  S  S   
--------------------------------------------------|
--------------------------------------------------|
--------------------------------------------------|
--4--4--4--4--4--4--4--4--4--4--4--4--4--4--4--4--|
--------------------------------------------------|
--------------------------------------------------|


  PM PM PM PM PM PM PM PM PM PM PM PM PM PM PM PM                       
  S  S  S  S  S  S  S  S  S  S  S  S  S  S  S  S     H        H         
--------------------------------------------------|--------------------|
--------------------------------------------------|--------------------|
--------------------------------------------------|--------------------|
--4--4--4--4--4--4--4--4--4--4--4--4--4--4--4--4--|--2--------4--------|
--------------------------------------------------|--0--------2--------|
--------------------------------------------------|--------------------|


                            PM PM PM PM PM PM      PM PM PM PM PM PM  
  H        H           S  S S  S  S  S  S  S  S  S S  S  S  S  S  S   
--------------------|------------------------------------------------|
--------------------|------------------------------------------------|
--------------------|------------------------------------------------|
--6-----------------|------------------------------------------------|
--4--------5--------|------------------------------------------------|
-----------3--------|--0h-2-2--2--2--2--2--2--0h-2-2--2--2--2--2--2--|


       PM PM PM PM PM PM      PM PM PM PM PM PM                       
  S  S S  S  S  S  S  S  S  S S  S  S  S  S  S     H        H         
------------------------------------------------|--------------------|
------------------------------------------------|--------------------|
------------------------------------------------|--------------------|
------------------------------------------------|--2--------4--------|
------------------------------------------------|--0--------2--------|
--0h-2-2--2--2--2--2--2--0h-2-2--2--2--2--2--2--|--------------------|


                           PM PM     PM PM       PM PM PM  
  H        H           S S S  S  S S S  S  E  E  E  S  S   
--------------------|-------------------------------------|
--------------------|-------------------------------------|
--------------------|----------------------5--5-----------|
--6-----------------|----------------------7--7-----------|
--4--------5--------|--0-0-0--0--0-L-0--0--------0--0--0--|
-----------3--------|-------------------------------------|


     PM PM                                                  PM PM  
  E  S  S   E  E   E   E   E  E     S S S S E  S S E  E  E  S  S   
---------------------------------|--------------------------------|
-----------10--------------------|--------------------------------|
---------------9--12--11--10--9--|-----------------9--9-----------|
---------------------------------|-----------------7--7-----------|
--0--0--0------------------------|--0-0-0-0-0--0-0-0--0--0--0--0--|
---------------------------------|--------------------------------|


                                                              PM    
   E  E    E   E   E   E   E   E     S S S S E  S S E  E  S S S  S  
----------------------------------|--------------------------------|
--10-----/12--12b--L--12--11------|--------------------------------|
------9-----------------------10--|-----------------5--5-----------|
----------------------------------|-----------------7--7-----------|
----------------------------------|--0-0-0-0-0--0-0-0--0--0-0-0--0-|
----------------------------------|--------------------------------|


  PM PM PM                                                   PM    
  E  S  S   E  E   E   E   E  E     S S S S E  S S E  E  S S S  S  
---------------------------------|--------------------------------|
-----------10--------------------|--------------------------------|
---------------9--12--11--10--9--|-----------------5--5-----------|
---------------------------------|-----------------7--7-----------|
--0--0--0------------------------|--0-0-0-0-0--0-0-0--0--0-L-0--0-|
---------------------------------|--------------------------------|


                                         PM PM PM PM PM PM  
   E  E  E  S   S  E   E   E  E     Q    E  E  E  E  E  E   
---------------------------------|-------------------------|
---------------------------------|-------------------------|
------------9s-12s-9-------------|-------------------------|
--10--9--7------------12--10--9--|--9----------------------|
---------------------------------|--7----7--7--7--7--7--7--|
---------------------------------|-------------------------|


  PM PM PM PM                                                      
  E  E  E  E   Q     Q       W                   W                 
--------------------------|-------------------|-------------------|
--------------------------|-------------------|-------------------|
--------------------------|--7----------------|--L----------------|
--------------24\----L----|--7----------------|--L----------------|
--7--7--7--7--24\----L----|--5----------------|--L----------------|
--------------------------|-------------------|-------------------|


  W                   W                   W                   W                 
-------------------|-------------------|-------------------|-------------------|
-------------------|-------------------|-------------------|-------------------|
-------------------|-------------------|-------------------|-------------------|
--4----------------|--L----------------|--4----------------|--7----------------|
--4----------------|--L----------------|--2----------------|--4----------------|
--2----------------|--L----------------|-------------------|-------------------|


  W                    W                     W                  
-------------------|--------------------|----------------------|
-------------------|--------------------|----------------------|
-------------------|--------------------|--(11)----------------|
--7----------------|--10----------------|---11-----------------|
--5----------------|---8----------------|----9-----------------|
-------------------|--------------------|----------------------|


  W                   W                   W                   W                 
-------------------|-------------------|-------------------|-------------------|
-------------------|-------------------|-------------------|-------------------|
--L----------------|--7----------------|--L----------------|--4----------------|
--L----------------|--7----------------|--L----------------|--4----------------|
--L----------------|--5----------------|--L----------------|--2----------------|
-------------------|-------------------|-------------------|-------------------|


  W                   W                    W                 
-------------------|-------------------|--------------------|
-------------------|-------------------|--------------------|
--6----------------|--7----------------|--------------------|
--7----------------|--7----------------|--10----------------|
--4----------------|--5----------------|---8----------------|
-------------------|-------------------|---8----------------|


  E  E  E  E  E  E  E  E     E  E  E  E  H          
--------------------------|-----------------------||
--------------------------|-----------------------||
--------------------------|-----------------------||
--------------------------|-----------------------||
--2--4--4--2--4--4--x--2--|--4--4--L--------------||
--0--2--2--0--2--2--x--0--|--2--2--L--------------||


Rhythm 2 _____________________________________________________
______________________________________________________________
______________________________________________________________
______________________________________________________________
______________________________________________________________

     W                   H.           Q       W                 
D||-------------------|--------------------|-------------------|
A||-------------------|--------------------|-------------------|
F||-------------------|---------------5----|-------------------|
C||-------------------|---------------5----|-------------------|
G||-------------------|---------------3----|-------------------|
D||-------------------|--------------------|-------------------|


  H        S S S S S S S S    E  E  E  E  E  E  E  E   
---------------------------|--------------------------|
---------------------------|--------------------------|
---------------------------|--------------------------|
---------------------------|--------------------------|
---------------------------|--2--4--4--2--4--4-----2--|
-----------7-2-0-0-7-2-0-0-|--0--2--2--0--2--2-----0--|


  E  E  E  E  E  E  Q       E  E  E  E  E  E  E  E   
-------------------------|--------------------------|
-------------------------|--------------------------|
-------------------------|--------------------------|
--------------------2----|--------------------------|
--4--4-----2--4--2--0----|--2--4--4--2--4--4-----2--|
--2--2-----0--2--0-------|--0--2--2--0--2--2-----0--|


  E  E  E  E  S  S S S S S S S    E  E  E  E  E  E  E  E   
-------------------------------|--------------------------|
-------------------------------|--------------------------|
-------------------------------|--------------------------|
---------------------------2-4-|--------------------------|
--4--4-----2--3p-2-0-2-3-4-----|--2--4--4--2--4--4-----2--|
--2--2-----0-------------------|--0--2--2--0--2--2-----0--|


  E  E  E  E  E  E  Q       E  E  E  E  E  E  E  E   
-------------------------|--------------------------|
-------------------------|--------------------------|
-------------------------|--------------------------|
--------------------5----|--------------------------|
--4--4-----2--4--2--3----|--2--4--4--2--4--4-----2--|
--2--2-----0--2--0-------|--0--2--2--0--2--2-----0--|


  E  E  E  E  S  S S S S S S S    E  E  E  E  E  E  E  E   
-------------------------------|--------------------------|
-------------------------------|--------------------------|
-------------------------------|--------------------------|
---------------------------2-4-|--------------------------|
--4--4-----2--3p-2-0-2-3-4-----|--2--4--4--2--4--4-----2--|
--2--2-----0-------------------|--0--2--2--0--2--2-----0--|


  E  E  E  E  E  E  Q       E  E  E  E  E  E  E  E   
-------------------------|--------------------------|
-------------------------|--------------------------|
-------------------------|--------------------------|
--------------------2----|--------------------------|
--4--4-----2--4--2--0----|--2--4--4--2--4--4-----2--|
--2--2-----0--2--0-------|--0--2--2--0--2--2-----0--|


                   PM PM                                                       
  E  E  E  E  S  S S  S  Q        Q    Q     Q    Q        Q    Q    H         
------------------------------|------------------------|----------------------|
------------------------------|------------------------|----------------------|
------------------------------|------------------------|----------------------|
------------------------------|--11----9----14----9----|--11----9----7--------|
--4--4-----2--2p-0-------3----|---9----7----12----7----|---9----7----5--------|
--2--2-----0-------2--0-------|------------------------|----------------------|


  PM PM        PM PM PM            PM PM PM              
  E  E  E   E  E  E  E   E      E  E  E  E  E  E   Q     
-----------------------------|--------------------------|
-----------------------------|--------------------------|
-----------------------------|--------------------------|
-----------------------------|--------------9--7--------|
--------5h--7-----------10h--|--7-----------------10----|
--0--0---------0--0--0-------|-----0--0--0--------------|


  PM        PM PM PM PM           PM PM PM                
  E  E   E  E  E  E  E  E      E  E  E  E  E   E  E   E   
----------------------------|----------------------------|
----------------------------|----------------------------|
----------------------------|----------------------------|
----------------------------|----------------------------|
-----5h--7--------------9h--|--5------------------5h--9--|
--0---------0--0--0--0------|-----0--0--0--5h--7---------|


  PM PM        PM PM PM            PM PM PM              
  E  E  E   E  E  E  E   E      E  E  E  E  E  E   Q     
-----------------------------|--------------------------|
-----------------------------|--------------------------|
-----------------------------|--------------------------|
-----------------------------|--------------9--7--------|
--------5h--7-----------10h--|--7-----------------10----|
--0--0---------0--0--0-------|-----0--0--0--------------|


  PM        PM PM PM PM           PM PM PM                
  E  E   E  E  E  E  E  E      E  E  E  E  E   E  E   E   
----------------------------|----------------------------|
----------------------------|----------------------------|
----------------------------|----------------------------|
----------------------------|----------------------------|
-----5h--7--------------9h--|--5------------------5h--9--|
--0---------0--0--0--0------|-----0--0--0--5h--7---------|


  PM PM    PM       PM PM       PM                      
  E  E  E  E   Q    E  E     E  E  E  E   E   E  Q      
--------------------------|----------------------------|
--------------------------|----------------------------|
--------------------------|--------9---------12--9~----|
--------9-----10----------|--9--------9--10------------|
--7--7-----7--------7--7--|-----7----------------------|
--------------------------|----------------------------|


   PM  PM      PM       PM PM        PM                W     
   E   E   E   E   Q    E  E      E  E  E  E   E   E   Q     
------------------------------|-----------------------------|
------------------------------|-----------------------------|
------------------------------|---------9---------12--11----|
----------12------14----------|--12--------9--12------------|
--10--10------10--------9--9--|------9----------------------|
------------------------------|-----------------------------|


  PM PM    PM       PM PM       PM                      
  E  E  E  E   Q    E  E     E  E  E  E   E   E  Q      
--------------------------|----------------------------|
--------------------------|----------------------------|
--------------------------|--------9---------12--9~----|
--------9-----10----------|--9--------9--10------------|
--7--7-----7--------7--7--|-----7----------------------|
--------------------------|----------------------------|


   PM  PM      PM       PM PM        PM                         
   E   E   E   E   Q    E  E      E  E  E  E   E   E     Q      
------------------------------|--------------------------------|
------------------------------|--------------------------------|
------------------------------|---------9---------12--<>11b----|
----------12------14----------|--12--------9--12---------------|
--10--10------10--------9--9--|------9-------------------------|
------------------------------|--------------------------------|


  PM PM    PM       PM PM        PM                     
  E  E  E  E   Q    E  E      E  E  E  E   E   E  Q     
--------------------------|----------------------------|
--------------------------|----------------------------|
--------------------------|---------9---------12--9----|
--------9-----10----------|--10--------9--10-----------|
--7--7-----7--------7--7--|------7---------------------|
--------------------------|----------------------------|


   PM  PM      PM       PM PM        PM   SH                    
   E   E   E   E   Q    E  E      E  E    E  E   E   E   Q      
------------------------------|--------------------------------|
------------------------------|--------------------------------|
------------------------------|---------<>9---------12--11b----|
----------12------14----------|--12----------9--12-------------|
--10--10------10--------9--9--|------9-------------------------|
------------------------------|--------------------------------|


  PM PM    PM       PM PM        PM                     
  E  E  E  E   Q    E  E      E  E  E  E   E   E  Q     
--------------------------|----------------------------|
--------------------------|----------------------------|
--------------------------|---------9---------12--9----|
--------9-----10----------|--10--------9--10-----------|
--7--7-----7--------7--7--|------7---------------------|
--------------------------|----------------------------|


   PM  PM      PM       PM PM        PM                W     
   E   E   E   E   Q    E  E      E  E  E  E   E   E   Q     
------------------------------|-----------------------------|
------------------------------|-----------------------------|
------------------------------|---------9---------12--11----|
----------12------14----------|--12--------9--12------------|
--10--10------10--------9--9--|------9----------------------|
------------------------------|-----------------------------|


  PM PM        PM PM PM            PM PM PM               
  E  E  E   E  E  E  E   E      E  E  E  E  E  E   Q      
-----------------------------|---------------------------|
-----------------------------|---------------------------|
-----------------------------|---------------------------|
-----------------------------|--------------9--7---------|
--------5h--7-----------10h--|--7-----------------10~----|
--0--0---------0--0--0-------|-----0--0--0---------------|


  PM        PM PM PM PM           PM PM PM                
  E  E   E  E  E  E  E  E      E  E  E  E  E   E  E   E   
----------------------------|----------------------------|
----------------------------|----------------------------|
----------------------------|----------------------------|
----------------------------|----------------------------|
-----5h--7--------------9h--|--5------------------5h--9--|
--0---------0--0--0--0------|-----0--0--0--5h--7---------|


  PM PM PM        PM PM PM PM            PM PM PM              
  S  S  E  E   E  S  S  E  E   E      E  E  E  E  E  E   Q     
-----------------------------------|--------------------------|
-----------------------------------|--------------------------|
-----------------------------------|--------------------------|
-----------------------------------|--------------9--7--------|
-----------5h--7--------------10h--|--7-----------------10----|
--0--0--0---------0--0--0--0-------|-----0--0--0--------------|


  PM        PM PM PM PM           PM PM PM PM PM            
  E  E   E  E  E  E  E  E      E  E  E  E  E  S  S S E   S  
----------------------------|------------------------------|
----------------------------|------------------------------|
----------------------------|------------------------------|
----------------------------|------------------------9\--L-|
-----5h--7--------------9h--|--5-------------------5-7\--L-|
--0---------0--0--0--0------|-----0--0--0--0--5--7---------|


  E  E  E  E  E  E  E  E     E  E  E  E  E  E  Q       E  E  E  E  E  E  E  E   
--------------------------|-------------------------|--------------------------|
--------------------------|-------------------------|--------------------------|
--------------------------|-------------------------|--------------------------|
--------------------------|--------------------5----|--------------------------|
--2--4--4--2--4--4-----2--|--4--4-----2--4--2--3----|--2--4--4--2--4--4-----2--|
--0--2--2--0--2--2-----0--|--2--2-----0--2--0-------|--0--2--2--0--2--2-----0--|


  E  E  E  E  E  E  Q       E  E  E  E  E  E  E  E     E  E  E  E  E  E  Q     
-------------------------|--------------------------|-------------------------|
-------------------------|--------------------------|-------------------------|
-------------------------|--------------------------|-------------------------|
--------------------2----|--------------------------|--------------------5----|
--4--4-----2--4--2--0----|--2--4--4--2--4--4-----2--|--4--4-----2--4--2--3----|
--2--2-----0--2--0-------|--0--2--2--0--2--2-----0--|--2--2-----0--2--0-------|


  E  E  E  E  E  E  E  E     E  E  E  E  E  E  Q        Q    Q     Q    Q     
--------------------------|-------------------------|------------------------|
--------------------------|-------------------------|------------------------|
--------------------------|-------------------------|------------------------|
--------------------------|--------------------2----|--11----9----14----9----|
--2--4--4--2--4--4-----2--|--4--4-----2--4--2--0----|---9----7----12----7----|
--0--2--2--0--2--2-----0--|--2--2-----0--2--0-------|------------------------|


                          PM PM    PM       PM PM       PM                     
   Q    Q     H           E  E  E  E   Q    E  E     E  E  E  E   E   E  Q     
-----------------------|--------------------------|---------------------------|
-----------------------|--------------------------|---------------------------|
-----------------------|--------------------------|--------9---------12--9----|
--11----9----10--------|--------9-----10----------|-----------9--10-----------|
---9----7-----8--------|--7--7-----7--------7--7--|--7--7---------------------|
-----------------------|--------------------------|--0------------------------|


   PM  PM      PM       PM PM        PM                W     
   E   E   E   E   Q    E  E      E  E  E  E   E   E   Q     
------------------------------|-----------------------------|
------------------------------|-----------------------------|
------------------------------|---------9---------12--11----|
----------12------14----------|--12--------9--12------------|
--10--10------10--------9--9--|------9----------------------|
------------------------------|-----------------------------|


  PM PM    PM        PM PM       PM                     
  E  E  E  E   Q     E  E     E  E  E  E   E   E  Q     
---------------------------|---------------------------|
---------------------------|---------------------------|
---------------------------|--------9---------12--9----|
--------9-----10~----------|-----------9--10-----------|
--7--7-----7---------7--7--|--7--7---------------------|
---------------------------|--0------------------------|


   PM  PM      PM       PM PM        PM                         
   E   E   E   E   Q    E  E      E  E  E  E   E   E     Q      
------------------------------|--------------------------------|
------------------------------|--------------------------------|
------------------------------|---------9---------12--<>11b----|
----------12------14----------|--12--------9--12---------------|
--10--10------10--------9--9--|------9-------------------------|
------------------------------|--------------------------------|


  PM PM     PM       PM PM        PM                         
  E  E   E  E   Q    E  E      E  E   E   E   E   E   Q      
---------------------------|--------------------------------|
---------------------------|--------------------------------|
---------------------------|---------11----------14--11~----|
--------11-----12----------|--12---------11--12-------------|
--9--9------9--------9--9--|------9-------------------------|
---------------------------|--------------------------------|


   PM  PM      PM        PM  PM         PM                         
   E   E   E   E   Q     E   E      E   E   E   E   E   E   Q      
--------------------------------|---------------------------------|
--------------------------------|---------------------------------|
--------------------------------|----------11----------14--13b----|
----------14------16------------|--14----------11--14-------------|
--12--12------12--------11--11--|------11-------------------------|
--------------------------------|---------------------------------|


  PM PM     PM       PM PM        PM                        
  E  E   E  E   Q    E  E      E  E   E   E   E   E   Q     
---------------------------|-------------------------------|
---------------------------|-------------------------------|
---------------------------|---------11----------14--11----|
--------11-----12----------|--12---------11--12------------|
--9--9------9--------9--9--|------9------------------------|
---------------------------|-------------------------------|


   PM  PM      PM                               PM        
   E   E   E   E   Q     E   E     Q    Q    E  E  E  E   
--------------------------------|------------------------|
--------------------------------|------------------------|
--------------------------------|------------------------|
----------14------16------------|--6----6----------------|
--12--12------12--------11\--4--|--4----4----2--2--2--2--|
-----------------------------2--|------------0--0--0--0--|


   H         H            H         H            H         H         
----------------------|----------------------|----------------------|
----------------------|----------------------|----------------------|
--10--------11--------|--13--------14--------|--10--------11--------|
----------------------|----------------------|----------------------|
---8---------9--------|--11--------12--------|---8---------9--------|
----------------------|----------------------|----------------------|


   H         H           H         H            H         H         
----------------------|---------------------|----------------------|
----------------------|---------------------|----------------------|
--13--------14--------|--9--------11--------|--14--------18--------|
----------------------|---------------------|----------------------|
--11--------12--------|--7---------9--------|--12--------16--------|
----------------------|---------------------|----------------------|


  H         H            H         H            H         H         
---------------------|----------------------|----------------------|
---------------------|----------------------|----------------------|
--9--------11--------|--14--------17--------|--10--------11--------|
---------------------|----------------------|----------------------|
--7---------9--------|--12--------15--------|---8---------9--------|
---------------------|----------------------|----------------------|


   H         H            H         H            H         H         
----------------------|----------------------|----------------------|
----------------------|----------------------|----------------------|
--13--------14--------|--10--------11--------|--13--------14--------|
----------------------|----------------------|----------------------|
--11--------12--------|---8---------9--------|--11--------12--------|
----------------------|----------------------|----------------------|


  H         H            H         H           H         H         
---------------------|----------------------|---------------------|
---------------------|----------------------|---------------------|
--9--------11--------|--14--------18--------|--9--------11--------|
---------------------|----------------------|---------------------|
--7---------9--------|--12--------16--------|--7---------9--------|
---------------------|----------------------|---------------------|


   H         H             E   E   E   E   E   E   E   E   
-----------------------|----------------------------------|
-----------------------|----------------------------------|
--16--------14~--------|--18------------------------------|
-----------------------|----------------------------------|
--14--------12~--------|--16------------------------------|
-----------------------|--14--14--14--14--14--14--14--14--|


                                                            \1/                
   E   E   E   E   E   E   E   E      W                     W                  
----------------------------------|--------------------|----------------------|
----------------------------------|--------------------|----------------------|
---------------------------L---L--|--14----------------|---18-----------------|
----------------------------------|--------------------|---16-----------------|
---------------------------L---L--|--12----------------|--(16)----------------|
--14--14--14--14--14--14--14--14--|--------------------|----------------------|


   H         H            E   E   E   E   E   E   E   E   
--21------------------|--21--21---L--21--21----------21--|
--19------------------|---L-----------L------19-------L--|
--18--------18--------|--18---L--18-----------L--18---L--|
----------------------|----------------------------------|
----------------------|----------------------------------|
----------------------|----------------------------------|


                                    Phaser             
   S  S  S  S  S  S  S  S  S  S  S  S      S  S  S  S  
--24-24--L--L-------24--L-----L-----L-----24-24-24-24-|
--22-22-22-22--L--L-22--L-22-22-22-22-----22-22-22-22-|
--21-21-21-21-21-21-21-21-21-21-21-21-----21-21-21-21-|
------------------------------------------------------|
------------------------------------------------------|
------------------------------------------------------|


                                        \1/    PM PM        PM PM PM       
   S  S  S  S  S  S  S  S  S  S    Q    E      E  E  E   E  E  E  E   E    
--22--------L-------22-----L----<>22----L---|-----------------------------|
--20-20-20-20-----L-20-20-20----------------|-----------------------------|
--19-19-19-19-19-19-19-----L--L-------------|-----------------------------|
--------------------------------------------|-----------------------------|
--------------------------------------------|--------5h--7-----------10h--|
--------------------------------------------|--0--0---------0--0--0-------|


     PM PM PM                PM        PM PM PM PM      
  E  E  E  E  E  E   Q       E  E   E  E  E  E  E  E    
--------------------------|----------------------------|
--------------------------|----------------------------|
--------------------------|----------------------------|
--------------9--7--------|----------------------------|
--7-----------------10----|-----5h--7--------------9h--|
-----0--0--0--------------|--0---------0--0--0--0------|


     PM PM PM                  PM PM        PM PM PM       
  E  E  E  E  E   E  E   E     E  E  E   E  E  E  E   E    
----------------------------|-----------------------------|
----------------------------|-----------------------------|
----------------------------|-----------------------------|
----------------------------|-----------------------------|
--5------------------5h--9--|--------5h--7-----------10h--|
-----0--0--0--5h--7---------|--0--0---------0--0--0-------|


     PM PM PM                 PM        PM PM PM PM      
  E  E  E  E  E  E   Q        E  E   E  E  E  E  E  E    
---------------------------|----------------------------|
---------------------------|----------------------------|
---------------------------|----------------------------|
--------------9--7---------|----------------------------|
--7-----------------10~----|-----5h--7--------------9h--|
-----0--0--0---------------|--0---------0--0--0--0------|


     PM PM PM                  PM PM PM PM PM PM PM PM            
  E  E  E  E  E   E  E   E     S  S  S  S  S  S  S  S  H          
----------------------------|------------------------------------|
----------------------------|--------------------------8\--------|
----------------------------|--------------------------9\--------|
----------------------------|--------------------------9\--------|
--5------------------5h--9--|--------------------------7\--------|
-----0--0--0--5h--7---------|--0--0--0--0--0--0--0--0------------|


                         PM PM PM PM PM PM PM PM            
  H        E  E  Q       S  S  S  S  S  S  S  S  H          
----------------------|------------------------------------|
----------------------|------------------------------------|
----------------------|------------------------------------|
--------------2-------|--------------------------9\--------|
-----------2-----1----|--------------------------7\--------|
----------------------|--0--L--0--0--0--0--0--0------------|


                         PM PM PM PM PM PM PM PM            
  H        Q     Q       S  S  S  S  S  S  S  S  H          
----------------------|------------------------------------|
----------------------|------------------------------------|
----------------------|------------------------------------|
----------------------|--------------------------9\--------|
-----------7----10----|--------------------------7\--------|
-----------5-----8----|--0--0--0--0--0--0--0--0------------|


                          PM PM PM PM PM PM PM PM            
  H         E  E  Q       S  S  S  S  S  S  S  S  H          
-----------------------|------------------------------------|
-----------------------|------------------------------------|
-----------------------|------------------------------------|
---------------2--4----|--------------------------9\--------|
-----------/2----------|--------------------------7\--------|
-----------------------|--0--0--0--0--0--0--0--0------------|


                    W       PM PM PM PM PM PM PM PM             
  H         E  E    Q       S  S  S  S  S  S  S  S   H          
-------------------------|-------------------------------------|
-------------------------|---------------------------5---------|
-------------------------|--------------------------(6)--------|
---------------2--<>4----|---------------------------6---------|
-----------/2------------|--4--4--4--4--4--4--4--4---4---------|
-------------------------|-------------------------------------|


                        PM PM PM PM PM PM PM PM             
  H        Q    Q       S  S  S  S  S  S  S  S   H          
---------------------|-------------------------------------|
--L------------------|-------------------------------------|
---------------------|--------------------------(6)--------|
--L--------4----4----|---------------------------6---------|
--L--------2----2----|--4--4--4--4--4--4--4--4---4---------|
---------------------|-------------------------------------|


                        PM PM PM PM PM PM PM PM                                 
  H        Q    Q       S  S  S  S  S  S  S  S  H           H        Q    Q     
---------------------|-----------------------------------|---------------------|
---------------------|--------------------------5--------|--L------------------|
---------------------|--------------------------6--------|--L------------------|
--L-------------9----|--------------------------6--------|--L--------4----4----|
--L--------7----7----|--4--4--4--4--4--4--4--4--4--------|--L--------2----2----|
-----------5---------|-----------------------------------|---------------------|


  PM       PM PM PM PM                                 
  S  S S S S  S  S  S  H           H        Q    Q     
--------------------------------|---------------------|
--------------------------------|---------------------|
-----------------------6--------|--L------------------|
-----------------------6--------|--L--------2----5----|
--2s-4-4-4-4--4--4--4--4--------|--L--------0----3----|
--------------------------------|---------------------|


  Q    Q    Q    H.            
------------------------------|
------------------------------|
------------------------------|
--6---------------------------|
--4----2----3-----------------|
-------0----1-----------------|


  PM PM PM PM PM PM PM PM PM PM PM PM PM PM PM PM  
  S  S  S  S  S  S  S  S  S  S  S  S  S  S  S  S   
--------------------------------------------------|
--------------------------------------------------|
--------------------------------------------------|
--------------------------------------------------|
--------------------------------------------------|
--0--2--2--2--2--2--2--2--2--2--2--2--2--2--2--2--|


  PM PM PM PM PM PM PM PM PM PM PM PM PM PM PM PM  
  S  S  S  S  S  S  S  S  S  S  S  S  S  S  S  S   
--------------------------------------------------|
--------------------------------------------------|
--------------------------------------------------|
--------------------------2--2--2--2--2--2--2--2--|
--------------------------------------------------|
--2--2--2--2--2--2--2--2--------------------------|


  PM PM PM PM PM PM PM PM PM PM PM PM PM PM PM PM  
  S  S  S  S  S  S  S  S  S  S  S  S  S  S  S  S   
--------------------------------------------------|
--------------------------------------------------|
--------------------------------------------------|
--4--4--4--4--4--4--4--4--4--4--4--4--4--4--4--4--|
--------------------------------------------------|
--------------------------------------------------|


  PM PM PM PM PM PM PM PM PM PM PM PM PM PM PM PM                       
  S  S  S  S  S  S  S  S  S  S  S  S  S  S  S  S     H        H         
--------------------------------------------------|--------------------|
--------------------------------------------------|--------------------|
--------------------------------------------------|--------------------|
--4--4--4--4--4--4--4--4--4--4--4--4--4--4--4--4--|--2--------4--------|
--------------------------------------------------|--0--------2--------|
--------------------------------------------------|--------------------|


                            PM PM PM PM PM PM      PM PM PM PM PM PM  
  H        H           S  S S  S  S  S  S  S  S  S S  S  S  S  S  S   
--------------------|------------------------------------------------|
--------------------|------------------------------------------------|
--------------------|------------------------------------------------|
--6-----------------|------------------------------------------------|
--4--------5--------|------------------------------------------------|
-----------3--------|--0h-2-2--2--2--2--2--2--0h-2-2--2--2--2--2--2--|


       PM PM PM PM PM PM      PM PM PM PM PM PM                       
  S  S S  S  S  S  S  S  S  S S  S  S  S  S  S     H        H         
------------------------------------------------|--------------------|
------------------------------------------------|--------------------|
------------------------------------------------|--------------------|
------------------------------------------------|--2--------4--------|
------------------------------------------------|--0--------2--------|
--0h-2-2--2--2--2--2--2--0h-2-2--2--2--2--2--2--|--------------------|


                            PM PM     PM PM       PM PM PM  
  H        H            S S S  S  S S S  S  E  E  E  S  S   
---------------------|-------------------------------------|
---------------------|-------------------------------------|
---------------------|----------------------9--9-----------|
--6------------------|----------------------7--7-----------|
--4--------5---------|--0-0-0--0--0-L-0--0--------0--0--0--|
-----------3b--------|-------------------------------------|


  PM PM                         PM PM PM PM PM PM       PM PM  
  E  E  E  E  E  E  E  E     E  S  S  S  S  S  S  E  E  E  E   
--------------------------|-----------------------------------|
--------------------------|-----------------------------------|
--------9--5--8--5--7--5--|-----------------------9--9--------|
--------------------------|-----------------------7--7--------|
--0--0--------------------|--0--0--0--0--0--0--0--------0--0--|
--------------------------|-----------------------------------|


                             PM PM     PM PM       PM PM PM  
  Q    Q    Q    Q       S S S  S  S S S  S  E  E  E  S  S   
----------------------|-------------------------------------|
----------------------|-------------------------------------|
----------------------|----------------------9--9-----------|
--2----2----3----5----|----------------------7--7-----------|
--0----2----3----5----|--0-0-0--0--0-0-0--0--------0--0--0--|
----------------------|-------------------------------------|


  PM PM PM                         PM PM PM PM PM PM       PM      
  E  S  S  E  E  E  E  E  E     E  S  S  S  S  S  S  E  E  E  E    
-----------------------------|------------------------------------|
-----------------------------|------------------------------------|
-----------9--5--8--5--7--5--|-----------------------9--9---------|
-----------------------------|-----------------------7--7-----5s--|
--0--0--0--------------------|--0--0--0--0--0--0--0--------0------|
-----------------------------|------------------------------------|


  E  E  E  E   E   E   E   E     H        H            H         H         
------------------------------|--------------------|----------------------|
------------------------------|--------------------|----------------------|
-----9------------12------12--|--8--------9--------|--11--------12--------|
--7--------9--10--------------|--------------------|----------------------|
--------7-------------10------|--6--------7--------|---9--------10--------|
------------------------------|--------------------|----------------------|


   H         H            H         H            H         H         
----------------------|----------------------|----------------------|
----------------------|----------------------|----------------------|
--10--------11--------|--13--------14--------|--10--------11--------|
----------------------|----------------------|----------------------|
---8---------9--------|--11--------12--------|---8---------9--------|
----------------------|----------------------|----------------------|


   H         H           H         H            H         H         
----------------------|---------------------|----------------------|
----------------------|---------------------|----------------------|
--13--------14--------|--9--------11--------|--14--------18--------|
----------------------|---------------------|----------------------|
--11--------12--------|--7---------9--------|--12--------16--------|
----------------------|---------------------|----------------------|


  H         H            H         H            H         H         
---------------------|----------------------|----------------------|
---------------------|----------------------|----------------------|
--9--------11--------|--14--------17--------|--10--------11--------|
---------------------|----------------------|----------------------|
--7---------9--------|--12--------15--------|---8---------9--------|
---------------------|----------------------|----------------------|


   H         H            H         H            H         H         
----------------------|----------------------|----------------------|
----------------------|----------------------|----------------------|
--13--------14--------|--10--------11--------|--13--------14--------|
----------------------|----------------------|----------------------|
--11--------12--------|---8---------9--------|--11--------12--------|
----------------------|----------------------|----------------------|


  H         H            H         H           H         H         
---------------------|----------------------|---------------------|
---------------------|----------------------|---------------------|
--9--------11--------|--14--------18--------|--9--------11--------|
---------------------|----------------------|---------------------|
--7---------9--------|--12--------16--------|--7---------9--------|
---------------------|----------------------|---------------------|


   H         H           E  E  E  E  E  E  E  E     E  E  E  E  H          
----------------------|--------------------------|-----------------------||
----------------------|--------------------------|-----------------------||
--16--------14--------|--------------------------|-----------------------||
----------------------|--------------------------|-----------------------||
--14--------12--------|--2--4--4--2--4--4--x--2--|--4--4--L--------------||
----------------------|--0--2--2--0--2--2--x--0--|--2--2--L--------------||


LEAD 1+++++++++++++++++++++

D||-------|-------|-------|-------|-------|-------|-------|-------|-------|
A||-------|-------|-------|-------|-------|-------|-------|-------|-------|
F||-------|-------|-------|-------|-------|-------|-------|-------|-------|
C||-------|-------|-------|-------|-------|-------|-------|-------|-------|
G||-------|-------|-------|-------|-------|-------|-------|-------|-------|
D||-------|-------|-------|-------|-------|-------|-------|-------|-------|


-------|-------|-------|-------|-------|-------|-------|
-------|-------|-------|-------|-------|-------|-------|
-------|-------|-------|-------|-------|-------|-------|
-------|-------|-------|-------|-------|-------|-------|
-------|-------|-------|-------|-------|-------|-------|
-------|-------|-------|-------|-------|-------|-------|


   S  S  S  S  S  S  S  S  S  S  S  S  S  S  S  S  
--------------------------------------------------|
--------------------------------------------------|
--------------------------------13-14-16-13-14-16-|
-----------------12-14-16-14-16-------------------|
--16-14-12-14-16----------------------------------|
--------------------------------------------------|


   S  S  S  S  S  S  S  S  H                                                  
--------------------14-16-17\--------|-------|-------|-------|-------|-------|
--14-15-17-14-15-17------------------|-------|-------|-------|-------|-------|
-------------------------------------|-------|-------|-------|-------|-------|
-------------------------------------|-------|-------|-------|-------|-------|
-------------------------------------|-------|-------|-------|-------|-------|
-------------------------------------|-------|-------|-------|-------|-------|


-------|-------|-------|-------|-------|-------|-------|-------|-------|-------|
-------|-------|-------|-------|-------|-------|-------|-------|-------|-------|
-------|-------|-------|-------|-------|-------|-------|-------|-------|-------|
-------|-------|-------|-------|-------|-------|-------|-------|-------|-------|
-------|-------|-------|-------|-------|-------|-------|-------|-------|-------|
-------|-------|-------|-------|-------|-------|-------|-------|-------|-------|


-------|-------|-------|-------|-------|-------|-------|-------|-------|-------|
-------|-------|-------|-------|-------|-------|-------|-------|-------|-------|
-------|-------|-------|-------|-------|-------|-------|-------|-------|-------|
-------|-------|-------|-------|-------|-------|-------|-------|-------|-------|
-------|-------|-------|-------|-------|-------|-------|-------|-------|-------|
-------|-------|-------|-------|-------|-------|-------|-------|-------|-------|


-------|-------|-------|-------|-------|-------|-------|
-------|-------|-------|-------|-------|-------|-------|
-------|-------|-------|-------|-------|-------|-------|
-------|-------|-------|-------|-------|-------|-------|
-------|-------|-------|-------|-------|-------|-------|
-------|-------|-------|-------|-------|-------|-------|


     Roope's Solo??                                     
     \1/              PM PM    PM                       
     H           Q    E  E     E  E  E  E  E  E  E  E   
----------------------------|--------------------------|
----------------------------|--------------------------|
--<>14-----------L----------|--------------------------|
----------------------7--6--|-----------6--------------|
----------------------------|--9--7--9-----9--7--5-----|
----------------------------|-----------------------9--|


   PM PM PM    PM PM       PM                      
   S  S  S  S  S  S  S  S  S  S  S  S  S  S  S  S  
--------------------------------------------------|
--------------------------------------------------|
--------------------------------------------------|
--------------------------------------13----14-13-|
-----------14-------14-16-14-14-16-14----16-------|
--14-16-17----16-17-------------------------------|


   S  S  S  S  S  S  S  S  S  S  S  S  S  S  S  S  
--------------------------------------14-16-17-19-|
-----------------------------15-16-17-------------|
--------13----14-13-16-14-17----------------------|
--16-14----16-------------------------------------|
--------------------------------------------------|
--------------------------------------------------|


                                             T     
   3   3       3  3                    3  3        
   S   S   S   S  S  Q     S   S   S   S  S  Q     
--21p-19p-17p-14-17-21----19p-17p-14h-17-19-23----|
--------------------------------------------------|
--------------------------------------------------|
--------------------------------------------------|
--------------------------------------------------|
--------------------------------------------------|


   S   S   S   S  Q      S   S  E  E.  S  
--19p-17p-14h-17-24b----19S-17b-L--L-----|
-----------------------------------------|
-----------------------------------------|
-----------------------------------------|
-----------------------------------------|
-----------------------------------------|


   S  S  S  S  S  S  S  S  S  S  S  S  S  S  S  S  
--------------------------------------------------|
--17-15-14----15-14-------14----------------------|
-----------16-------16-14----16-14-13-16-14-13----|
-----------------------------------------------16-|
--------------------------------------------------|
--------------------------------------------------|


   S  S  S  S  S  S  S  S  S  S  S  S  S  S  S  S  
--------------------------------------------------|
--------------------------------------------------|
--14-13-------13----------------------------------|
--------16-14----16-14-13-16-14-13----14-13-------|
-----------------------------------16-------16-14-|
--------------------------------------------------|


   S  S  S  S  S  S  S  S  S  S  S  S  S  S  S  S  
--------------------------------------------------|
--------------------------------------------------|
--------------------------------13-14-16-13-14-16-|
-----------------12-14-16-14-16-------------------|
--16-14-12-14-16----------------------------------|
--------------------------------------------------|


   S  S  S  S  S  S  S  S  H            E  E  E  E  E  E  E  E           
--------------------14-16-17\--------|--------------------------|-------|
--14-15-17-14-15-17------------------|--------------------------|-------|
-------------------------------------|--------------------------|-------|
-------------------------------------|--------------------------|-------|
-------------------------------------|--2--2--------------2--2--|-------|
-------------------------------------|--0--0--------------0--0--|-------|


  E  E  E  E  E  E  E  E             E  E  E  E  E  E  E  E           
--------------------------|-------|--------------------------|-------|
--------------------------|-------|--------------------------|-------|
--------------------------|-------|--------------------------|-------|
--------------------------|-------|--------------------------|-------|
--5--5--------------5--5--|-------|--2--2--------------2--2--|-------|
--3--3--------------2--2--|-------|--0--0--------------0--0--|-------|


  E  E  E  E  E  E  E  E                                                   
--------------------------|-------|-------|-------|-------|-------|-------|
--------------------------|-------|-------|-------|-------|-------|-------|
--------------------------|-------|-------|-------|-------|-------|-------|
--------------------------|-------|-------|-------|-------|-------|-------|
--5--5--------------5--5--|-------|-------|-------|-------|-------|-------|
--3--3--------------2--2--|-------|-------|-------|-------|-------|-------|


                       W                                                    
                  E    H        Q.        H                                 
-------|-------|-----------------------|-----------|-------|-------|-------|
-------|-------|-----------------------|-----------|-------|-------|-------|
-------|-------|-----<>9--------L------|--L--------|-------|-------|-------|
-------|-------|-----------------------|-----------|-------|-------|-------|
-------|-------|-----------------------|-----------|-------|-------|-------|
-------|-------|-----------------------|-----------|-------|-------|-------|


-------|-------|-------|-------|-------|-------|-------|-------|-------|-------|
-------|-------|-------|-------|-------|-------|-------|-------|-------|-------|
-------|-------|-------|-------|-------|-------|-------|-------|-------|-------|
-------|-------|-------|-------|-------|-------|-------|-------|-------|-------|
-------|-------|-------|-------|-------|-------|-------|-------|-------|-------|
-------|-------|-------|-------|-------|-------|-------|-------|-------|-------|


                    NH                                                        
                    W                   W                   W                 
-------|-------|--<>5----------------|--L----------------|--L----------------|
-------|-------|---------------------|-------------------|-------------------|
-------|-------|---------------------|-------------------|-------------------|
-------|-------|---------------------|-------------------|-------------------|
-------|-------|---------------------|-------------------|-------------------|
-------|-------|---------------------|-------------------|-------------------|


   \1/                                                                    
   W                    W                                                 
--------------------|--21----------------|-------|-------|-------|-------|
--22----------------|--------------------|-------|-------|-------|-------|
--------------------|--------------------|-------|-------|-------|-------|
--------------------|--------------------|-------|-------|-------|-------|
--------------------|--------------------|-------|-------|-------|-------|
--------------------|--------------------|-------|-------|-------|-------|


-------|-------|-------|-------|-------|-------|-------|-------|-------|-------|
-------|-------|-------|-------|-------|-------|-------|-------|-------|-------|
-------|-------|-------|-------|-------|-------|-------|-------|-------|-------|
-------|-------|-------|-------|-------|-------|-------|-------|-------|-------|
-------|-------|-------|-------|-------|-------|-------|-------|-------|-------|
-------|-------|-------|-------|-------|-------|-------|-------|-------|-------|


                                               PM PM PM  PM      PM  PM      
                                           E   S  S  E   E   E   E   E   E   
-------|-------|-------|-------|-------|------------------------------------|
-------|-------|-------|-------|-------|------------------------------------|
-------|-------|-------|-------|-------|------------------------------------|
-------|-------|-------|-------|-------|--------------------------------16--|
-------|-------|-------|-------|-------|--16--16-16-16--16--19--16--16------|
-------|-------|-------|-------|-------|------------------------------------|


   PM  PM      PM      PM                PM PM PM  PM      PM  PM      
   E   E   E   E   E   E   E   E     E   S  S  E   E   E   E   E   E   
----------------------------------|-----------------------------------|
----------------------------------|-----------------------------------|
----------------------------------|-------------------16----------18--|
----------18------19------16--18--|--L--18-18-18--18------18--18------|
--16--16------16------16----------|-----------------------------------|
----------------------------------|-----------------------------------|


   PM                                 
   E   E   E   E   E    E    E    E   
--------------19--16s--19s--16s--19--|
------16--17-------------------------|
--16---------------------------------|
-------------------------------------|
-------------------------------------|
-------------------------------------|


   S  S  S  S  S  S  S  S  S  S  S  S  S  S  S  S  
--14-15-16-15-14----------------------------------|
-----------------17-16-14-16-17-16-14-16-14-------|
--------------------------------------------16-14-|
--------------------------------------------------|
--------------------------------------------------|
--------------------------------------------------|


   S  S  S  S  S  S  S  S  S  S  S  S  S  S  S  S  
--------------------------------------------------|
--------------------------------------------------|
--13-14-16-14-13----------------------------------|
-----------------16-14-13-14-16-14-13-14-13-------|
--------------------------------------------16-14-|
--------------------------------------------------|


   E   E    E   E   E    E   E   E       E   E   E   E   H          
-------------------------------------|----------21------21b--------|
-------------------------------------|--------------20-------------|
---------------18-----------20-------|------21---------------------|
------13s--14------14s--16------16s--|--18-------------------------|
--16---------------------------------|-----------------------------|
-------------------------------------|-----------------------------|


   H          H          H             E   E   E   E   E   E   E   E   
--21b--------21b--------21b--------|------17--21--17--19--------------|
-----------------------------------|--19------------------21--17--19--|
-----------------------------------|----------------------------------|
-----------------------------------|----------------------------------|
-----------------------------------|----------------------------------|
-----------------------------------|----------------------------------|


   E   E   E   E   E   E   E   E      E   E   E   E   E   E   E   E   
--21--17--19------------------17--|------17--21--17--19--------------|
--------------21--17--19--21------|--19------------------21--17--19--|
----------------------------------|----------------------------------|
----------------------------------|----------------------------------|
----------------------------------|----------------------------------|
----------------------------------|----------------------------------|


   E   E   E   E   E   E   E   E   
--21--17--19------------------17--|
--------------21--17--19--21------|
----------------------------------|
----------------------------------|
----------------------------------|
----------------------------------|


   S  S  S  S  S  S  S  S  S  S  S  S  S  S  S  S  
--19-21-19-17-19-17-------------------------------|
--------------------21-19-17-19-21-19-17----------|
-----------------------------------------19-18-16-|
--------------------------------------------------|
--------------------------------------------------|
--------------------------------------------------|


   S  S  S  S  S  S  S  S  S  S  S  S  S  S  S  S  
--------------------------------------------------|
--------------------------------------------19-21-|
--18-19-18-16-18-16----------------18-19-21-------|
--------------------19-18-17-19-21----------------|
--------------------------------------------------|
--------------------------------------------------|


   E   E   E   E   E   E   E   E      E   E   E   E   E   E   E   E   
------17--21--17--19--------------|--21--17--------------------------|
--19------------------21--17--19--|----------21--19--17--------------|
----------------------------------|----------------------19--18--16--|
----------------------------------|----------------------------------|
----------------------------------|----------------------------------|
----------------------------------|----------------------------------|


   S  S  S  S  S  S  S  S  S  S  S  S  S  S  S  S  
--------------------------------------------------|
--------------------------17----------------17-19-|
-----------------16-18-19----19-18-16-18-19-------|
--19-18-16-18-19----------------------------------|
--------------------------------------------------|
--------------------------------------------------|


   S  S  S  S  S  S  S  S  S  S  S  S   S  S  S  S     H         H         
-----------------17-19-21-19----17-19S-21-17-19-21-|--20\-----------------|
--21-19-17-19-21-------------21--------------------|----------------------|
---------------------------------------------------|----------------------|
---------------------------------------------------|----------------------|
---------------------------------------------------|----------------------|
---------------------------------------------------|----------------------|


-------|-------|-------|-------|-------|-------|-------|-------|-------|-------|
-------|-------|-------|-------|-------|-------|-------|-------|-------|-------|
-------|-------|-------|-------|-------|-------|-------|-------|-------|-------|
-------|-------|-------|-------|-------|-------|-------|-------|-------|-------|
-------|-------|-------|-------|-------|-------|-------|-------|-------|-------|
-------|-------|-------|-------|-------|-------|-------|-------|-------|-------|


-------|-------|-------|-------|-------|-------|-------|-------|-------|-------|
-------|-------|-------|-------|-------|-------|-------|-------|-------|-------|
-------|-------|-------|-------|-------|-------|-------|-------|-------|-------|
-------|-------|-------|-------|-------|-------|-------|-------|-------|-------|
-------|-------|-------|-------|-------|-------|-------|-------|-------|-------|
-------|-------|-------|-------|-------|-------|-------|-------|-------|-------|


                                                   E    E   E  E  H          
-------|-------|-------|-------|-------|-------|--14---14---L--------------||
-------|-------|-------|-------|-------|-------|--17b--17b--L--------------||
-------|-------|-------|-------|-------|-------|---------------------------||
-------|-------|-------|-------|-------|-------|---------------------------||
-------|-------|-------|-------|-------|-------|---------------------------||
-------|-------|-------|-------|-------|-------|---------------------------||


LEAD 2+++++++++++++++++++++++++++++++++++++++++++

                    Done With Everything, Die For Nothing                       


                                                               Children Of Bodom
Gtr IV



D||-------|-------|-------|-------|-------|-------|-------|-------|-------|
A||-------|-------|-------|-------|-------|-------|-------|-------|-------|
F||-------|-------|-------|-------|-------|-------|-------|-------|-------|
C||-------|-------|-------|-------|-------|-------|-------|-------|-------|
G||-------|-------|-------|-------|-------|-------|-------|-------|-------|
D||-------|-------|-------|-------|-------|-------|-------|-------|-------|


-------|-------|-------|-------|-------|-------|-------|
-------|-------|-------|-------|-------|-------|-------|
-------|-------|-------|-------|-------|-------|-------|
-------|-------|-------|-------|-------|-------|-------|
-------|-------|-------|-------|-------|-------|-------|
-------|-------|-------|-------|-------|-------|-------|


   S  S S  S  S S  S  S  S  S S  S  S S  S  S  
----------------------------------------------|
----------------------------------------------|
------------------------------9-11-13-9-11-13-|
----------------9-11-12-11-12-----------------|
--12-11-9-11-12-------------------------------|
----------------------------------------------|


   S  S  S  S  S  S  S  S  H                                                  
--------------------10-12-14\--------|-------|-------|-------|-------|-------|
--10-12-14-10-12-14------------------|-------|-------|-------|-------|-------|
-------------------------------------|-------|-------|-------|-------|-------|
-------------------------------------|-------|-------|-------|-------|-------|
-------------------------------------|-------|-------|-------|-------|-------|
-------------------------------------|-------|-------|-------|-------|-------|


-------|-------|-------|-------|-------|-------|-------|-------|-------|-------|
-------|-------|-------|-------|-------|-------|-------|-------|-------|-------|
-------|-------|-------|-------|-------|-------|-------|-------|-------|-------|
-------|-------|-------|-------|-------|-------|-------|-------|-------|-------|
-------|-------|-------|-------|-------|-------|-------|-------|-------|-------|
-------|-------|-------|-------|-------|-------|-------|-------|-------|-------|


-------|-------|-------|-------|-------|-------|-------|-------|-------|-------|
-------|-------|-------|-------|-------|-------|-------|-------|-------|-------|
-------|-------|-------|-------|-------|-------|-------|-------|-------|-------|
-------|-------|-------|-------|-------|-------|-------|-------|-------|-------|
-------|-------|-------|-------|-------|-------|-------|-------|-------|-------|
-------|-------|-------|-------|-------|-------|-------|-------|-------|-------|


-------|-------|-------|-------|-------|-------|-------|-------|-------|-------|
-------|-------|-------|-------|-------|-------|-------|-------|-------|-------|
-------|-------|-------|-------|-------|-------|-------|-------|-------|-------|
-------|-------|-------|-------|-------|-------|-------|-------|-------|-------|
-------|-------|-------|-------|-------|-------|-------|-------|-------|-------|
-------|-------|-------|-------|-------|-------|-------|-------|-------|-------|


                           S  S  S  S  S  S  S  S  S  S  S S  S  S S  S  
-------|-------|-------|------------------------------------------------|
-------|-------|-------|--14-12-10----12-10-------10--------------------|
-------|-------|-------|-----------13-------13-11----13-11-9-13-11-9----|
-------|-------|-------|---------------------------------------------12-|
-------|-------|-------|------------------------------------------------|
-------|-------|-------|------------------------------------------------|


   S S  S  S S  S  S S  S  S S  S  S S  S  S  
---------------------------------------------|
---------------------------------------------|
--11-9-------9-------------------------------|
-------12-11---12-11-9-12-11-9----11-9-------|
-------------------------------12------12-11-|
---------------------------------------------|


   S  S S  S  S S  S  S  S  S S  S  S S  S  S  
----------------------------------------------|
----------------------------------------------|
------------------------------9-11-13-9-11-13-|
----------------9-11-12-11-12-----------------|
--12-11-9-11-12-------------------------------|
----------------------------------------------|


   S  S  S  S  S  S  S  S  H                                                  
--------------------10-12-13\--------|-------|-------|-------|-------|-------|
--10-12-14-10-12-14------------------|-------|-------|-------|-------|-------|
-------------------------------------|-------|-------|-------|-------|-------|
-------------------------------------|-------|-------|-------|-------|-------|
-------------------------------------|-------|-------|-------|-------|-------|
-------------------------------------|-------|-------|-------|-------|-------|







Duration Legend
---------------
W - whole
H - half
Q - quarter
E - 8th
S - 16th
T - 32nd
X - 64th
. - note dotted
|-n-|  - n-tuplets


Tablature Legend
----------------
L - tied note
x - dead note
g - grace note
(n) - ghost note
> - accentuded note
NH - natural harmonic
AH - artificial harmonic
TH - tapped harmonic
SH - semi harmonic
PH - pitch harmonic
h - hammer on
p - pull off
b - bend
br - bendRelease
pb - preBend
pbr - preBendRelease
brb - bendReleaseBend
\n/ - tremolo bar dip
\n - tremolo bar dive
-/n - tremolo bar Release up
/n\ - tremolo bar inverted dip
/n - tremolo bar return
-\n - tremolo bar Release down
S - shift slide
s - legato slide
/ -  slide into from below or out of upwards
\ -  slide into from above or out of downwards
~ - vibrato
W - wide vibrato
tr - trill
TP - tremolo picking
T - tapping
S - slap
P - pop
< - fade in
^ - brush up
v - brush down
comments
print report bad tab
I want to post or [tab]
guest
You may want to rate the tab now too:
select rating
Please do not post tabs as comments. Select "correction" instead!