Oops, an error
Loading. Please wait.

Downfall Tab

ver1
ver1
More versions @911Tabs.com
26,379 views 36 this week
2 commentsread comments
1 2 3 4 5
accurate
x 6
Autoscroll
+/-
esc
set tempo
stop
Contributor
Tuning
D G C F A D
Hey! There's an official Ultimate Guitar app which is ideal
for learning songs when you're away from computer. Get the app
WARNING: You are trying to view
                                    content from Ultimate-Guitar.com
                                    in an unauthorized application,
                                    which is prohibited.

                                    Please use an official Ultimate
                                    Guitar Tabs application for iPhone,
                                    iPad or Android to access legitimate
                                    chords, guitar, bass, and drum tabs
                                    from Ultimate-Guitar.com database.

                                    Type "ultimate guitar tabs" in Apple
                                    App Store's or Android Market's
                                    search to find the application.
#----------------------------------PLEASE NOTE---------------------------------#
#This file is the author's own work and represents their interpretation of the #
#song. You may only use this file for private study, scholarship, or research. #
#------------------------------------------------------------------------------#

DOWNFALL
As recorded by Children of Bodom
(From the 1999 Album HATEBREEDER)

Transcribed by Rhythman
	

Words and Music by Children of Bodom
Arranged by Children of Bodom

F5
1 3 3 x x x
	
A5
5 7 7 x x x
	
F5VIII
x 8 10 x x x
	
G5
3 5 5 x x x

E5
0 2 2 x x x
	
C5
x 3 5 x x x
	
E5VII
x 7 9 x x x
	
Bb5
6 8 8 x x x

Eb5
x 6 8 x x x
	
F#5
x 9 11 x x x
	
A5XII
x 12 14 x x x
	
D5
x 5 7 x x x

B5
x 2 4 x x x
	
F#5II
2 4 x x x x

Gtr I (D G C F A D) - 'Alexi Laiho'
Gtr II (D G C F A D) - 'Alexander Kuoppala'
Gtr III (D G C F A D) - 'Janne Warman Pad 1 (new age)'
Gtr IV (D G C F A D) - 'Janne Warman Electric Grand'
Gtr V (D G C F A D) - 'Janne Warman Orchestra Hit'
Gtr VI (D G C F A D) - 'Janne Warman Lead 1 (square)'

 Intro
  Q=200
  N.C.
 4/4
  Gtr I
   W                         W
|-------------------------|-------------------------|
|-------------------------|-------------------------|
|-------------------------|-------------------------|
|-------------------------|-------------------------|
|-------------------------|-------------------------|
|-------------------------|-------------------------|
|
| Gtr III
|  E  E  E  E  E  E  E  E    E  E  E  E  E  E  E  E
|-17-12-------17-12-------|-17-12-------17-12-------|
|-------------------------|-------------------------|
|-------14----------14----|-------14----------14----|
|----------14----------14-|----------14----------14-|
|-------------------------|-------------------------|
|-------------------------|-------------------------|


                                   PM|
   W                         Q     E  E  Q      Q
|-------------------------|---------------------------|
|-------------------------|---------------------------|
|-------------------------|---------------------------|
|-------------------------|--x------------------------|
|-------------------------|--x------------------------|
|-------------------------|--x-----0--0-17\-----x-----|
|
|  E  E  E  E  E  E  E  E    E  E  E  E  E   E  E  E
|-17-12-------17-12-------|-17-12-------17--12--------|
|-------------------------|---------------------------|
|-------14----------14----|-------14-----------14-----|
|----------14----------14-|----------14-----------14--|
|-------------------------|---------------------------|
|-------------------------|---------------------------|


      PM---|      PM---|        PM|      PM---|
   E  E  E  E  E  E  E  E    E  E  E  E  E  E  E  E
|-------------------------|-------------------------|
|-------------------------|-------------------------|
|-------------------------|-------------------------|
|-10-----------9----------|--7--------7-----------7-|
|-----0--7-10-----0--7-10-|-----7-10-----0--7-10----|
|-------------------------|-------------------------|
|
|  E  E  E  E  E  E  E  E    E  E  E  E  E  E  E  E
|-17-12-------17-12-------|-17-12-------17-12-------|
|-------------------------|-------------------------|
|-------14----------14----|-------14----------14----|
|----------14----------14-|----------14----------14-|
|-------------------------|-------------------------|
|-------------------------|-------------------------|


      PM---|      PM---|        PM|      PM---|
   E  E  E  E  E  E  E  E    E  E  E  E  E  E  E  E
|-------------------------|-------------------------|
|-------------------------|-------------------------|
|-------------------------|-------------------------|
|-10-----------9----------|--7--------7-----------7-|
|-----0--7-10-----0--7-10-|-----7-10-----0--7-10----|
|-------------------------|-------------------------|
|
|  E  E  E  E  E  E  E  E    E  E  E  E  E  E  E  E
|-17-12-------17-12-------|-17-12-------17-12-------|
|-------------------------|-------------------------|
|-------14----------14----|-------14----------14----|
|----------14----------14-|----------14----------14-|
|-------------------------|-------------------------|
|-------------------------|-------------------------|


  F5
  Gtr I
      PM---|      PM---|         PM|      PM---|
   E  E  E  E  E  E  E  E    E   E  E  E  E  E  E  E
|-------------------------|--------------------------|
|-------------------------|--------------------------|
|-------------------------|--------------------------|
|-10-----------9----------|--7---------7-----------7-|
|-----0--7-10-----0--7-10-|------7-10-----0--7-10----|
|-------------------------|--------------------------|
|
| Gtr II
|  W                        +W
|-------------------------|--------------------------|
|-------------------------|--------------------------|
|-------------------------|--------------------------|
|-------------------------|--------------------------|
|--3----------------------|-(3)----------------------|
|--1----------------------|-(1)----------------------|
|
| Gtr III
|  E  E  E  E  E  E  E  E    E   E  E  E  E  E  E  E
|-17-13-------17-13-------|-17--13-------17-13-------|
|-------13----------13----|--------13----------13----|
|----------14----------14-|-----------14----------14-|
|-------------------------|--------------------------|
|-------------------------|--------------------------|
|-------------------------|--------------------------|


      PM----|      PM---|        PM|      PM|
   E  E  E   E  E  E  E  E    E  E  E  E  E  E  E  E
|--------------------------|-------------------------|
|--------------------------|-------------------------|
|--------------------------|-------------------------|
|-10------------9----------|--7--------7-------10p=9-|
|-----0--7--10-----0--7-10-|-----7-10-----0--7-------|
|--------------------------|-------------------------|
|
|                                         PM|
|  Q     H.                   H           E  E  Q
|--------------------------|-------------------------|
|--------------------------|-------------------------|
|--------------------------|-------------------------|
|--------------------------|-------------------------|
|--3-----------------------|-------------------------|
|--1-----------------------|--------------0--0-------|
|
|  E  E  E   E  E  E  E  E    E  E  E  E  E  E  E  E
|-20-13--------19-13-------|-17-13-------17-13-------|
|-------13-----------13----|-------13----------13----|
|-----------14----------14-|----------14----------14-|
|--------------------------|-------------------------|
|--------------------------|-------------------------|
|--------------------------|-------------------------|


  A5
      PM---|      PM---|         PM|      PM---|
   E  E  E  E  E  E  E  E    E   E  E  E  E  E  E  E
|-------------------------|--------------------------|
|-------------------------|--------------------------|
|-------------------------|--------------------------|
|-10-----------9----------|--7---------7-----------7-|
|-----0--7-10-----0--7-10-|------7-10-----0--7-10----|
|-------------------------|--------------------------|
|
|  W                        +W
|-------------------------|--------------------------|
|-------------------------|--------------------------|
|-------------------------|--------------------------|
|-------------------------|--------------------------|
|--7----------------------|-(7)----------------------|
|--5----------------------|-(5)----------------------|
|
|  E  E  E  E  E  E  E  E    E   E  E  E  E  E  E  E
|-17-12-------17-12-------|-17--12-------17-12-------|
|-------------------------|--------------------------|
|-------14----------14----|--------14----------14----|
|----------14----------14-|-----------14----------14-|
|-------------------------|--------------------------|
|-------------------------|--------------------------|


      PM----|      PM---|        PM|      PM---|
   E  E  E   E  E  E  E  E    E  E  E  E  E  E  E  E
|--------------------------|-------------------------|
|--------------------------|-------------------------|
|--------------------------|-------------------------|
|-10------------9----------|--7--------7-----------7-|
|-----0--7--10-----0--7-10-|-----7-10-----0--7-10----|
|--------------------------|-------------------------|
|
|  Q     H.                   W
|--------------------------|-------------------------|
|--------------------------|-------------------------|
|--------------------------|-------------------------|
|--------------------------|-------------------------|
|--7-----------------------|-------------------------|
|--5-----------------------|-------------------------|
|
|  E  E  E   E  E  E  E  E    E  E  E  E  E  E  E  E
|-17-12--------17-12-------|-17-12-------17-12-------|
|--------------------------|-------------------------|
|-------14-----------14----|-------14----------14----|
|-----------14----------14-|----------14----------14-|
|--------------------------|-------------------------|
|--------------------------|-------------------------|


  F5
      PM---|      PM---|         PM|      PM---|
   E  E  E  E  E  E  E  E    E   E  E  E  E  E  E  E
|-------------------------|--------------------------|
|-------------------------|--------------------------|
|-------------------------|--------------------------|
|-10-----------9----------|--7---------7-----------7-|
|-----0--7-10-----0--7-10-|------7-10-----0--7-10----|
|-------------------------|--------------------------|
|
|  W                        +W
|-------------------------|--------------------------|
|-------------------------|--------------------------|
|-------------------------|--------------------------|
|-------------------------|--------------------------|
|--3----------------------|-(3)----------------------|
|--1----------------------|-(1)----------------------|
|
|  E  E  E  E  E  E  E  E    E   E  E  E  E  E  E  E
|-17-13-------17-13-------|-17--13-------17-13-------|
|-------13----------13----|--------13----------13----|
|----------14----------14-|-----------14----------14-|
|-------------------------|--------------------------|
|-------------------------|--------------------------|
|-------------------------|--------------------------|


      PM----|      PM---|        PM|      PM|
   E  E  E   E  E  E  E  E    E  E  E  E  E  E  E  E
|--------------------------|-------------------------|
|--------------------------|-------------------------|
|--------------------------|-------------------------|
|-10------------9----------|--7--------7-------10p=9-|
|-----0--7--10-----0--7-10-|-----7-10-----0--7-------|
|--------------------------|-------------------------|
|
|  PM|
|  E  E  H.                   W
|--------------------------|-------------------------|
|--------------------------|-------------------------|
|--------------------------|-------------------------|
|--------------------------|-------------------------|
|--3--3--------------------|-------------------------|
|--1--1--------------------|-------------------------|
|
|  E  E  E   E  E  E  E  E    E  E  E  E  E  E  E  E
|-20-13--------19-13-------|-17-13-------17-13-------|
|-------13-----------13----|-------13----------13----|
|-----------14----------14-|----------14----------14-|
|--------------------------|-------------------------|
|--------------------------|-------------------------|
|--------------------------|-------------------------|


  A5
      PM---|      PM---|        PM|      PM---|
   E  E  E  E  E  E  E  E    E  E  E  E  E  E  E  E
|-------------------------|-------------------------|
|-------------------------|-------------------------|
|-------------------------|-------------------------|
|-10-----------9----------|--7--------7-----------7-|
|-----0--7-10-----0--7-10-|-----7-10-----0--7-10----|
|-------------------------|-------------------------|
|
|  E  E  E  E  E  E  E  E    E  E  E  E  E  E  E  E
|-------------------------|-------------------------|
|-------------------------|-------------------------|
|-------------------------|-------------------------|
|-------------------------|-------------------------|
|--7--7--7--7--7--7--7--7-|--7--7--7--7--7--7--7--7-|
|--5--5--5--5--5--5--5--5-|--5--5--5--5--5--5--5--5-|
|
|  E  E  E  E  E  E  E  E    E  E  E  E  E  E  E  E
|-17-12-------17-12-------|-17-12-------17-12-------|
|-------------------------|-------------------------|
|-------14----------14----|-------14----------14----|
|----------14----------14-|----------14----------14-|
|-------------------------|-------------------------|
|-------------------------|-------------------------|


      PM---|      PM---|          PM--|          PM---------|
   E  E  E  E  E  E  E  E    E    E    E    E    E     E     E    E
|-------------------------|--------------------------------------------|
|-------------------------|--------------------------------------------|
|-------------------------|--------------------------------------------|
|-10-----------9----------|--7--------------7---------------------7----|
|-----0--7-10-----0--7-10-|-------7---10---------0-----7----10---------|
|-------------------------|--------------------------------------------|
|
|  E  E  E  E  E  E  E  E    S S  S S  S S  S S  S  S  S  S  S S  S S
|-------------------------|--------------------------------------------|
|-------------------------|--------------------------------------------|
|-------------------------|--------------------------------------------|
|-------------------------|--------------------------------------------|
|--7--7--7--7--7--7--7--7-|----------------------------------7-7--7-7--|
|--5--5--5--5--5--5--5--5-|--7-7--7-7--8-8--8-8-10-10-10-10------------|
|
|  E  E  E  E  E  E  E  E    E    E    E    E    E     E     E    E
|-17-12-------17-12-------|-17---12-------------17----12---------------|
|-------------------------|--------------------------------------------|
|-------14----------14----|-----------14--------------------14---------|
|----------14----------14-|----------------14--------------------14----|
|-------------------------|--------------------------------------------|
|-------------------------|--------------------------------------------|


  F5VIII
      PM---|      PM---|        PM|      PM---|
   E  E  E  E  E  E  E  E    E  E  E  E  E  E  E  E
|-------------------------|-------------------------|
|-------------------------|-------------------------|
|-------------------------|-------------------------|
|-10-----------9----------|--7--------7-----------7-|
|-----0--7-10-----0--7-10-|-----7-10-----0--7-10----|
|-------------------------|-------------------------|
|
|  E  E  E  E  E  E  E  E    E  E  E  E  E  E  E  E
|-------------------------|-------------------------|
|-------------------------|-------------------------|
|-------------------------|-------------------------|
|-10-10-10-10-10-10-10-10-|-10-10-10-10-10-10-10-10-|
|--8--8--8--8--8--8--8--8-|--8--8--8--8--8--8--8--8-|
|-------------------------|-------------------------|
|
|  E  E  E  E  E  E  E  E    E  E  E  E  E  E  E  E
|-17-13-------17-13-------|-17-13-------17-13-------|
|-------13----------13----|-------13----------13----|
|----------14----------14-|----------14----------14-|
|-------------------------|-------------------------|
|-------------------------|-------------------------|
|-------------------------|-------------------------|


      PM---|      PM---|        PM|      PM|
   E  E  E  E  E  E  E  E    E  E  E  E  E  E  E  E
|-------------------------|-------------------------|
|-------------------------|-------------------------|
|-------------------------|-------------------------|
|-10-----------9----------|--7--------7-------10p=9-|
|-----0--7-10-----0--7-10-|-----7-10-----0--7-------|
|-------------------------|-------------------------|
|
|  E  E  E  E  E  E  E  E    E  E  E  E  E  E  E  E
|-------------------------|-------------------------|
|-------------------------|-------------------------|
|-------------------------|-------------------------|
|-10-10-10-10-10-10-10-10-|-10-10-10-10-10-10-10-10-|
|--8--8--8--8--8--8--8--8-|--8--8--8--8--8--8--8--8-|
|-------------------------|-------------------------|
|
|  E  E  E  E  E  E  E  E    E  E  E  E  E  E  E  E
|-20-13-------19-13-------|-17-13-------17-13-------|
|-------13----------13----|-------13----------13----|
|----------14----------14-|----------14----------14-|
|-------------------------|-------------------------|
|-------------------------|-------------------------|
|-------------------------|-------------------------|


  A5
      PM---|      PM---|        PM|      PM---|
   E  E  E  E  E  E  E  E    E  E  E  E  E  E  E  E
|-------------------------|-------------------------|
|-------------------------|-------------------------|
|-------------------------|-------------------------|
|-10-----------9----------|--7--------7-----------7-|
|-----0--7-10-----0--7-10-|-----7-10-----0--7-10----|
|-------------------------|-------------------------|
|
|  E  E  E  E  E  E  E  E    E  E  E  E  E  E  E  E
|-------------------------|-------------------------|
|-------------------------|-------------------------|
|-------------------------|-------------------------|
|-------------------------|-------------------------|
|--7--7--7--7--7--7--7--7-|--7--7--7--7--7--7--7--7-|
|--5--5--5--5--5--5--5--5-|--5--5--5--5--5--5--5--5-|
|
|  E  E  E  E  E  E  E  E    E  E  E  E  E  E  E  E
|-17-12-------17-12-------|-17-12-------17-12-------|
|-------------------------|-------------------------|
|-------14----------14----|-------14----------14----|
|----------14----------14-|----------14----------14-|
|-------------------------|-------------------------|
|-------------------------|-------------------------|


      PM---|      PM---|          PM--|          PM---------|
   E  E  E  E  E  E  E  E    E    E    E    E    E     E     E    E
|-------------------------|--------------------------------------------|
|-------------------------|--------------------------------------------|
|-------------------------|--------------------------------------------|
|-10-----------9----------|--7--------------7---------------------7----|
|-----0--7-10-----0--7-10-|-------7---10---------0-----7----10---------|
|-------------------------|--------------------------------------------|
|
|  E  E  E  E  E  E  E  E    S S  S S  S S  S S  S  S  S  S  S S  S S
|-------------------------|--------------------------------------------|
|-------------------------|--------------------------------------------|
|-------------------------|--------------------------------------------|
|-------------------------|--------------------------------------------|
|--7--7--7--7--7--7--7--7-|----------------------------------7-7--7-7--|
|--5--5--5--5--5--5--5--5-|--7-7--7-7--8-8--8-8-10-10-10-10------------|
|
|  E  E  E  E  E  E  E  E    E    E    E    E    E     E     E    E
|-17-12-------17-12-------|-17---12-------------17----12---------------|
|-------------------------|--------------------------------------------|
|-------14----------14----|-----------14--------------------14---------|
|----------14----------14-|----------------14--------------------14----|
|-------------------------|--------------------------------------------|
|-------------------------|--------------------------------------------|


  F5VIII
      PM---|      PM---|        PM|      PM---|
   E  E  E  E  E  E  E  E    E  E  E  E  E  E  E  E
|-------------------------|-------------------------|
|-------------------------|-------------------------|
|-------------------------|-------------------------|
|-10-----------9----------|--7--------7-----------7-|
|-----0--7-10-----0--7-10-|-----7-10-----0--7-10----|
|-------------------------|-------------------------|
|
|  E  E  E  E  E  E  E  E    E  E  E  E  E  E  E  E
|-------------------------|-------------------------|
|-------------------------|-------------------------|
|-------------------------|-------------------------|
|-10-10-10-10-10-10-10-10-|-10-10-10-10-10-10-10-10-|
|--8--8--8--8--8--8--8--8-|--8--8--8--8--8--8--8--8-|
|-------------------------|-------------------------|
|
|  E  E  E  E  E  E  E  E    E  E  E  E  E  E  E  E
|-17-13-------17-13-------|-17-13-------17-13-------|
|-------13----------13----|-------13----------13----|
|----------14----------14-|----------14----------14-|
|-------------------------|-------------------------|
|-------------------------|-------------------------|
|-------------------------|-------------------------|


                                        G5 F5
      PM---|      PM---|        PM|      PM|
   E  E  E  E  E  E  E  E    E  E  E  E  E E Q
|-------------------------|---------------------|
|-------------------------|---------------------|
|--9-----------7----------|--5--------5---------|
|-10-----------9----------|--7--------7---------|
|-----0--7-10-----0--7-10-|-----7-10-----5-3----|
|-------------------------|--------------3-1----|
|
|                                        PM|
|  E  E  E  E  E  E  E  E    E  E  E  E  E E Q
|-------------------------|---------------------|
|-------------------------|---------------------|
|-------------------------|---------------------|
|-10-10-10-10-10-10-10-10-|-10-10-10-10---------|
|--8--8--8--8--8--8--8--8-|--8--8--8--8--5-3----|
|-------------------------|--------------3-1----|
|
|  E  E  E  E  E  E  E  E    E  E  E  E  H
|-20-13-------19-13-------|-17-13-------17------|
|-------13----------13----|-------13------------|
|----------14----------14-|----------14---------|
|-------------------------|---------------------|
|-------------------------|---------------------|
|-------------------------|---------------------|


  E5         F5          A5          C5
  W           W           W           W
|----------|-----------|-----------|-----------|
|----------|-----------|-----------|-----------|
|----------|-----------|-----------|-----------|
|----------|-----------|-----------|--5--------|
|-2--------|--3--------|--7--------|--3--------|
|-0--------|--1--------|--5--------|-----------|
|
| W           W           W           W
|----------|-----------|-----------|-----------|
|----------|-----------|-----------|-----------|
|----------|-----------|-----------|-----------|
|----------|-----------|-----------|--5--------|
|-2--------|--3--------|--7--------|--3--------|
|-0--------|--1--------|--5--------|-----------|
|
| Gtr IV
| W           W           W           W
|-7--------|--8--------|-12--------|-15--------|
|-8--------|-10--------|-13--------|-17--------|
|-9--------|-10--------|-14--------|-17--------|
|----------|-----------|-----------|-----------|
|----------|-----------|-----------|-----------|
|----------|-----------|-----------|-----------|


  F5          A5          C5          E5VII
   W           W           W           W
|-----------|-----------|-----------|-------||
|-----------|-----------|-----------|-------||
|-----------|-----------|-----------|-------||
|-----------|-----------|--5--------|--9----||
|--3--------|--7--------|--3--------|--7----||
|--1--------|--5--------|-----------|-------||
|
|  W           W           W           W
|-----------|-----------|-----------|-------||
|-----------|-----------|-----------|-------||
|-----------|-----------|-12--------|-13----||
|-----------|-----------|--x--------|--x----||
|--3--------|--7--------|-10--------|-11----||
|--1--------|--5--------|-----------|-------||
|
|  W           W           W           W
|--8--------|-12--------|-15--------|-19----||
|-10--------|-13--------|-17--------|-20----||
|-10--------|-14--------|-17--------|-21----||
|-----------|-----------|-----------|-------||
|-----------|-----------|-----------|-------||
|-----------|-----------|-----------|-------||


   1st Verse
    (E)               (F)
    E E E E E E E E    E  E  E  E  E  E  E  E
||------------------|-------------------------|
||o-----------------|-------------------------|
||--9-9-9-9-9-9-9-9-|-10-10-10-10-10-10-10-10-|
||--x-x-x-x-x-x-x-x-|--x--x--x--x--x--x--x--x-|
||o-7-7-7-7-7-7-7-7-|--8--8--8--8--8--8--8--8-|
||------------------|-------------------------|
|
|   E E E E E E E E    E  E  E  E  E  E  E  E
||------------------|-------------------------|
||o-8-8-8-8-8-8-8-8-|-10-10-10-10-10-10-10-10-|
||--9-9-9-9-9-9-9-9-|-10-10-10-10-10-10-10-10-|
||------------------|-------------------------|
||o-----------------|-------------------------|
||------------------|-------------------------|
|
|   E E E E E E E E    E  E  E  E  E  E  E  E
||----------7-8-7---|--------------8-10--8----|
||o-------8-------8-|----------10----------10-|
||------9-----------|-------10----------------|
||----9-------------|----10-------------------|
||o-7---------------|--8----------------------|
||------------------|-------------------------|


  (A)                       (C)
   E  E  E  E  E  E  E  E    E  E  E  E  E  E  E  E
|-------------------------|--------------------------|
|-10-10-10-10-10-10-10-10-|-13-13-13-13-13-13-13-13--|
|--x--x--x--x--x--x--x--x-|--x--x--x--x--x--x--x--x--|
|--7--7--7--7--7--7--7--7-|-10-10-10-10-10-10-10-10--|
|-------------------------|--------------------------|
|-------------------------|--------------------------|
|
|  E  E  E  E  E  E  E  E    E  E  E  E  E  E  E  E
|-------------------------|--------------------------|
|-------------------------|--8--8--8--8--8--8--8--8--|
|--9--9--9--9--9--9--9--9-|--9--9--9--9--9--9--9--9--|
|-10-10-10-10-10-10-10-10-|--------------------------|
|-------------------------|--------------------------|
|-------------------------|--------------------------|
|
|  E  E  E  E  E  E  E  E    E  E  E  E  E  E  E  E
|-------------12-13-12----|-------------15-17-15-----|
|----------13----------13-|----------17----------17--|
|-------14----------------|-------17-----------------|
|----14-------------------|----17--------------------|
|-12----------------------|-15-----------------------|
|-------------------------|--------------------------|


  (F)                       (A)
   E  E  E  E  E  E  E  E    E  E  E  E  E  E  E  E
|-------------------------|-------------------------|
|-------------------------|-10-10-10-10-10-10-10-10-|
|-10-10-10-10-10-10-10-10-|--x--x--x--x--x--x--x--x-|
|--x--x--x--x--x--x--x--x-|--7--7--7--7--7--7--7--7-|
|--8--8--8--8--8--8--8--8-|-------------------------|
|-------------------------|-------------------------|
|
|  E  E  E  E  E  E  E  E    E  E  E  E  E  E  E  E
|-------------------------|-------------------------|
|-10-10-10-10-10-10-10-10-|-------------------------|
|-10-10-10-10-10-10-10-10-|--9--9--9--9--9--9--9--9-|
|-------------------------|-10-10-10-10-10-10-10-10-|
|-------------------------|-------------------------|
|-------------------------|-------------------------|
|
|  E  E  E  E  E  E  E  E    E  E  E  E  E  E  E  E
|--------------8-10--8----|-------------12-13-12----|
|----------10----------10-|----------13----------13-|
|-------10----------------|-------14----------------|
|----10-------------------|----14-------------------|
|--8----------------------|-12----------------------|
|-------------------------|-------------------------|


  (C)                       (E)
   E  E  E  E  E  E  E  E    E  E  E  E  E  E  E  E
|-------------------------|-12-12-12-12-12-12-12-12--||
|-13-13-13-13-13-13-13-13-|--x--x--x--x--x--x--x--x-o||
|--x--x--x--x--x--x--x--x-|--9--9--9--9--9--9--9--9--||
|-10-10-10-10-10-10-10-10-|--------------------------||
|-------------------------|-------------------------o||
|-------------------------|--------------------------||
|
|  E  E  E  E  E  E  E  E    E  E  E  E  E  E  E  E
|-------------------------|--------------------------||
|--8--8--8--8--8--8--8--8-|--8--8--8--8--8--8--8--8-o||
|--9--9--9--9--9--9--9--9-|--9--9--9--9--9--9--9--9--||
|-------------------------|--------------------------||
|-------------------------|-------------------------o||
|-------------------------|--------------------------||
|
|  E  E  E  E  E  E  E  E    E  E  E  E  E  E  E  E
|-------------15-17-15----|-------------19-20-19-----||
|----------17----------17-|----------20----------20-o||
|-------17----------------|-------21-----------------||
|----17-------------------|----21--------------------||
|-15----------------------|-19----------------------o||
|-------------------------|--------------------------||


  A5         Bb5   G5    A5
  Gtrs I, II
         PM|
   E  E  S S  E  E  E  E  E    W
|---------------------------|-------------------------|
|---------------------------|-------------------------|
|---------------------------|-------------------------|
|---------------------------|-------------------------|
|--7----------8-----5-----7-|-------------------------|
|--5-----5-5--6-----3-----5-|-------------------------|
|
| Gtr III
|  E  E  E    E  E  E  E  E    E  E  E  E  E  E  E  E
|-17-12---------17-12-------|-17-12-------17-12-------|
|---------------------------|-------------------------|
|-------14------------14----|-------14----------14----|
|------------14----------14-|----------14----------14-|
|---------------------------|-------------------------|
|---------------------------|-------------------------|


  Bb5        F5    G5    Bb5
         PM|
   E  E  S S  E  E  E  E  E    W
|---------------------------|-------------------------|
|---------------------------|-------------------------|
|---------------------------|-------------------------|
|---------------------------|-------------------------|
|--8----------3-----5-----8-|-------------------------|
|--6-----1-1--1-----3-----6-|-------------------------|
|
|  E  E  E    E  E  E  E  E    E  E  E  E  E  E  E  E
|-18-13---------18-13-------|-18-13-------18-13-------|
|---------------------------|-------------------------|
|-------15------------15----|-------15----------15----|
|------------15----------15-|----------15----------15-|
|---------------------------|-------------------------|
|---------------------------|-------------------------|


  A5         Bb5   G5    A5
  Gtr I
         PM|
   E  E  S S  E  E  E  E  E    W
|---------------------------|-------------------------|
|---------------------------|-------------------------|
|---------------------------|-------------------------|
|---------------------------|-------------------------|
|--7----------8-----5-----7-|-------------------------|
|--5-----5-5--6-----3-----5-|-------------------------|
|
| Gtr II
|        PM|
|  E  E  S S  E  E  E  E  E    W
|---------------------------|-------------------------|
|---------------------------|-------------------------|
|---------------------------|-------------------------|
|---------------------------|-------------------------|
|--7----------8-----5-----7-|-------------------------|
|--5-----5-5--6-----3-----5-|-------------------------|
|
| Gtr III
|  E  E  E    E  E  E  E  E    E  E  E  E  E  E  E  E
|-17-12---------17-12-------|-17-12-------17-12-------|
|---------------------------|-------------------------|
|-------14------------14----|-------14----------14----|
|------------14----------14-|----------14----------14-|
|---------------------------|-------------------------|
|---------------------------|-------------------------|


  Bb5        F5    G5    Bb5  N.C.
         PM|
                                              |--3--|
   E  E  S S  E  E  E  E  E    E  E  E  E  E  S  S  S  E  E
|---------------------------|-------------------------------|
|---------------------------|-------12-13-15-13h15p13-12-12-|
|---------------------------|----14-------------------------|
|---------------------------|-------------------------------|
|--8----------3-----5-----8-|-------------------------------|
|--6-----1-1--1-----3-----6-|-------------------------------|
|
|        PM|
|                                             |--3--|
|  E  E  S S  E  E  E  E  E    E  E  E  E  E  S  S  S  E  E
|---------------------------|-------------------------------|
|---------------------------|-------------------------------|
|---------------------------|-------12-14-16-14h16p14-12-12-|
|---------------------------|----15-------------------------|
|--8----------3-----5-----8-|-------------------------------|
|--6-----1-1--1-----3-----6-|-------------------------------|
|
|  E  E  E    E  E  E  E  E    E  E  E  E  E  E        E  E
|-18-13---------18-13-------|-18-13-------18-13-------------|
|---------------------------|-------------------------------|
|-------15------------15----|-------15----------------15----|
|------------15----------15-|----------15----------------15-|
|---------------------------|-------------------------------|
|---------------------------|-------------------------------|


   H           H           W
|-----------------------|-------------------------|
|-13\-------------------|-------------------------|
|-----------------------|-------------------------|
|-----------------------|-------------------------|
|-----------------------|-------------------------|
|-----------------------|-------------------------|
|
|  H           H           W
|-----------------------|-------------------------|
|-----------------------|-------------------------|
|-14\-------------------|-------------------------|
|-----------------------|-------------------------|
|-----------------------|-------------------------|
|-----------------------|-------------------------|
|
|  E   E  E  E E  E E E    E  E  E  E  E  E  E  E
|-----12-10-12-8-12-7-8-|----15-14-15-11-15----15-|
|-----------------------|-------------------15----|
|--9--------------------|-12----------------------|
|-----------------------|-------------------------|
|-----------------------|-------------------------|
|-----------------------|-------------------------|


  W                      W
|---------------------|-------------------------|
|---------------------|-------------------------|
|---------------------|-------------------------|
|---------------------|-------------------------|
|---------------------|-------------------------|
|---------------------|-------------------------|
|
| W                      W
|---------------------|-------------------------|
|---------------------|-------------------------|
|---------------------|-------------------------|
|---------------------|-------------------------|
|---------------------|-------------------------|
|---------------------|-------------------------|
|
| E  E E  E E  E  E E    E  E  E  E  E  E  E  E
|---10-8-10-6-10----6-|----13-12-13-10-13----12-|
|----------------10---|-10----------------13----|
|-7-------------------|-------------------------|
|---------------------|-------------------------|
|---------------------|-------------------------|
|---------------------|-------------------------|


  W                      W
|---------------------|-------------------------|
|---------------------|-------------------------|
|---------------------|-------------------------|
|---------------------|-------------------------|
|---------------------|-------------------------|
|---------------------|-------------------------|
|
| W                      W
|---------------------|-------------------------|
|---------------------|-------------------------|
|---------------------|-------------------------|
|---------------------|-------------------------|
|---------------------|-------------------------|
|---------------------|-------------------------|
|
| E  E  E  E E  E E E    E  E  E  E  E  E  E  E
|---12-10-12-8-12-7-8-|----15-14-15-11-15----15-|
|---------------------|-------------------15----|
|-9-------------------|-12----------------------|
|---------------------|-------------------------|
|---------------------|-------------------------|
|---------------------|-------------------------|


  W                      H           H
|---------------------|-------------------------|
|---------------------|-------------------------|
|---------------------|-------------------------|
|---------------------|-------------------------|
|---------------------|-------------------------|
|---------------------|-\3S=========15S=========|
|
| W                      H           H
|---------------------|-------------------------|
|---------------------|-------------------------|
|---------------------|-------------------------|
|---------------------|-------------------------|
|---------------------|-\3S=========18S=========|
|---------------------|-------------------------|
|
| E  E E  E E  E  E E    E  E  E  E  E  E  E  E
|---10-8-10-6-10----6-|----13-12-13-10-13----12-|
|----------------10---|-10----------------13----|
|-7-------------------|-------------------------|
|---------------------|-------------------------|
|---------------------|-------------------------|
|---------------------|-------------------------|


  A5                    C5
  W                      W
|---------------------|-------------------------|
|---------------------|-------------------------|
|---------------------|-------------------------|
|---------------------|--5----------------------|
|-7-------------------|--3----------------------|
|-5-------------------|-------------------------|
|
| W                      W
|---------------------|-------------------------|
|---------------------|-------------------------|
|---------------------|-------------------------|
|---------------------|--5----------------------|
|-7-------------------|--3----------------------|
|-5-------------------|-------------------------|
|
| E  E  E  E E  E E E    E  E  E  E  E  E  E  E
|---12-10-12-8-12-7-8-|----15-14-15-11-15----15-|
|---------------------|-------------------15----|
|-9-------------------|-12----------------------|
|---------------------|-------------------------|
|---------------------|-------------------------|
|---------------------|-------------------------|


  G5                    D5
  W                      W
|---------------------|-------------------------|
|---------------------|-------------------------|
|---------------------|-------------------------|
|---------------------|--7----------------------|
|-5-------------------|--5----------------------|
|-3-------------------|-------------------------|
|
| W                      W
|---------------------|-------------------------|
|---------------------|-------------------------|
|---------------------|-------------------------|
|---------------------|--7----------------------|
|-5-------------------|--5----------------------|
|-3-------------------|-------------------------|
|
| E  E E  E E  E  E E    E  E  E  E  E  E  E  E
|---10-8-10-6-10----6-|----13-12-13-10-13----12-|
|----------------10---|-10----------------13----|
|-7-------------------|-------------------------|
|---------------------|-------------------------|
|---------------------|-------------------------|
|---------------------|-------------------------|


  A5                    C5
  Gtrs I, II
  W                      W
|---------------------|-------------------------|
|---------------------|-------------------------|
|---------------------|-------------------------|
|---------------------|--5----------------------|
|-7-------------------|--3----------------------|
|-5-------------------|-------------------------|
|
| Gtr III
| E  E  E  E E  E E E    E  E  E  E  E  E  E  E
|---12-10-12-8-12-7-8-|----15-14-15-11-15----15-|
|---------------------|-------------------15----|
|-9-------------------|-12----------------------|
|---------------------|-------------------------|
|---------------------|-------------------------|
|---------------------|-------------------------|


  G5                    D5
  W                      W
|---------------------|-------------------------|
|---------------------|-------------------------|
|---------------------|-------------------------|
|---------------------|--7----------------------|
|-5-------------------|--5----------------------|
|-3-------------------|-------------------------|
|
| E  E E  E E  E  E E    E  E  E  E  E  E  E  E
|---10-8-10-6-10----6-|----13-12-13-10-13----12-|
|----------------10---|-10----------------13----|
|-7-------------------|-------------------------|
|---------------------|-------------------------|
|---------------------|-------------------------|
|---------------------|-------------------------|


  A5       G5        A5              G5
  Gtr I
      PM|       PM---|          PM-------|
   E  E  E  Q   E  E  E    +E   E  E  Q   E  Q
|-----------------------|-----------------------|
|-----------------------|-------------8------8--|
|-----------7------7--9-|--(9)--7--9------9-----|
|--7--9-10-----10-------|-----------------------|
|-----------------------|-----------------------|
|-----------------------|-----------------------|
|
| Gtr II
|     PM|       PM|             PM|       PM
|  E  E  E  Q   E  E  E    +E   E  E  Q   E  Q
|-----------------------|-----------------------|
|-----------------------|-----------------------|
|-----------------------|-----------------------|
|-----------------------|-----------------------|
|--7--------5---------7-|--(7)--------5------5--|
|--5--5--5--3---3--3--5-|--(5)--5--5--3---3--3--|
|
| Gtr III
|  E  E  E  Q   E  E  E    +E   E  E  Q   E  Q
|----------10-----10-12-|-(12)-10-12-15--12-15--|
|-10-12-13-----13-------|-----------------------|
|-----------------------|-----------------------|
|-----------------------|-----------------------|
|-----------------------|-----------------------|
|-----------------------|-----------------------|


  F5
              PM----------------|
              |-3-|     |-3-|
   W          E E E E E E E E E E
|-----------|---------------------|
|-10--------|---------------------|
|-----------|---------------------|
|-----------|---------------------|
|-----------|---------------------|
|-----------|-1-1-1-1---1-1-1-1---|
|
|             PM----------------|
|             |-3-|     |-3-|
|  W          E E E E E E E E E E
|-----------|---------------------|
|-----------|---------------------|
|-----------|---------------------|
|-----------|---------------------|
|--3--------|---------------------|
|--1--------|-1-1-1-1---1-1-1-1---|
|
|  W          W
|-17--------|---------------------|
|-----------|---------------------|
|-----------|---------------------|
|-----------|---------------------|
|-----------|---------------------|
|-----------|---------------------|


    C           E5        A5          E5
     E  E  E  E  Q   Q     E  E  E  E  Q   Q
||--20----17-20-19------|-20----17-20-19------|
||o----17-----------20--|----17-----------20--|
||----------------------|---------------------|
||----------------------|---------------------|
||o---------------------|---------------------|
||----------------------|---------------------|
|
|    H           H         H           H
||----------------------|---------------------|
||o---------------------|---------------------|
||----------------------|---------------------|
||---2------------------|--2------------------|
||o--0-----------2------|--0-----------2------|
||---------------0------|--------------0------|
|
|    H           H         H           H
||---5-----------0------|--5-----------0------|
||o-17----------12------|-17----------12------|
||----------------------|---------------------|
||----------------------|---------------------|
||o---------------------|---------------------|
||----------------------|---------------------|


  F5          G5            A5          E5
   E  E  E  E  E  E  E  E    E  E  E  E  Q   Q
|-17----13-17-19----15-19-|-20----17-20-19--------||
|----13----------15-------|----17-----------20---o||
|-------------------------|-----------------------||
|-------------------------|-----------------------||
|-------------------------|----------------------o||
|-------------------------|-----------------------||
|
|  H           H             H           H
|-------------------------|-----------------------||
|-------------------------|----------------------o||
|-------------------------|-----------------------||
|-------------------------|--2--------------------||
|--3-----------5----------|--0-----------2-------o||
|--1-----------3----------|--------------0--------||
|
|  H           H             H           H
|--1-----------3----------|--5-----------0--------||
|-13----------15----------|-17----------12-------o||
|-------------------------|-----------------------||
|-------------------------|-----------------------||
|-------------------------|----------------------o||
|-------------------------|-----------------------||


   1st Chorus
    A5          E5        A5          E5
     E  E  E  E  Q   Q     E  E  E  E  Q   Q
||--20----17-20-19------|-20----17-20-19------|
||o----17-----------20--|----17-----------20--|
||----------------------|---------------------|
||----------------------|---------------------|
||o---------------------|---------------------|
||----------------------|---------------------|
|
|    H           H         H           H
||----------------------|---------------------|
||o---------------------|---------------------|
||----------------------|---------------------|
||---2------------------|--2------------------|
||o--0-----------2------|--0-----------2------|
||---------------0------|--------------0------|
|
|    H           H         H           H
||---5-----------0------|--5-----------0------|
||o-17----------12------|-17----------12------|
||----------------------|---------------------|
||----------------------|---------------------|
||o---------------------|---------------------|
||----------------------|---------------------|


  F5          G5            A5          E5
   E  E  E  E  E  E  E  E    E  E  E  E  Q   Q
|-17----13-17-19----15-19-|-20----17-20-19--------||
|----13----------15-------|----17-----------20---o||
|-------------------------|-----------------------||
|-------------------------|-----------------------||
|-------------------------|----------------------o||
|-------------------------|-----------------------||
|
|  H           H             H           H
|-------------------------|-----------------------||
|-------------------------|----------------------o||
|-------------------------|-----------------------||
|-------------------------|--2--------------------||
|--3-----------5----------|--0-----------2-------o||
|--1-----------3----------|--------------0--------||
|
|  H           H             H           H
|--1-----------3----------|--5-----------0--------||
|-13----------15----------|-17----------12-------o||
|-------------------------|-----------------------||
|-------------------------|-----------------------||
|-------------------------|----------------------o||
|-------------------------|-----------------------||


   Interlude
    A5        Bb5  G5   A5   N.C.
          PM|                     PM-------------|
     E  E S S  E E  E E  E     E  E   E E  E E E E
||-------------------------|-----------------------|
||o------------------------|-----------------------|
||-------------------------|------9---7-9-10-9-7-9-|
||-------------------------|-----------------------|
||o--7---------8----5----7-|-----------------------|
||---5----5-5--6----3----5-|-----------------------|
|
|         PM|                     PM-------------|
|    E  E S S  E E  E E  E     E  E   E E  E E E E
||-------------------------|-----------------------|
||o------------------------|-----------------------|
||-------------------------|-----------------------|
||-------------------------|------7---5-7--8-7-5-7-|
||o--7---------8----5----7-|-----------------------|
||---5----5-5--6----3----5-|-----------------------|
|
|   Gtr V
|    Q.        Q    Q    E    +E  H..
||--17--------18---15---17-|-(17)------------------|
||o------------------------|-----------------------|
||--14--------15---12---14-|-(14)------------------|
||-------------------------|-----------------------|
||o------------------------|-----------------------|
||-------------------------|-----------------------|


  Bb5       F5   G5   Bb5  N.C.
        PM|                      PM---------------|
   E  E S S  E E  E E  E     E   E   E  E  E  E E  E
|------------------------|-----------------------------||
|------------------------|----------------------------o||
|------------------------|------10---9-10-12-10-9-10---||
|------------------------|-----------------------------||
|--8---------3----5----8-|----------------------------o||
|--6----1-1--1----3----6-|-----------------------------||
|
|       PM|                          PM-----------|
|  E  E S S  E E  E E  E     E   E   E  E  E  E E  E
|------------------------|-----------------------------||
|------------------------|----------------------------o||
|------------------------|-----------------------------||
|------------------------|-------8---7--8-10--8-7--8---||
|--8---------3----5----8-|----------------------------o||
|--6----1-1--1----3----6-|-----------------------------||
|
|  Q.        Q    Q    E    +E   H..
|-18--------13---15---18-|-(18)------------------------||
|------------------------|----------------------------o||
|-15--------10---12---15-|-(15)------------------------||
|------------------------|-----------------------------||
|------------------------|----------------------------o||
|------------------------|-----------------------------||


  A5                                G5    A5
     PM----|    PM--|      PM|    PM---|
   E E   E  E E E E  E   E E  E E E  E  E  E
|----------------------|---------------------|
|----------------------|---------------------|
|----------------------|---------------------|
|-10----------9--------|-7------7----------7-|
|----0---7-10---0-7-10-|---7-10---0--7-10----|
|----------------------|---------------------|
|
|  E H..                 H        E  E  E  E
|----------------------|---------------------|
|----------------------|---------------------|
|----------------------|---------------------|
|----------------------|---------------------|
|--7-------------------|-------------5-----7-|
|--5-------------------|-------------3-----5-|
|
|  W                     H        E  Q     E
|-17-------------------|------------15----17-|
|----------------------|---------------------|
|-14-------------------|------------12----14-|
|----------------------|---------------------|
|----------------------|---------------------|
|----------------------|---------------------|


       PM--|    PM--|      PM|    PM--|
    E  E E  E E E E  E   E E  E E E E  E E
|----------------------|-------------------|
|----------------------|-------------------|
|----------------------|-------------------|
|--10---------9--------|-7------7--------7-|
|------0-7-10---0-7-10-|---7-10---0-7-10---|
|----------------------|-------------------|
|
|   W                    W
|----------------------|-------------------|
|----------------------|-------------------|
|----------------------|-------------------|
|----------------------|-------------------|
|----------------------|-------------------|
|----------------------|-------------------|
|
|  +W                    W
|-(17)-----------------|-------------------|
|----------------------|-------------------|
|-(14)-----------------|-------------------|
|----------------------|-------------------|
|----------------------|-------------------|
|----------------------|-------------------|


  F5
     PM--|    PM--|        PM|    PM--|
   E E E  E E E E  E    E  E  E E E E  E E
|--------------------|---------------------|
|--------------------|---------------------|
|--------------------|---------------------|
|-10--------9--------|--7-------7--------7-|
|----0-7-10---0-7-10-|-----7-10---0-7-10---|
|--------------------|---------------------|
|
|  W                   +W
|--------------------|---------------------|
|--------------------|---------------------|
|--------------------|---------------------|
|--------------------|---------------------|
|--3-----------------|-(3)-----------------|
|--1-----------------|-(1)-----------------|
|
| Gtr IV
|  W                   +W
|--------------------|---------------------|
|--6-----------------|-(6)-----------------|
|--5-----------------|-(5)-----------------|
|--3-----------------|-(3)-----------------|
|--------------------|---------------------|
|--------------------|---------------------|


                               G5F5
     PM---|    PM--|           PM|
   E E E   E E E E  E   E Q.   E E Q
|---------------------|---------------|
|---------------------|---------------|
|---------------------|---------------|
|-10---------9--------|-7-------------|
|----0-7--10---0-7-10-|--------5-3----|
|---------------------|--------3-1----|
|
|  PM|                         PM|
|  E E H.               H      E E Q
|---------------------|---------------|
|---------------------|---------------|
|---------------------|---------------|
|---------------------|---------------|
|--3-3----------------|--------5-3----|
|--1-1----------------|--------3-1----|
|
|  E E H.               W
|---------------------|---------------|
|--6-6----------------|---------------|
|--5-5----------------|---------------|
|--3-3----------------|---------------|
|---------------------|---------------|
|---------------------|---------------|


 Bridge
  E5                F5                A5                C5
  Gtrs I, II
  W                 W                 W                 W
|-----------------|-----------------|-----------------|-----------------|
|-----------------|-----------------|-----------------|-----------------|
|-----------------|-----------------|-----------------|-----------------|
|-----------------|-----------------|-----------------|-5---------------|
|-2---------------|-3---------------|-7---------------|-3---------------|
|-0---------------|-1---------------|-5---------------|-----------------|
|
| Gtr IV
| E E E E E E E E   E E E E E E E E   E E E E E E E E   E E E E E E E E
|-----------------|-----------------|---------0-1-0---|-------0-3-5-3-0-|
|---------0-1-0---|---------1-3-1---|-------1-------1-|-----1-----------|
|-------0-------0-|-------2-------2-|-----2-----------|---0-------------|
|-----2-----------|-----3-----------|---2-------------|-----------------|
|---2-------------|---3-------------|-0---------------|-3---------------|
|-0---------------|-1---------------|-----------------|-----------------|


  F5                A5                C5                E5VII
  Gtr I
  W                 W                 W                 W
|-----------------|-----------------|-----------------|-----------------||
|-----------------|-----------------|-----------------|-----------------||
|-----------------|-----------------|-----------------|-----------------||
|-----------------|-----------------|-5---------------|-9---------------||
|-3---------------|-7---------------|-3---------------|-7---------------||
|-1---------------|-5---------------|-----------------|-----------------||
|
| Gtr II
|                                                       ~
| Q   Q   Q   Q     Q   Q   Q   Q     H       Q   Q     W
|-----------------|-----------------|-----------------|-----------------||
|-----------------|-----------------|-----------------|-----------------||
|-----------------|-----------------|---------0---2---|-4---------------||
|-----------------|-------------0---|-2---------------|-----------------||
|-----------------|-0---2---3-------|-----------------|-----------------||
|-1---0---1---3---|-----------------|-----------------|-----------------||
|
| Gtr IV
| E E E E E E E E   E E E E E E E E   E E E E E E E E   E E E E E E E E
|-----------------|---------0-1-0---|-------0-3-5-3-0-|-----0-3-7-8-7-3-||
|---------1-3-1---|-------1-------1-|-----1-----------|---0-------------||
|-------2-------2-|-----2-----------|---0-------------|-----------------||
|-----3-----------|---2-------------|-----------------|-2---------------||
|---3-------------|-0---------------|-3---------------|-----------------||
|-1---------------|-----------------|-----------------|-----------------||


   2nd Verse
    (E)               (F)
    E E E E E E E E    E  E  E  E  E  E  E  E
||------------------|-------------------------|
||o-----------------|-------------------------|
||--9-9-9-9-9-9-9-9-|-10-10-10-10-10-10-10-10-|
||--x-x-x-x-x-x-x-x-|--x--x--x--x--x--x--x--x-|
||o-7-7-7-7-7-7-7-7-|--8--8--8--8--8--8--8--8-|
||------------------|-------------------------|
|
|   E E E E E E E E    E  E  E  E  E  E  E  E
||------------------|-------------------------|
||o-8-8-8-8-8-8-8-8-|-10-10-10-10-10-10-10-10-|
||--9-9-9-9-9-9-9-9-|-10-10-10-10-10-10-10-10-|
||------------------|-------------------------|
||o-----------------|-------------------------|
||------------------|-------------------------|
|
|   E E E E E E E E    E  E  E  E  E  E  E  E
||----------7-8-7---|--------------8-10--8----|
||o-------8-------8-|----------10----------10-|
||------9-----------|-------10----------------|
||----9-------------|----10-------------------|
||o-7---------------|--8----------------------|
||------------------|-------------------------|


  (A)                       (C)
   E  E  E  E  E  E  E  E    E  E  E  E  E  E  E  E
|-------------------------|--------------------------|
|-10-10-10-10-10-10-10-10-|-13-13-13-13-13-13-13-13--|
|--x--x--x--x--x--x--x--x-|--x--x--x--x--x--x--x--x--|
|--7--7--7--7--7--7--7--7-|-10-10-10-10-10-10-10-10--|
|-------------------------|--------------------------|
|-------------------------|--------------------------|
|
|  E  E  E  E  E  E  E  E    E  E  E  E  E  E  E  E
|-------------------------|--------------------------|
|-------------------------|--8--8--8--8--8--8--8--8--|
|--9--9--9--9--9--9--9--9-|--9--9--9--9--9--9--9--9--|
|-10-10-10-10-10-10-10-10-|--------------------------|
|-------------------------|--------------------------|
|-------------------------|--------------------------|
|
|  E  E  E  E  E  E  E  E    E  E  E  E  E  E  E  E
|-------------12-13-12----|-------------15-17-15-----|
|----------13----------13-|----------17----------17--|
|-------14----------------|-------17-----------------|
|----14-------------------|----17--------------------|
|-12----------------------|-15-----------------------|
|-------------------------|--------------------------|


  (F)                       (A)
   E  E  E  E  E  E  E  E    E  E  E  E  E  E  E  E
|-------------------------|-------------------------|
|-------------------------|-10-10-10-10-10-10-10-10-|
|-10-10-10-10-10-10-10-10-|--x--x--x--x--x--x--x--x-|
|--x--x--x--x--x--x--x--x-|--7--7--7--7--7--7--7--7-|
|--8--8--8--8--8--8--8--8-|-------------------------|
|-------------------------|-------------------------|
|
|  E  E  E  E  E  E  E  E    E  E  E  E  E  E  E  E
|-------------------------|-------------------------|
|-10-10-10-10-10-10-10-10-|-------------------------|
|-10-10-10-10-10-10-10-10-|--9--9--9--9--9--9--9--9-|
|-------------------------|-10-10-10-10-10-10-10-10-|
|-------------------------|-------------------------|
|-------------------------|-------------------------|
|
|  E  E  E  E  E  E  E  E    E  E  E  E  E  E  E  E
|--------------8-10--8----|-------------12-13-12----|
|----------10----------10-|----------13----------13-|
|-------10----------------|-------14----------------|
|----10-------------------|----14-------------------|
|--8----------------------|-12----------------------|
|-------------------------|-------------------------|


  (C)                       (E)
   E  E  E  E  E  E  E  E    E  E  E  E  E  E  E  E
|-------------------------|-12-12-12-12-12-12-12-12--||
|-13-13-13-13-13-13-13-13-|--x--x--x--x--x--x--x--x-o||
|--x--x--x--x--x--x--x--x-|--9--9--9--9--9--9--9--9--||
|-10-10-10-10-10-10-10-10-|--------------------------||
|-------------------------|-------------------------o||
|-------------------------|--------------------------||
|
|  E  E  E  E  E  E  E  E    E  E  E  E  E  E  E  E
|-------------------------|--------------------------||
|--8--8--8--8--8--8--8--8-|--8--8--8--8--8--8--8--8-o||
|--9--9--9--9--9--9--9--9-|--9--9--9--9--9--9--9--9--||
|-------------------------|--------------------------||
|-------------------------|-------------------------o||
|-------------------------|--------------------------||
|
|  E  E  E  E  E  E  E  E    E  E  E  E  E  E  E  E
|-------------15-17-15----|-------------19-20-19-----||
|----------17----------17-|----------20----------20-o||
|-------17----------------|-------21-----------------||
|----17-------------------|----21--------------------||
|-15----------------------|-19----------------------o||
|-------------------------|--------------------------||


 Bridge
  (A)                                           F5
  W                W              H..            E    W
|---------------|---------------|------------------|-------|
|---------------|---------------|------------------|-------|
|---------------|---------------|------------------|-------|
|---------------|---------------|------------------|-------|
|---------------|---------------|----------------3-|--3----|
|---------------|---------------|----------------1-|--1----|
|
| W                W              H..            E    W
|---------------|---------------|------------------|-------|
|---------------|---------------|------------------|-------|
|---------------|---------------|------------------|-------|
|---------------|---------------|---------------10-|-10----|
|---------------|---------------|----------------8-|--8----|
|---------------|---------------|------------------|-------|
|
| H.      +E  E    H.       E E   Q    E E Q.    E    W
|---------------|---------------|------------------|-------|
|---------------|---------------|------------------|-------|
|---------------|-------------7-|-9----------------|-------|
|-7-------(7)-9-|-10-------10---|------------------|-------|
|---------------|---------------|------3-5-7-----8-|--8----|
|---------------|---------------|------------------|-------|


  D5                                        C5    G5
                                     PM|                        PM|    PM|
   W               +H.               E  E    H     H       +Q   E E Q  E E
|----------------|------------------------|-------------|------------------|
|----------------|------------------------|-------------|------------------|
|----------------|------------------------|-------------|-----------7------|
|--7-------------|-(7)--------------------|--5----------|-----------5------|
|--5-------------|-(5)--------------------|--3-----5----|--(5)--5-5----5-5-|
|----------------|-------------------3--3-|--------3----|--(3)-------------|
|
|                                    PM|                        PM|    PM|
|  W               +H.               E  E    H     H       +Q   E E Q  E E
|----------------|------------------------|-------------|------------------|
|----------------|------------------------|-------------|------------------|
|----------------|------------------------|-------------|------------------|
|--7-------------|-(7)--------------------|--5----------|------------------|
|--5-------------|-(5)--------------------|--3-----5----|--(5)------5------|
|----------------|-------------------3--3-|--------3----|--(3)--3-3-3--3-3-|
|
|  H.       E  E    Q    E  E  E  E  E  E    H     H       +W
|-10----------10-|-13---15-17-15-13-12-13-|-------------|------------------|
|----------13----|------------------------|-20----15----|-(15)-------------|
|--7-----------7-|-10---12-14-12-10--9-10-|-------------|------------------|
|----------10----|------------------------|-17----12----|-(12)-------------|
|----------------|------------------------|-------------|------------------|
|----------------|------------------------|-------------|------------------|


  D5
   W               +W
|----------------|------------------------|
|----------------|------------------------|
|----------------|------------------------|
|--7-------------|-(7)--------------------|
|--5-------------|-(5)--------------------|
|----------------|------------------------|
|
|  W               +W
|----------------|------------------------|
|----------------|------------------------|
|----------------|------------------------|
|--7-------------|-(7)--------------------|
|--5-------------|-(5)--------------------|
|----------------|------------------------|
|
|  H.       E  E    Q    E  E  E  E  E  E
|-10----------10-|-13---15-17-15-13-12-13-|
|----------13----|------------------------|
|--7-----------7-|-10---12-14-12-10--9-10-|
|----------10----|------------------------|
|----------------|------------------------|
|----------------|------------------------|


       E5    G5
                           PM|    PM|
   +E   Q.    H       +Q   E E Q  E E
|------------------|------------------|
|------------------|------------------|
|------------------|------------------|
|--(7)--9----------|------------------|
|--(5)--7-----5----|--(5)------5------|
|-------------3----|--(3)--3-3-3--3-3-|
|
|                              TP
|  +E   Q.    H       +H       H
|------------------|------------------|
|------------------|------------------|
|------------------|------------------|
|--(7)--9----------|------------------|
|--(5)--7-----5----|--(5)-------------|
|-------------3----|--(3)------8------|
|
|  +E   Q.    H       +W
|-(13)-15----19----|-(19)-------------|
|------------------|------------------|
|-(10)-12----16----|-(16)-------------|
|------------------|------------------|
|------------------|------------------|
|------------------|------------------|


  A5
   W                        +W
|-------------------------|--------------------------|
|-------------------------|--------------------------|
|-------------------------|--------------------------|
|--2----------------------|-(2)----------------------|
|--0----------------------|-(0)----------------------|
|-------------------------|--------------------------|
|
|  W                        +W
|-------------------------|--------------------------|
|-------------------------|--------------------------|
|-------------------------|--------------------------|
|--2----------------------|-(2)----------------------|
|--0----------------------|-(0)----------------------|
|-------------------------|--------------------------|
|
| Gtr III
|  E  E  E  E  E  E  E  E    E   E  E  E  E  E  E  E
|-17-12-------17-12-------|-17--12-------17-12-------|
|-------------------------|--------------------------|
|-------14----------14----|--------14----------14----|
|----------14----------14-|-----------14----------14-|
|-------------------------|--------------------------|
|-------------------------|--------------------------|


  +W                         +H.                 Q
|--------------------------|--------------------------|
|--------------------------|--------------------------|
|--------------------------|--------------------------|
|-(2)----------------------|-(2)----------------------|
|-(0)----------------------|-(0)-----------------3S===|
|--------------------------|--------------------------|
|
| +W                         +W
|--------------------------|--------------------------|
|--------------------------|--------------------------|
|--------------------------|--------------------------|
|-(2)----------------------|-(2)----------------------|
|-(0)----------------------|-(0)----------------------|
|--------------------------|--------------------------|
|
|  E   E  E  E  E  E  E  E    E   E  E  E  E  E  E  E
|-17--12-------17-12-------|-17--12-------17-12-------|
|--------------------------|--------------------------|
|--------14----------14----|--------14----------14----|
|-----------14----------14-|-----------14----------14-|
|--------------------------|--------------------------|
|--------------------------|--------------------------|


   TP
   W                          +W
|--------------------------|---------------------------|
|--------------------------|---------------------------|
|--------------------------|---------------------------|
|--------------------------|---------------------------|
|-10-----------------------|-(10)----------------------|
|--------------------------|---------------------------|
|
| +W                          +W
|--------------------------|---------------------------|
|--------------------------|---------------------------|
|--------------------------|---------------------------|
|-(2)----------------------|--(2)----------------------|
|-(0)----------------------|--(0)----------------------|
|--------------------------|---------------------------|
|
|  E   E  E  E  E  E  E  E     E   E  E  E  E  E  E  E
|-17--12-------17-12-------|--17--12-------17-12-------|
|--------------------------|---------------------------|
|--------14----------14----|---------14----------14----|
|-----------14----------14-|------------14----------14-|
|--------------------------|---------------------------|
|--------------------------|---------------------------|


   +H            H             W
|---------------------------|-17\----------------------||
|---------------------------|--------------------------||
|---------------------------|--------------------------||
|---------------------------|--------------------------||
|-(10)----------------------|--------------------------||
|----------------0----------|--------------------------||
|
|  +H            H             W
|---------------------------|--------------------------||
|---------------------------|--------------------------||
|---------------------------|--------------------------||
|--(2)----------------------|--------------------------||
|--(0)----------------------|--------------------------||
|---------------------------|--------------------------||
|
|   E   E  E  E  E  E  E  E    E   E  E  E  E  E  E  E
|--17--12-------17-12-------|-17--12-------17-12-------||
|---------------------------|--------------------------||
|---------14----------14----|--------14----------14----||
|------------14----------14-|-----------14----------14-||
|---------------------------|--------------------------||
|---------------------------|--------------------------||


 Guitar & Keyboard Solo
  E5                   C5     D5                 E5
  Gtr I
    Q.     Q.     Q     Q.     E     +Q     Q     H       S  S  S  S  S  S  S  S
|--------------------|-17----------------------|------------------17-19-20-19-17-|
|-/17-----19-----20--|--------20b22r(20)---19--|-17------17-19-20----------------|
|--------------------|-------------------------|---------------------------------|
|--------------------|-------------------------|---------------------------------|
|--------------------|-------------------------|---------------------------------|
|--------------------|-------------------------|---------------------------------|
|
| Gtr VI
|   Q.     Q.     Q     Q.     E     +Q     Q     H       S  S  S  S  S  S  S  S
|--------------------|-20----------------------|------------------20-22-24-22-20-|
|--20-----22-----24--|--------24b26r(24)---22--|-20------20-22-24----------------|
|--------------------|-------------------------|---------------------------------|
|--------------------|-------------------------|---------------------------------|
|--------------------|-------------------------|---------------------------------|
|--------------------|-------------------------|---------------------------------|
|
| Gtr II
|       PM     PM           PM           PM          PM         PM
|   Q   E  Q   E  Q     Q   E  Q         E  Q     Q  E Q        E     Q
|--------------------|-------------------------|---------------------------------|
|--------------------|-------------------------|---------------------------------|
|--------------------|-------------------------|---------------------------------|
|---9------9------9--|--5------7------------7--|--9----9--------------9----------|
|---7---7--7---7--7--|--3---3--5---------5--5--|--7--7-7--------7-----7----------|
|--------------------|-------------------------|---------------------------------|


  C5                D5
   S  S  S  S  S  S  S  S  S  S  S  S  S  S  S  S
|-19-17----------------17-19-20-22-20-19-17-------|
|-------20-19-17-19-20----------------------20-19-|
|-------------------------------------------------|
|-------------------------------------------------|
|-------------------------------------------------|
|-------------------------------------------------|
|
|  S  S  S  S  S  S  S  S  S  S  S  S  S  S  S  S
|-22-20----------------20-22-24-26-24-22-20-------|
|-------24-22-20-22-24----------------------24-22-|
|-------------------------------------------------|
|-------------------------------------------------|
|-------------------------------------------------|
|-------------------------------------------------|
|
|              PM                PM
|  Q           E     Q           E     Q
|-------------------------------------------------|
|-------------------------------------------------|
|-------------------------------------------------|
|--5-----------------7-----------------7----------|
|--3-----------3-----5-----------5-----5----------|
|-------------------------------------------------|


  E5                   Eb5         F#5         A5XII       F#5
                                                            |--3--|
    Q.     Q.     Q     S  S  S  S  S  S  S  S  S  S  S  S  E  E  E
|--------------------|-20-17-------17-14-------12-15-------15-12----|
|-/17-----19-----20--|-------20----------16----------12-15-------12-|
|--------------------|----------21----------17----------------------|
|--------------------|----------------------------------------------|
|--------------------|----------------------------------------------|
|--------------------|----------------------------------------------|
|
|                                                           |--3--|
|   Q.     Q.     Q     S  S  S  S  S  S  S  S  S  S  S  S  E  E  E
|--------------------|-23-20-------20-17-------15-19-------19-15----|
|--20-----22-----24--|-------23----------19----------12-15-------12-|
|--------------------|----------24----------20----------------------|
|--------------------|----------------------------------------------|
|--------------------|----------------------------------------------|
|--------------------|----------------------------------------------|
|
|       PM     PM
|   Q   E  Q   E  Q     Q           Q           Q           Q
|--------------------|----------------------------------------------|
|--------------------|----------------------------------------------|
|--------------------|----------------------------------------------|
|---9------9------9--|--8----------11----------14----------11-------|
|---7---7--7---7--7--|--6-----------9----------12-----------9-------|
|--------------------|----------------------------------------------|


  D5     E5     D5       E5    D5  C5
   Q   E  Q.     Q     E  Q.    Q   Q
|-14--15-12-----14--|-15-12--------------|
|-------------------|--------------------|
|-------------------|----------14--12----|
|-------------------|--------------------|
|-------------------|--------------------|
|-------------------|--------------------|
|
|  Q   E  Q.     Q     E  Q.    Q   Q
|-17--19-15-----17--|-19-15----24--22----|
|-------------------|--------------------|
|-------------------|--------------------|
|-------------------|--------------------|
|-------------------|--------------------|
|-------------------|--------------------|
|
|      PM     PM       PM
|  Q   E  Q   E  Q     E  Q.    Q   Q
|-------------------|--------------------|
|-------------------|--------------------|
|-------------------|-----9--------------|
|--7------9------7--|-----9-----7---5----|
|--5---7--7---5--5--|--7--7-----5---3----|
|-------------------|--------------------|


  E5                   C5     D5                 C5          D5          E5          F#5
    Q.     Q.     Q     Q.     E     +Q     Q     S  S  S  S  S  S  S  S  S  S  S  S  S  S  S  S
|--------------------|-17----------------------|----------------------------------17-------17-19-|
|-/17-----19-----20--|--------20b22r(20)-------|----15-17-19-15-17-19-20-17-19-20----19-20-------|
|--------------------|---------------------17--|-17----------------------------------------------|
|--------------------|-------------------------|-------------------------------------------------|
|--------------------|-------------------------|-------------------------------------------------|
|--------------------|-------------------------|-------------------------------------------------|
|
|   Q.     Q.     Q     Q.     E     +Q     Q     S  S  S  S  S  S  S  S  S  S  S  S  S  S  S  S
|--------------------|-20----------------------|-12-14-15-17-14-15-17-19-15-17-19-20-17-19-20-22-|
|--20-----22-----24--|--------24b26r(24)---22--|-------------------------------------------------|
|--------------------|-------------------------|-------------------------------------------------|
|--------------------|-------------------------|-------------------------------------------------|
|--------------------|-------------------------|-------------------------------------------------|
|--------------------|-------------------------|-------------------------------------------------|
|
|       PM     PM           PM           PM
|   Q   E  Q   E  Q     Q   E  Q         E  Q     Q           Q           Q           Q
|--------------------|-------------------------|-------------------------------------------------|
|--------------------|-------------------------|--------------------------------------7----------|
|--------------------|-------------------------|--------------------------------------6----------|
|---9------9------9--|--5------7------------7--|--5-----------7-----------9-----------4----------|
|---7---7--7---7--7--|--3---3--5---------5--5--|--3-----------5-----------7----------------------|
|--------------------|-------------------------|-------------------------------------------------|


  G5          A5          B5
   S  S  S  S  S  S  S  S  S  S  S  S  S  S  S  S
|----17-19-20-17-19-20-19-17-19-17-19-20-19-17-19----|
|-20-------------------------------------------------|
|----------------------------------------------------|
|----------------------------------------------------|
|----------------------------------------------------|
|----------------------------------------------------|
|
|  S  S  S  S  S  S  S  S  H
|-19-20-22-24-20-22-23-24-23-------------------------|
|----------------------------------------------------|
|----------------------------------------------------|
|----------------------------------------------------|
|----------------------------------------------------|
|----------------------------------------------------|
|
|  Q           Q           E     Q           E
|----------------------------------------------------|
|--8----------10----------12----------------12-------|
|--7-----------9----------11----------------11-------|
|--5-----------7-----------9-----------------9-------|
|----------------------------------------------------|
|----------------------------------------------------|


    S   S  S  S  S  S  S  S  S  S  S  S  S  S  S  S     S   S  S  S  +Q    S  S  S  S  S  S  S  S
|--17--19-20-19-17-19-17-19-20-19-17-19-17-19-20-19-|--17--19-20-19-(19)S=24-22-20-19-22-20-19-17-|
|---------------------------------------------------|---------------------------------------------|
|---------------------------------------------------|---------------------------------------------|
|---------------------------------------------------|---------------------------------------------|
|---------------------------------------------------|---------------------------------------------|
|---------------------------------------------------|---------------------------------------------|
|
|   \6
|  +W                                                  +Q             H.
|-(23)----------------------------------------------|-(23)----------------------------------------|
|---------------------------------------------------|---------------------------------------------|
|---------------------------------------------------|---------------------------------------------|
|---------------------------------------------------|---------------------------------------------|
|---------------------------------------------------|---------------------------------------------|
|---------------------------------------------------|---------------------------------------------|
|
|   H                        E     Q           E        H                  Q           Q
|---------------------------------------------------|---------------------------------------------|
|---------------------------12----------------12----|---------------------------------------------|
|---------------------------11----------------11----|---------------------------------------------|
|----------------------------9-----------------9----|---------------------------------------------|
|---------------------------------------------------|----------------------3-----------2----------|
|---------------------------------------------------|---------------------------------------------|


                                                    E5   D5   E5
   S  S  S  S  S  S  S  S  S  S  S  S  S  S  S  S    E E  E E  E  E   E  E
|-20-19-17-15-19-17-15-14-17-15-14-12-15-14-12-11-|-12---11---12-15--15-12---|
|-------------------------------------------------|--------------------------|
|-------------------------------------------------|--------------------------|
|-------------------------------------------------|--------------------------|
|-------------------------------------------------|--------------------------|
|-------------------------------------------------|--------------------------|
|
|  W                                                 H         E  E   E  E
|-------------------------------------------------|-----------15-19--19-15---|
|-------------------------------------------------|--------------------------|
|-------------------------------------------------|--------------------------|
|-------------------------------------------------|--------------------------|
|-------------------------------------------------|--------------------------|
|-------------------------------------------------|--------------------------|
|
|                          PM---------------|
|  Q           Q           E     E     E     E       E E  E E  E  Q.
|-------------------------------------------------|--------------------------|
|-------------------------------------------------|--------------------------|
|-------------------------------------------------|--------------------------|
|-------------------------------------------------|-------7----9-------------|
|--0-----------------------2----------------------|--2----5----7-------------|
|--------------3-----------------5-----3-----2----|--0-----------------------|


              A5
   E  E  E  E  E  E   E  E    E  E  E  E  E  E  E  E
|-12-------------20--20-17-|-17----------19-17-15-19-|
|----12-12-----------------|----17-17----------------|
|----------12-17-----------|----------17-------------|
|--------------------------|-------------------------|
|--------------------------|-------------------------|
|--------------------------|-------------------------|
|
|  E  E  E  E  E  E   E  E    E  E  E  E  E  E  E  E
|-15-------------24--24-20-|-20----------------------|
|----17-17-----------------|----22-22----20-19-17-20-|
|----------16-21-----------|----------21-------------|
|--------------------------|-------------------------|
|--------------------------|-------------------------|
|--------------------------|-------------------------|
|
|  Q     E  E  E  Q.          H           Q     Q
|--------------------------|-------------------------|
|--------------------------|-------------------------|
|--------------------------|-------------------------|
|--------9-----------------|-------------------------|
|--------7-----7-----------|--------------0-----1----|
|--------------5-----------|-------------------------|


                                   D5  E5
                             ~~~~~
   E  E  E  E  E  E  E  E    H          E  E   E  E
|-17-15----17-15-14-15-17-|-17b19------12-15--15-12-|
|-------19----------------|-------------------------|
|-------------------------|-------------------------|
|-------------------------|-------------------------|
|-------------------------|-------------------------|
|-------------------------|-------------------------|
|
|                            ~~~~~
|  E  E  E  E  E  E  E  E    H          E  E   E  E
|----------------------17-|-19---------15-19--19-15-|
|-19-17-16-19-17-16-20----|-------------------------|
|-------------------------|-------------------------|
|-------------------------|-------------------------|
|-------------------------|-------------------------|
|-------------------------|-------------------------|
|
|  Q     Q     E  E  E  E    Q     E E  E  Q.
|-------------------------|-------------------------|
|-------------------------|-------------------------|
|--------------------0--2-|--4----------------------|
|--------1-----2--4-------|--------7----9-----------|
|--2----------------------|--------5----7-----------|
|-------------------------|-------------------------|


              A5                         B5
   E  E  E  E  E  E   E  E    E  E  E  E  S  S  S   S  S  S  S  S
|-12-------------20--20-17-|-17--------------------17-19-20-19-17-|
|----12-12-----------------|----17-17----17-19-20-----------------|
|----------12-17-----------|----------17--------------------------|
|--------------------------|--------------------------------------|
|--------------------------|--------------------------------------|
|--------------------------|--------------------------------------|
|
|  E  E  E  E  E  E   E  E    E  E  E  E  H
|-15-------------24--24-20-|-20-----------------------------------|
|----17-17-----------------|----22-22-----------------------------|
|----------16-21-----------|----------21--------------------------|
|--------------------------|--------------------------------------|
|--------------------------|--------------------------------------|
|--------------------------|--------------------------------------|
|
|  Q     E  E  E  Q.          H           E     Q.
|--------------------------|--------------------------------------|
|--------------------------|--------------------------------------|
|--------------------------|--------------------------------------|
|--------9-----------------|--------------4-----------------------|
|--------7-----7-----------|--------------2-----------------------|
|--------------5-----------|--------------------------------------|


                                     E5
                                    2/4
   S   S  S  S  S  S  S  S Q   E E    E Q.
|----------------------------------|----------||
|-20--19-17------------------------|----------||
|-----------19-17-16---------------|----------||
|--------------------19-17----16---|-17-------||
|----------------------------------|----------||
|----------------------------------|----------||
|
|  H.                          E E    E Q.
|----------------------------------|----------||
|-----------------------------19---|-20-------||
|-----------------------------19---|-21-------||
|----------------------------------|----------||
|----------------------------------|----------||
|----------------------------------|----------||
|
|  H.                          E E    E Q.
|----------------------------------|----------||
|----------------------------------|--5-------||
|----------------------------------|--4-------||
|------------------------------4---|--2-------||
|------------------------------2---|----------||
|----------------------------------|----------||


 Interlude
  A5
 4/4
  Gtrs I, II
  E  H..                   W
|-----------------------|-------------------------|
|-----------------------|-------------------------|
|-----------------------|-------------------------|
|-----------------------|-------------------------|
|-7---------------------|-------------------------|
|-5---------------------|-------------------------|
|
| Gtr III
| E  E    E  E E  E E E    E  E  E  E  E  E  E  E
|---12---10-12-8-12-7-8-|----15-14-15-11-15----15-|
|-----------------------|-------------------15----|
|-9---------------------|-12----------------------|
|-----------------------|-------------------------|
|-----------------------|-------------------------|
|-----------------------|-------------------------|


  W                      W
|---------------------|--------------------------|
|---------------------|--------------------------|
|---------------------|--------------------------|
|---------------------|--------------------------|
|---------------------|--------------------------|
|---------------------|--------------------------|
|
| E  E E  E E  E  E E    E  E  E  E  E  E  E  E
|---10-8-10-6-10----6-|----13-12-13-10-13----12--|
|----------------10---|-10----------------13-----|
|-7-------------------|--------------------------|
|---------------------|--------------------------|
|---------------------|--------------------------|
|---------------------|--------------------------|


  A5                    C5
  W                      W
|---------------------|-------------------------|
|---------------------|-------------------------|
|---------------------|-------------------------|
|---------------------|--5----------------------|
|-7-------------------|--3----------------------|
|-5-------------------|-------------------------|
|
| E  E  E  E E  E E E    E  E  E  E  E  E  E  E
|---12-10-12-8-12-7-8-|----15-14-15-11-15----15-|
|---------------------|-------------------15----|
|-9-------------------|-12----------------------|
|---------------------|-------------------------|
|---------------------|-------------------------|
|---------------------|-------------------------|


  G5                    D5
  W                      W
|---------------------|-------------------------|
|---------------------|-------------------------|
|---------------------|-------------------------|
|---------------------|--7----------------------|
|-5-------------------|--5----------------------|
|-3-------------------|-------------------------|
|
| E  E E  E E  E  E E    E  E  E  E  E  E  E  E
|---10-8-10-6-10----6-|----13-12-13-10-13----12-|
|----------------10---|-10----------------13----|
|-7-------------------|-------------------------|
|---------------------|-------------------------|
|---------------------|-------------------------|
|---------------------|-------------------------|


  A5                    C5
  W                      W
|---------------------|-------------------------|
|---------------------|-------------------------|
|---------------------|-------------------------|
|---------------------|--5----------------------|
|-7-------------------|--3----------------------|
|-5-------------------|-------------------------|
|
| Gtr III
| E  E  E  E E  E E E    E  E  E  E  E  E  E  E
|---12-10-12-8-12-7-8-|----15-14-15-11-15----15-|
|---------------------|-------------------15----|
|-9-------------------|-12----------------------|
|---------------------|-------------------------|
|---------------------|-------------------------|
|---------------------|-------------------------|


  G5                    D5
  W                      W
|---------------------|-------------------------|
|---------------------|-------------------------|
|---------------------|-------------------------|
|---------------------|--7----------------------|
|-5-------------------|--5----------------------|
|-3-------------------|-------------------------|
|
| E  E E  E E  E  E E    E  E  E  E  E  E  E  E
|---10-8-10-6-10----6-|----13-12-13-10-13----12-|
|----------------10---|-10----------------13----|
|-7-------------------|-------------------------|
|---------------------|-------------------------|
|---------------------|-------------------------|
|---------------------|-------------------------|


  A5       G5        A5              G5     G5
  Gtr I
      PM|       PM|             PM|       PM
   E  E  E  Q   E  E  E    +E   E  E  Q   E  Q
|-----------------------|-----------------------|
|-----------------------|-------------8------8--|
|-----------7------7--9-|--(9)--7--9------9-----|
|--7--9-10-----10-------|-----------------------|
|-----------------------|-----------------------|
|-----------------------|-----------------------|
|
| Gtr II
|     PM|       PM|             PM|       PM
|  E  E  E  Q   E  E  E    +E   E  E  Q   E  Q
|-----------------------|-----------------------|
|-----------------------|-----------------------|
|-----------------------|-----------------------|
|-----------------------|-----------------------|
|--7--------5---------7-|--(7)--------5------5--|
|--5--5--5--3---3--3--5-|--(5)--5--5--3---3--3--|
|
| Gtr III
|  E  E  E  Q   E  E  E    +E   E  E  Q   E  Q
|----------10-----10-12-|-(12)-10-12-15--12-15--|
|-10-12-13-----13-------|-----------------------|
|-----------------------|-----------------------|
|-----------------------|-----------------------|
|-----------------------|-----------------------|
|-----------------------|-----------------------|


  F5
   ~~~            ~~~
   H.       Q     H.       +Q
|--------------|----------------||
|-10-------12--|-13-------(13)--||
|--------------|----------------||
|--------------|----------------||
|--------------|----------------||
|--------------|----------------||
|
|  W             +W
|--------------|----------------||
|--------------|----------------||
|--------------|----------------||
|--------------|----------------||
|--3-----------|-(3)------------||
|--1-----------|-(1)------------||
|
|  W              W
|-17-----------|----------------||
|--------------|----------------||
|--------------|----------------||
|--------------|----------------||
|--------------|----------------||
|--------------|----------------||


   2nd Chorus
    A5          E5        A5          E5
     E  E  E  E  Q   Q     E  E  E  E  Q   Q
||--20----17-20-19------|-20----17-20-19------|
||o----17-----------20--|----17-----------20--|
||----------------------|---------------------|
||----------------------|---------------------|
||o---------------------|---------------------|
||----------------------|---------------------|
|
|    H           H         H           H
||----------------------|---------------------|
||o---------------------|---------------------|
||----------------------|---------------------|
||---2------------------|--2------------------|
||o--0-----------2------|--0-----------2------|
||---------------0------|--------------0------|
|
|    H           H         H           H
||---5-----------0------|--5-----------0------|
||o-17----------12------|-17----------12------|
||----------------------|---------------------|
||----------------------|---------------------|
||o---------------------|---------------------|
||----------------------|---------------------|


  F5          G5            A5          E5
   E  E  E  E  E  E  E  E    E  E  E  E  Q   Q
|-17----13-17-19----15-19-|-20----17-20-19--------||
|----13----------15-------|----17-----------20---o||
|-------------------------|-----------------------||
|-------------------------|-----------------------||
|-------------------------|----------------------o||
|-------------------------|-----------------------||
|
|  H           H             H           H
|-------------------------|-----------------------||
|-------------------------|----------------------o||
|-------------------------|-----------------------||
|-------------------------|--2--------------------||
|--3-----------5----------|--0-----------2-------o||
|--1-----------3----------|--------------0--------||
|
|  H           H             H           H
|--1-----------3----------|--5-----------0--------||
|-13----------15----------|-17----------12-------o||
|-------------------------|-----------------------||
|-------------------------|-----------------------||
|-------------------------|----------------------o||
|-------------------------|-----------------------||


    B5          F#5       B5          F#5
    Gtr I
     E  E  E  E  Q   Q     E  E  E  E  Q   Q
||--22----19-22-21------|-22----19-22-21------|
||o----19-----------22--|----19-----------22--|
||----------------------|---------------------|
||----------------------|---------------------|
||o---------------------|---------------------|
||----------------------|---------------------|
|
|   Gtr II
|    H           H         H           H
||----------------------|---------------------|
||o---------------------|---------------------|
||----------------------|---------------------|
||---4------------------|--4------------------|
||o--2-----------4------|--2-----------4------|
||---------------2------|--------------2------|
|
|   Gtr VI
|    E  E  E  E  Q   Q     E  E  E  E  Q   Q
||----------------------|---------------------|
||o-19----15-19-17------|-19----15-19-17------|
||-----16-----------18--|----16-----------18--|
||----------------------|---------------------|
||o---------------------|---------------------|
||----------------------|---------------------|


  G5          A5            B5          F#5
   E  E  E  E  E  E  E  E    E  E  E  E  Q   Q
|-19----15-19-21----17-21-|-22----19-22-21--------||
|----15----------17-------|----19-----------22---o||
|-------------------------|-----------------------||
|-------------------------|-----------------------||
|-------------------------|----------------------o||
|-------------------------|-----------------------||
|
|  H           H             H           H
|-------------------------|-----------------------||
|-------------------------|----------------------o||
|-------------------------|-----------------------||
|-------------------------|--4--------------------||
|--5-----------7----------|--2-----------4-------o||
|--3-----------5----------|--------------2--------||
|
|  E  E  E  E  E  E  E  E    E  E  E  E  Q   Q
|-------------------------|-----------------------||
|-15----12-15-17----14-17-|-19----15-19-17-------o||
|----12----------14-------|----16-----------18----||
|-------------------------|-----------------------||
|-------------------------|----------------------o||
|-------------------------|-----------------------||


 Outro
  B5       A5        B5              A5     A5
  Gtr I
      PM|       PM|             PM|       PM
   E  E  E  Q   E  E  E    +E   E  E  Q   E  Q
|-----------------------|-----------------------|
|-----------------------|------------10-----10--|
|-----------9------9-11-|-(11)--9-11-----11-----|
|--9-11-12-----12-------|-----------------------|
|-----------------------|-----------------------|
|-----------------------|-----------------------|
|
| Gtr II
|     PM|       PM|             PM|       PM
|  E  E  E  Q   E  E  E    +E   E  E  Q   E  Q
|-----------------------|-----------------------|
|-----------------------|-----------------------|
|-----------------------|-----------------------|
|-----------------------|-----------------------|
|--9--------7---------9-|--(9)--------7------7--|
|--7--7--7--5---5--5--7-|--(7)--7--7--5---5--5--|
|
| Gtr III
|  E  E  E  Q   E  E  E    +E   E  E  Q   E  Q
|----------12-----12-14-|-(14)-12-14-17--14-17--|
|-12-14-15-----15-------|-----------------------|
|-----------------------|-----------------------|
|-----------------------|-----------------------|
|-----------------------|-----------------------|
|-----------------------|-----------------------|


  G5                              B5
   ~~~~~~~~~~~~~~~~         PM|
   W           +W           E E E E H      +Q   H.
|-----------|-------------|--------------|------------*|
|-12--------|-(12)--------|--------------|------------*|
|-----------|-------------|-------4-4----|-(4)--------*|
|-----------|-------------|-------4-4----|-(4)--------*|
|-----------|-------------|-2-2---2-2----|-(2)--------*|
|-----------|-------------|--------------|------------*|
|
|                           PM|
|  W           +W           E E E E H      +Q   H.
|-----------|-------------|--------------|------------*|
|-----------|-------------|--------------|------------*|
|-----------|-------------|-------4-4----|-(4)--------*|
|-----------|-------------|-------4-4----|-(4)--------*|
|--5--------|--(5)--------|-2-2---2-2----|-(2)--------*|
|--3--------|--(3)--------|--------------|------------*|
|
|  ~~~~~~~~~~~~~~~~
|  W           +W           E E E E H      +Q   H.
|-19--------|-(19)--------|--------------|------------*|
|-----------|-------------|--------------|------------*|
|-----------|-------------|-------4-4----|-(4)--------*|
|-----------|-------------|-------4-4----|-(4)--------*|
|-----------|-------------|-2-2---2-2----|-(2)--------*|
|-----------|-------------|--------------|------------*|



Duration Legend
---------------
W - whole; H - half; Q - quarter; E - 8th; S - 16th; T - 32nd; X - 64th; a - acciaccatura
+ - note tied to previous; . - note dotted; .. - note double dotted
Uncapitalized letters represent notes that are staccato (1/2 duration)
Irregular groupings are notated above the duration line
Duration letters will always appear directly above the note/fret number it represents the
duration for.  Duration letters with no fret number below them represent rests.  Multi-
bar rests are notated in the form Wxn, where n is the number of bars to rest for.  Low
melody durations appear below the staff

Tablature Legend
----------------
 h   - hammer-on
 p   - pull-off
 b   - bend
 pb  - pre-bend
 r   - bend release (if no number after the r, then release immediately)
 /\  - slide into or out of (from/to "nowhere")
 s   - legato slide
 S   - shift slide
 - natural harmonic
[n]  - artificial harmonic
n(n) - tapped harmonic
 ~   - vibrato
 tr  - trill
 T   - tap
 TP  - trem. picking
 PM  - palm muting
\n/  - tremolo bar dip; n = amount to dip
 \n  - tremolo bar down
 n/  - tremolo bar up
/n\  - tremolo bar inverted dip
 =   - hold bend; also acts as connecting device for hammers/pulls
 <> - volume swell (louder/softer)
 x   - on rhythm slash represents muted slash
 o   - on rhythm slash represents single note slash

Misc Legend
-----------
 |  - bar
||  - double bar
||o - repeat start
o|| - repeat end
*|  - double bar (ending)
 :  - bar (freetime)
 $  - Segno
 &  - Coda
Tempo markers -  = BPM(8/16=s8/s16), where s8 = swing 8ths, s16 = swing 16ths

comments
print report bad tab
2 comments total.
0 reply
GuitarHero_jp wrote on February 1 2009, 10:57 am

Looks pretty good to me

0 reply
cutie428 wrote on May 23 2009, 02:22 pm

Chorus:
|-20-17-17-20-19-----20-17-17-20-19-----17-------17-19-------19-20-17-17-20-19---|
|----------------20-----------------20-----17-17-------20-20------------------20-|
Other than that its flawless

I want to post or [tab]
guest
You may want to rate the tab now too:
select rating
Please do not post tabs as comments. Select "correction" instead!