Oops, an error
Loading. Please wait.

Downfall Tab

ver3
ver3
More versions @911Tabs.com
37,694 views 21 this week
14 commentsread comments
1 2 3 4 5
accurate
x 9
Autoscroll
+/-
esc
set tempo
stop
Contributor
Difficulty
intermediate
Hey! There's an official Ultimate Guitar app which is ideal
for learning songs when you're away from computer. Get the app
WARNING: You are trying to view
                                    content from Ultimate-Guitar.com
                                    in an unauthorized application,
                                    which is prohibited.

                                    Please use an official Ultimate
                                    Guitar Tabs application for iPhone,
                                    iPad or Android to access legitimate
                                    chords, guitar, bass, and drum tabs
                                    from Ultimate-Guitar.com database.

                                    Type "ultimate guitar tabs" in Apple
                                    App Store's or Android Market's
                                    search to find the application.
I've decided to add a tab of this song in because all the other tabs are hard to follow.
CHILDREN OF BODOM RULE THE METAL UNDERGROUND!

enjoy

Keyboards)
|--------------|--------------|--------------|---------------------||
|--------------|--------------|--------------|---------------------||
|--------------|--------------|--------------|---------------------||
|--------------|--------------|--------------|-X\----------------7-||
|--------------|--------------|--------------|------0-0-12\-7-10---||
|--------------|--------------|--------------|---------------------||

Riff A
3rd time band and another guitar in
 A5
|--------------------|-------------------|------------------|------------------|
|--------------------|-------------------|------------------|------------------|
|*-------------------|-------------------|----------------*/--/----------------|
|*-10-----7-9--------|-7------7--------7-|----------------/--/*----------------|
|-----7-0-----7-0-10-|---0-10---0-7-10---|------------------|------------------|
|--------------------|-------------------|------------------|------------------|

 F5                                      (harmonies in thirds 4th time)
|-------------------|-------------------|-------------------|
|-------------------|-------------------|-------------------|
|-------------------|-------------------|-------------------|
|-10-----7-9--------|-7------7--------7-|-10-----7-9--------|
|----8-0-----8-0-10-|---0-10---0-8-10---|----8-0-----8-0-10-|
|-------------------|-------------------|-------------------|

1.2.3. endings
|--------------------|
|--------------------|
|-------------------*|
|-7------7-----10-9-*|
|---0-10---0-8-------|
|--------------------|

4. ending
|-------------------|
|-------------------|
|-------------------|
|-7------7-7--------|
|---0-10-----0------|
|-------------------|

Riff B (repeat 3 times) (Verse begins on 2nd time)
|---------|--------|--------|--------|--------|--------|--------|--------|
|---------|--------|--------|--------|--------|--------|--------|--------|
|*--------|--------|-2------|-5------|-10-----|-2------|-5------|-------*|
|*-2------|-3------|-2------|-5------|-10-----|-2------|-5------|-6-----*|
|--2------|-3------|-0------|-3------|-8------|-0------|-3------|-7------|
|--0------|-1------|--------|--------|--------|--------|--------|--------|




|-----------------------|----------|-----------------------|----------|
|-----------------------|----------|-----------------------|----------|
|-2---------3---------2-|----------|-3-------------------3-|----------|
|-2---------3----5----2-|----------|-3---------3----5----3-|----------|
|-0-----0-0-1----5----0-|----------|-1-----1-1-3----5----1-|----------|
|----------------3------|----------|-----------1----3------|----------|


|-----------------------|----------|-----------------------|
|-----------------------|----------|-----------------------|
|-2---------3---------2-|----------|-3-------------------3-|
|-2---------3----5----2-|----------|-3---------3----5----3-|
|-0-----0-0-1----5----0-|----------|-1-----1-1-3----5----1-|
|----------------3------|----------|-----------1----3------|

(doubled a third higher)----------(keyboards)
|-------------------------------|---------|
|----------13-15-13h15p13-------|---------|
|----14-16----------------16-12-|-14~-----| (7 bars)
|-------------------------------|---------|
|-------------------------------|---------|
|-------------------------------|---------|


|--------|-------|-------|-------|
|--------|-------|-------|-------|
|*-2-----|-5-----|-------|-7----*|
|*-2-----|-5-----|-5-----|-7----*|
|--0-----|-3-----|-5-----|-5-----|
|--------|-------|-3-----|-------|


|---------------------|------------------|--------------|--------------|
|---------------------|-------8~-----8~--|-10~----------|--------------|
|--------7~------7-9~-|---7-9------9-----|--------------|--------------|
|-7-9-10------10------|------------------|--------------|--------------|
|---------------------|------------------|--------------|--------------|
|---------------------|------------------|--------------|--------------|


Chorus
  A5          E5            A5          E5
|-20-17----20-19----15----|-20-17----20-19----15----|
|-------17----------------|-------17----------------|
|*------------------------|-------------------------|
|*------------------------|-------------------------|
|-------------------------|-------------------------|
|-------------------------|-------------------------|

  F5          G5            A5          E5
|-17-13----17-19-15----19-|-20-17----20-19----15----|
|-------13----------15----|-------17----------------|
|-------------------------|------------------------*|
|-------------------------|------------------------*|
|-------------------------|-------------------------|
|-------------------------|-------------------------|


|-------------------------------|-------------------------------|
|-------------------------------|-------------------------------|
|*------------------------------|-------------------------------|
|*7---7---7-7-8---8-----------7-|-7---7-------7---8---7-------7-|
|---------------------10--10----|---------10--------------10----|
|-------------------------------|-------------------------------|


|-------------------------------|-------------------------------|
|-------------------------------|-------------------------------|
|-------------------------------|------------------------------*|
|-8---8---8-8-----------------8-|-8---8---7---8---10--8---7---8*|
|-------------8---8---10--10----|-------------------------------|
|-------------------------------|-------------------------------|

Riff A (8 bars)

Riff B (3 times)


|----------|----------|----------|----------|
|----------|----------|----------|----------|
|----------|----------|-------10-|-10-------|
|----------|----------|-------10-|-10-------|
|----------|----------|-------8--|-8--------|
|----------|----------|----------|----------|


|-----------|-----------|--------------|----------------|
|-----------|-----------|--------------|----------------|
|-7---------|-----------|-5------------|----------------|
|-7---------|-3---------|-5-----5------|--------5-------|
|-5---------|-3---------|-3-----5------|--------5-------|
|-----------|-1-----1-1-|-------3------|----3-3-3---3-3-|


|-----------|-----------|--------------|----------------|
|-----------|-----------|--------------|----------------|
|-7---------|-----------|--------------|----------------|
|-7---------|-3---------|--------------|----------------|
|-5---------|-3---------|-X-7---5~-----|----------------|
|-----------|-1-----1-1-|--------------|----------------|

                                  dive w/bar        ad lib bar effects
|-------|-------|-------|-------|-------|-------|-------|-------|
|-------|-------|-------|-------|-------|-------|-------|-------|
|-2-----|-------|-------|-------|-0-----|-------|-------|-------|
|-2-----|-------|-------|-------|-------|-------|-------|-------|
|-0-----|-------|-------|-------|-------|-------|-------|-------|
|-------|-------|-------|-------|-------|-------|-------|-------|


Solo
  E5              C5           D5          E5
|---------------|-17---------------------|---------------------17-19-20-19-17-|
|-17---19---20--|-------20b(22)r20---19--|-17---------17-19-20----------------|
|---------------|------------------------|------------------------------------|
|---------------|------------------------|------------------------------------|
|---------------|------------------------|------------------------------------|
|---------------|------------------------|------------------------------------|

  C5                      D5
|-19-17----------------17-19-20-22-20-19-17-------|
|-------20-19-17-19-20----------------------20-19-|
|-------------------------------------------------|
|-------------------------------------------------|
|-------------------------------------------------|
|-------------------------------------------------|

  E5              B5
|---------------|-20p17-------17p14-------20p17-------17p14-------|
|-17---19---20--|-------19-16-------16-13-------19-16-------16-13-|
|---------------|-------------------------------------------------|
|---------------|-------------------------------------------------|
|---------------|-------------------------------------------------|
|---------------|-------------------------------------------------|

  C5      D5      C5       D5     C5        G5
|-14---15---------14--|-15--------22b(24)---22-|
|---------17----------|----17------------------|
|---------------------|------------------------|
|---------------------|------------------------|
|---------------------|------------------------|
|---------------------|------------------------|

  E5              C5           D5
|---------------|-17---------------------|
|-17---19---20--|-------20b(22)r20---13--|
|---------------|------------------------|
|---------------|------------------------|
|---------------|------------------------|
|---------------|------------------------|

6/4 time
  C5          D5          C/E         D/F#        G5          A5         
|-------------------------15-------15-17----15-17-19-15-17-19-20-17-19-20-|
|-17-13-15-17-19-15-17-19----17-19-------19-------------------------------|
|-------------------------------------------------------------------------|
|-------------------------------------------------------------------------|
|-------------------------------------------------------------------------|
|-------------------------------------------------------------------------|

4/4 time
  B5
|-19-17-23-17-19-20-19-17-23-17-19-20-19-17-23-17-|
|-------------------------------------------------|
|-------------------------------------------------|
|-------------------------------------------------|
|-------------------------------------------------|
|-------------------------------------------------|


|-19-20-19-17-23-17-19-20-19-17-23-17-19b(20)-----|
|-------------------------------------------------|
|-------------------------------------------------|
|-------------------------------------------------|
|-------------------------------------------------|
|-------------------------------------------------|

  C5          B5          A5          G5
|-24-22-20-19-22-20-19-17-20-19-17-15-19-17-15-14-|
|-------------------------------------------------|
|-------------------------------------------------|
|-------------------------------------------------|
|-------------------------------------------------|
|-------------------------------------------------|

  B5    A5    G5    F#5   E5          B5
|-17-15-14-12-15-14-12-11-12~---------------------|
|-------------------------------------------------|
|-------------------------------------------------|
|-------------------------------------------------|
|-------------------------------------------------|
|-------------------------------------------------|

  E5                         A5
|-----15-15----------------|-----20-20-17-17----------|
|-----------17-17----------|-----------------17-17----|
|-----------------16-16----|-----------------------17-|
|-----------------------17-|--------------------------|
|--------------------------|--------------------------|
|--------------------------|--------------------------|

  B     C#    D#    F#      G     A     H~
|-19-17-15-19-17-15----17-|-15----15-17-19~----------|
|-------------------19----|----19--------------------|
|-------------------------|--------------------------|
|-------------------------|--------------------------|
|-------------------------|--------------------------|
|-------------------------|--------------------------|


E5                         A5
|-----15-15----------------|-----20-20-17-17----------|
|-----------17-17----------|-----------------17-17----|
|-----------------16-16----|-----------------------17-|
|-----------------------17-|--------------------------|
|--------------------------|--------------------------|
|--------------------------|--------------------------|

  B5                                                     B5  E5
|-------------17-19-20-19-17----------------------|-----------------|
|----17-19-20----------------20-19-17-------------|-----------------|
|-19----------------------------------19-17-16----|-----------------|
|----------------------------------------------19-|-17--------------|
|-------------------------------------------------|-----------------|
|-------------------------------------------------|-----------------|

           (Keyboards)
|--------|
|--------|
|-2------|
|-2------| 7 bars
|-0------|
|--------|


|--------|-------|-------|-------|
|--------|-------|-------|-------|
|*-2-----|-5-----|-------|-7----*|
|*-2-----|-5-----|-5-----|-7----*|
|--0-----|-3-----|-5-----|-5-----|
|--------|-------|-3-----|-------|


|---------------------|------------------|--------------|--------------|
|---------------------|-------8~-----8~--|-10~-------12-|-13~----------|
|--------7~------7-9~-|---7-9------9-----|--------------|--------------|
|-7-9-10------10------|------------------|--------------|--------------|
|---------------------|------------------|--------------|--------------|
|---------------------|------------------|--------------|--------------|


Chorus
  A5          E5            A5          E5
|-20-17----20-19----15----|-20-17----20-19----15----|
|-------17----------------|-------17----------------|
|*------------------------|-------------------------|
|*------------------------|-------------------------|
|-------------------------|-------------------------|
|-------------------------|-------------------------|

  F5          G5            A5          E5
|-17-13----17-19-15----19-|-20-17----20-19----15----|
|-------13----------15----|-------17----------------|
|-------------------------|------------------------*|
|-------------------------|------------------------*|
|-------------------------|-------------------------|
|-------------------------|-------------------------|


  B5          F#5           B5          F#5
|-22-19----22-21----17----|-22-19----22-21----17----|
|-------19----------------|-------19----------------|
|*------------------------|-------------------------|
|*------------------------|-------------------------|
|-------------------------|-------------------------|
|-------------------------|-------------------------|

  G5          A5            B5          F#5
|-19-15----19-21-17----21-|-22-19----22-21----17----|
|-------15----------17----|-------19----------------|
|-------------------------|------------------------*|
|-------------------------|------------------------*|
|-------------------------|-------------------------|
|-------------------------|-------------------------|


|-----------------------|--------------------|--------------|--------------|
|-----------------------|-------10~-----10~--|-12~----------|--------------|
|---------9~------9-11~-|---9-11------11-----|--------------|--------------|
|-9-11-12------12-------|--------------------|--------------|--------------|
|-----------------------|--------------------|--------------|--------------|
|-----------------------|--------------------|--------------|--------------|


|----------------------||
|----------------------||
|-4--4-----4--4--------||
|-4--4-----4--4--------||
|-2--2-----2--2--------||
|----------------------||

 
comments
print report bad tab
14 comments total. Showing first comments.
0 reply
FagNasty wrote on April 23 2006, 04:14 pm

wow. finally a good tab for this

0 reply
typo420 wrote on April 24 2006, 11:46 am

which tuning is it in dgcfad or standard?

+1 reply
arubanguitarist wrote on April 29 2006, 04:44 am

Its in dgcfad

I want to post or [tab]
guest
You may want to rate the tab now too:
select rating
Please do not post tabs as comments. Select "correction" instead!