Oops, an error
Loading. Please wait.

Everytime I Die Tab

ver4
ver4
More versions @911Tabs.com
1,692 views 6 this week
no commentswrite comment
1 2 3 4 5
please rate
Autoscroll
+/-
esc
set tempo
stop
Contributor
Difficulty
advanced
WARNING: You are trying to view
                                    content from Ultimate-Guitar.com
                                    in an unauthorized application,
                                    which is prohibited.

                                    Please use an official Ultimate
                                    Guitar Tabs application for iPhone,
                                    iPad or Android to access legitimate
                                    chords, guitar, bass, and drum tabs
                                    from Ultimate-Guitar.com database.

                                    Type "ultimate guitar tabs" in Apple
                                    App Store's or Android Market's
                                    search to find the application.
                                        
                                    Everytime I Die                                            
                                   Children of Bodom

Words and music By: Alexi Laiho, Children of Bodom
Tabbed By: Roman Warrior
© of song by:
Spinal Farms Records and Children of Bodom

D Standard
1 Whole step Down

                                                                                   
Alexi
                              NH                                                         
                               W                  W                  W                 
D||-------|-------|-------|--------------------|-----------------|--------------------|
A||-------|-------|-------|--------------------|--3--------------|--/5----------------|
F||-------|-------|-------|--/15\--------------|--2--------------|--/4----------------|
C||-------|-------|-------|--------------------|-----------------|--------------------|
G||-------|-------|-------|--------------------|-----------------|--------------------|
D||-------|-------|-------|--------------------|-----------------|--------------------|
 
 
                                               PM PM PM PM PM PM PM PM PM PM PM PM  
   H         H            W                    E  S  S  S  S  S  S  S  E  S  E  E   
----------------------|---------------------|--------------------------------------|
--12--------10--------|---------------------|--------------------------------------|
--12--------11--------|--15b----------------|--------------------------------------|
----------------------|---------------------|--------------------------------------|
----------------------|---------------------|--------------------------------------|
----------------------|---------------------|--0--0--0--0--0--0--0--0--0--0--0--0--|
 
 
  PM PM PM PM PM PM PM PM PM PM           PM PM PM PM PM PM PM PM PM PM PM PM  
  E  S  S  S  S  S  S  S  E  S   Q        E  S  S  S  S  S  S  S  E  S  E  E   
---------------------------------------|--------------------------------------|
---------------------------------------|--------------------------------------|
--------------------------------(7)----|--------------------------------------|
---------------------------------7-----|--------------------------------------|
---------------------------------5-----|--------------------------------------|
--0--0--0--0--0--0--0--0--0--0---------|--0--0--0--0--0--0--0--0--0--0--0--0--|
 
 
  PM PM PM PM PM PM PM                                PM PM PM PM PM PM PM PM PM PM PM  
  E  S  S  S  S  S  S   S S  S  S  S  S  S  S     E   S  S  S  S  S  S  S  E  S  E  E   
----------------------------------------------|----------------------------------------|
-------------------------------10-12-10-------|----------------------------------------|
-----------------------12-9-12----------12-11-|--12~-----------------------------------|
----------------------------------------------|----------------------------------------|
----------------------------------------------|----------------------------------------|
--0--0--0--0--0--0--0-------------------------|-------0--0--0--0--0--0--0--0--0--0--0--|
 
 
  PM PM PM PM PM PM PM PM PM PM           PM PM PM PM PM PM PM PM PM PM PM PM  
  E  S  S  S  S  S  S  S  E  S   Q        E  S  S  S  S  S  S  S  E  S  E  E   
---------------------------------------|--------------------------------------|
---------------------------------------|--------------------------------------|
--------------------------------(7)----|--------------------------------------|
---------------------------------7-----|--------------------------------------|
---------------------------------5-----|--------------------------------------|
--0--0--0--0--0--0--0--0--0--0---------|--0--0--0--0--0--0--0--0--0--0--0--0--|
 
 
                                                                 PM PM    PM PM     
  Q    Q    Q    Q       E  E  E  E  E  E   E  E     E  E  E  E  S  S  E  S  S  E   
----------------------|---------------------------|--------------------------------|
----------------------|---------------------------|--------------------------------|
----------------------|--9------------------------|--------------------------------|
--2----5----2----7----|-----9--9--9--7------------|-----7--5--4--------5--------4--|
--0----3----0----5----|-----------------9--10--7--|--5-----------3--3-----5--5-----|
----------------------|---------------------------|--------------------------------|
 
 
                                          PM PM    PM PM                                       
  E  E  E  E  E  E   E  E     E  E  E  E  S  S  E  S  S  E      E   E   E   E   E   E   E  E   
---------------------------|--------------------------------|--12-----------------------------|
---------------------------|--------------------------------|------12--12--12--10-------------|
--9------------------------|--------------------------------|----------------------11--12--9--|
-----9--9--9--7------------|-----7--5--4--------5--------7--|---------------------------------|
-----------------9--10--7--|--5-----------3--3--3--5--5--5--|---------------------------------|
---------------------------|--------------------------------|---------------------------------|
 
 
                   PM PM     PM PM                                       
   E   E   E   E   S  S  E   S  S  E      E   E   E   E   E   E   E  E   
--------------------------------------|--12-----------------------------|
------10------------------------------|------12--12--12--10-------------|
----------12--11--------12--------14--|----------------------11--12--9--|
--12--------------10-10-10--12-12-12--|---------------------------------|
--------------------------------------|---------------------------------|
--------------------------------------|---------------------------------|
 
 
                               with Delay…                                                    
   E   E   E   E  H            Q       E   Q     E   Q        E   Q     E   Q     E   E    
---------------------------|--22b---------22b-------22b----|-----22b-------22b-------22b--|
------10-------------------|-------------------------------|------------------------------|
----------12--11-----------|-------------------------------|------------------------------|
--12-----------------------|-------------------------------|------------------------------|
---------------------------|-------------------------------|------------------------------|
---------------------------|-------------------------------|------------------------------|
 
 
                         PM PM    PM PM    PM PM          PM PM    PM PM PM PM PM PM PM  
  W                   E  E  E  E  S  S  E  S  S  E     E  E  E  E  E  S  S  S  S  S  S   
-------------------|--------------------------------|-----------------------------------|
-------------------|--------------------------------|-----------------------------------|
-------------------|--------------------------------|-----------------------------------|
-------------------|--4--------4--------5--------7--|-----------------------------------|
-------------------|--2--2--2--2--3--3--3--5--5--5--|--2--------2-----------------------|
-------------------|--------------------------------|--0--0--0--0--0--0--0--0--0--0--0--|
 
 
     PM PM    PM PM PM            PM PM    PM PM PM PM            PM PM    PM PM    PM PM     
                                              |--3--|                                         
  E  E  E  E  E  S  S  Q       E  E  E  E  E  S  S  S  Q       E  E  E  E  S  S  E  S  S  E   
----------------------------|-------------------------------|--------------------------------|
----------------------------|-------------------------------|--------------------------------|
----------------------------|-------------------------------|--------------------------------|
-----------------------5----|--------------------------7----|--4--------4--------5--------7--|
--2--------2-----------3----|--2--------2--------------5----|--2--2--2--2--3--3--3--5--5--5--|
--0--0--0--0--0--0--0-------|--0--0--0--0--0--0--0--0-------|--------------------------------|
 
 
     PM PM    PM PM PM PM PM PM PM       PM PM    PM PM PM            PM PM    PM PM PM PM       
                                                                                  |--3--|        
  E  E  E  E  E  S  S  S  S  S  S     E  E  E  E  E  S  S  Q       E  E  E  E  E  S  S  S  Q     
-----------------------------------|----------------------------|-------------------------------|
-----------------------------------|----------------------------|-------------------------------|
-----------------------------------|----------------------------|-------------------------------|
-----------------------------------|-----------------------5----|--------------------------7----|
--2--------2-----------------------|--2--------2-----------3----|--2--------2--------------5----|
--0--0--0--0--0--0--0--0--0--0--0--|--0--0--0--0--0--0--0-------|--0--0--0--0--0--0--0--0-------|
 
 
     PM PM    PM PM    PM PM          PM PM    PM PM PM PM PM PM PM       PM PM    PM PM PM       
  E  E  E  E  S  S  E  S  S  E     E  E  E  E  E  S  S  S  S  S  S     E  E  E  E  E  S  S  Q     
--------------------------------|-----------------------------------|----------------------------|
--------------------------------|-----------------------------------|----------------------------|
--------------------------------|-----------------------------------|----------------------------|
--4--------4--------5--------7--|-----------------------------------|-----------------------5----|
--2--2--2--2--3--3--3--5--5--5--|--2--------2-----------------------|--2--------2-----------3----|
--------------------------------|--0--0--0--0--0--0--0--0--0--0--0--|--0--0--0--0--0--0--0-------|
 
 
     PM PM    PM PM PM PM            PM PM    PM PM                                    
                 |--3--|                                                               
  E  E  E  E  E  S  S  S  Q       E  E  E  E  E  E  Q        E  E  E  E  E  E   E  E   
-------------------------------|-------------------------|----------------------------|
-------------------------------|-------------------------|--10------------------------|
-------------------------------|-------------------------|------9--9--9--7------------|
--------------------------7----|-------------------------|------------------9--10--7--|
--2--------2--------------5----|--3--------3--------5----|----------------------------|
--0--0--0--0--0--0--0--0-------|--1--1--1--1--1--1--3----|----------------------------|
 
 
                PM PM      PM PM                                  
   E  E   E  E  S  S   E   S  S  E      E  E  E  E  E  E   E  E   
------------------------------------|----------------------------|
------------------------------------|--10------------------------|
------7-----------------------------|------9--9--9--7------------|
---------10--9--------10--------12--|------------------9--10--7--|
--10------------8--8---8--10-10-10--|----------------------------|
------------------------------------|----------------------------|
 
 
                PM PM      PM PM                                  
   E  E   E  E  S  S   E   S  S  E      E  E  E  E  E  E   E  E   
------------------------------------|----------------------------|
------------------------------------|--10------------------------|
------7-----------------------------|------9--9--9--7------------|
---------10--9--------10--------12--|------------------9--10--7--|
--10------------8--8---8--10-10-10--|----------------------------|
------------------------------------|----------------------------|
 
 
                PM PM      PM PM                                 T                          
   E  E   E  E  S  S   E   S  S  E     Q     Q    Q     Q        E.    S  Q      H          
------------------------------------|------------------------|--19p---17-19----(19)--------|
------------------------------------|------------------------|-----------------------------|
------7-----------------------------|------------------------|-----------------------------|
---------10--9--------10--------12--|--7----10----7----12----|-----------------------------|
--10------------8--8---8--10-10-10--|--5-----8----5----10----|-----------------------------|
------------------------------------|------------------------|-----------------------------|
 
 
                               PM PM            PM                                        
   E  E  E   E  E  E  E  E     S  S   E  E   E  E  E  E  E      E  E  E   E  E  E  E  E   
----------------7--------7--|-------------------------7-----|----------------7--------7--|
--10-----8--10--------8-----|--------10--8--10-----8--7--8--|--10-----8--10--------8-----|
------9------------9--------|--9--9---9--7---9--9--7-----7--|------9------------9--------|
----------------------------|-------------------------------|----------------------------|
----------------------------|-------------------------------|----------------------------|
----------------------------|-------------------------------|----------------------------|
 
 
  PM PM            PM                                        
  S  S   E  E   E  E  E  E  E      E  E  E   E  E  E  E  E   
-------------------------7-----|----------------7--------7--|
--------10--8--10-----8--7--8--|--10-----8--10--------8-----|
--9--9---9--7---9--9--7-----7--|------9------------9--------|
-------------------------------|----------------------------|
-------------------------------|----------------------------|
-------------------------------|----------------------------|
 
 
  E   E   E  E   S  S  S  S  S  S  S  S     W                  
--8----------8-----------12-13-15-13----|--12~----------------|
---------10-----12-13-15-------------15-|---------------------|
-----10---------------------------------|---------------------|
----------------------------------------|---------------------|
----------------------------------------|---------------------|
----------------------------------------|---------------------|
 
 
  PM PM PM PM PM PM PM PM PM PM           PM PM PM PM PM PM PM PM PM PM PM PM  
  E  S  S  S  S  S  S  S  E  S   Q        E  S  S  S  S  S  S  S  E  S  E  E   
---------------------------------------|--------------------------------------|
---------------------------------------|--------------------------------------|
--------------------------------(7)----|--------------------------------------|
---------------------------------7-----|--------------------------------------|
---------------------------------5-----|--------------------------------------|
--0--0--0--0--0--0--0--0--0--0---------|--0--0--0--0--0--0--0--0--0--0--0--0--|
 
 
  PM PM PM PM PM    PM PM         PM     PM           PM PM    PM PM PM PM PM PM PM  
  E  S  S  S  S  E  S  S  E  Q    S  E.  S  E.     E  E  E  E  E  S  S  S  S  S  S   
------------------------------------------------|-----------------------------------|
------------------------------------------------|-----------------------------------|
------------------------------------------------|-----------------------------------|
-----------------7--------7--7-------5------7---|-----------------------------------|
-----------------5--5--5--5--5----3--3---5--5---|--2--------2-----------------------|
--0--0--0--0--0---------------------------------|--0--0--0--0--0--0--0--0--0--0--0--|
 
 
     PM PM    PM PM PM            PM PM    PM PM PM PM            PM PM    PM PM    PM PM     
                                              |--3--|                                         
  E  E  E  E  E  S  S  Q       E  E  E  E  E  S  S  S  Q       E  E  E  E  S  S  E  S  S  E   
----------------------------|-------------------------------|--------------------------------|
----------------------------|-------------------------------|--------------------------------|
----------------------------|-------------------------------|--------------------------------|
-----------------------5----|--------------------------7----|--4--------4--------5--------7--|
--2--------2-----------3----|--2--------2--------------5----|--2--2--2--2--3--3--3--5--5--5--|
--0--0--0--0--0--0--0-------|--0--0--0--0--0--0--0--0-------|--------------------------------|
 
 
     PM PM    PM PM PM PM PM PM PM       PM PM    PM PM PM            PM PM    PM PM PM PM       
                                                                                  |--3--|        
  E  E  E  E  E  S  S  S  S  S  S     E  E  E  E  E  S  S  Q       E  E  E  E  E  S  S  S  Q     
-----------------------------------|----------------------------|-------------------------------|
-----------------------------------|----------------------------|-------------------------------|
-----------------------------------|----------------------------|-------------------------------|
-----------------------------------|-----------------------5----|--------------------------7----|
--2--------2-----------------------|--2--------2-----------3----|--2--------2--------------5----|
--0--0--0--0--0--0--0--0--0--0--0--|--0--0--0--0--0--0--0-------|--0--0--0--0--0--0--0--0-------|
 
 
     PM PM    PM PM    PM PM                                                      
  E  E  E  E  S  S  E  S  S  E      S  S  S  S  S  S S  S  S  S S  S  S  S  S  S  
--------------------------------|-----------------15-0-15-17-15-0-15----------15-|
--------------------------------|--17----17----17--------------------17----17----|
--------------------------------|-----16----16--------------------------16-------|
--4--------4--------5--------7--|------------------------------------------------|
--2--2--2--2--3--3--3--5--5--5--|------------------------------------------------|
--------------------------------|------------------------------------------------|
 
 
   S  S  S  S  S  S S  S  S  S S  S  S  S  S  S     S  S  S  S  S  S S  S  S  S S  S  S  S  S  S  
-----------------15-0-15-17-15-0-15----------15-|-----------------15-0-15-17-15-0-15----------15-|
--17----17----17--------------------17----17----|--17----17----17--------------------17----17----|
-----16----16--------------------------16-------|-----16----16--------------------------16-------|
------------------------------------------------|------------------------------------------------|
------------------------------------------------|------------------------------------------------|
------------------------------------------------|------------------------------------------------|
 
 
                                         PM PM PM   PM       PM         PM        
  Q.      E   S  S  S  S  S  S S  S    S S  S  S  S S  S S S S   S  S S S   S  S  
------------------------------------|--------------------------------------------|
---------13--12-13-12-10------------|--------------------------------------------|
-------------------------12-11-9----|--------------------------------------------|
---------------------------------12-|--9---------------9-9------11-11------12-12-|
------------------------------------|--7---------------7-7-------9--9------10-10-|
------------------------------------|----0--0--0----0--------0----------0--------|
 
 
    PM PM PM   PM       PM       PM               PM PM                                        
  S S  S  S  S S  S S S S  S S S S  S S    Q.     S  S  E.  S E  E      E.  S E  E  Q    Q     
----------------------------------------|----------------------------|------------------------|
----------------------------------------|----------------------------|------------------------|
----------------------------------------|----------------------------|------------------------|
--5---------------5-5------9-9------7-7-|--4------4--5--7---5-L--4S--|--9---7-L--5--5----4----|
--3-3--3--3----3--3-3---7--7-7---5--5-5-|----------------------------|------------------------|
----------------------------------------|----------------------------|------------------------|
 
 
    PM PM PM   PM       PM         PM            PM PM PM   PM       PM       PM      
  S S  S  S  S S  S S S S   S  S S S   S  S    S S  S  S  S S  S S S S  S S S S  S S  
--------------------------------------------|----------------------------------------|
--------------------------------------------|----------------------------------------|
--------------------------------------------|----------------------------------------|
--9---------------9-9------11-11------12-12-|--5---------------5-5------9-9------7-7-|
--7---------------7-7-------9--9------10-10-|--3-3--3--3----3--3-3---7--7-7---5--5-5-|
----0--0--0----0--------0----------0--------|----------------------------------------|
 
                                                        Guitar Solo
         PM PM                                                                             
  Q.     S  S  E.  S E  E      E.  S E  E  Q    Q        E   E   E   E   E    E   E    E   
----------------------------|------------------------|----------19--15--15S--17-----------|
----------------------------|------------------------|------17-------------------17S--13--|
----------------------------|------------------------|--14--------------------------------|
--4------4--5--7---5-L--4S--|--9---7-L--5--5----4----|------------------------------------|
----------------------------|------------------------|------------------------------------|
----------------------------|------------------------|------------------------------------|
 
                                        with wah
                                            T        T        T        T       T      
   E    E   E   E   E  E   E   E      S  S  S  S  S  S  S S  S  S  S  S  S  S  S  S  
----------------------17--15------|--------------------------------------------------|
--15S--17---------------------15--|--16h17h20p16h17h22p16h17h20p16h17h22p16h17h24p16-|
----------------------------------|--------------------------------------------------|
----------14S--12-----------------|--------------------------------------------------|
----------------------------------|--------------------------------------------------|
------------------15--------------|--------------------------------------------------|
 
 
                                 |---3---|  |-----------9-----------| 
   S  S  S  S  S  S  S  S  S  S  S   S   S  T  T  T  T  T  T  T  T  T  
--20-------19-------17---------------------20-17-16----------20-17-16-|
-----18-------18----------20----16h-17h-20----------20-17-16----------|
--------17-------17----17----19---------------------------------------|
----------------------------------------------------------------------|
----------------------------------------------------------------------|
----------------------------------------------------------------------|
 
 
   H           S    S  S  S  S  S  S  S     S  S  S  S  S  S  Q      S     S  E    E   
--20br---------L---17-------------------|--------------17-20-19b----Lbr-17-19~--17--|
----------------------20-17-------------|-----------18------------------------------|
----------------------------19-17-------|--------17---------------------------------|
----------------------------------19-17-|-----19------------------------------------|
----------------------------------------|--20---------------------------------------|
----------------------------------------|-------------------------------------------|
 
with wah
  |----------9------|  |----------9------|  |----------9------|  |----------9------|
  T T T  T T T  T T T  T T T  T T T  T T T  T T T  T T T  T T T  T T T  T T T  T T T
-201917---------------201917---------------201917---------------201917--------------|
--------201917---------------201917---------------201917---------------201917-------|
---------------201917---------------201917---------------201917---------------201917|
------------------------------------------------------------------------------------|
------------------------------------------------------------------------------------|
------------------------------------------------------------------------------------|
 
with wah
  |----------9------|  |----------9------|  |----------9------|  |----------9------|
  T T T  T T T  T T T  T T T  T T T  T T T  T T T  T T T  T T T  T T T  T T T  T T T
-201917------------------------------------------------------------------------------|
--------201917--------201917---------------------------------------------------------|
---------------201917--------201917--------201917------------------------------------|
------------------------------------201917--------201917--------201917---------------|
---------------------------------------------------------201917--------201917--------|
------------------------------------------------------------------------------201917-|
 
 Keyboard Solo
  W                W                W                W                 W                 
----------------|----------------|----------------|-----------------|----------------|
----------------|----------------|----------------|-----------------|----------------|
----------------|----------------|----------------|-----------------|----------------|
----------------|----------------|----------------|-----------------|----------------|
----------------|----------------|----------------|-----------------|----------------|
----------------|----------------|----------------|-----------------|----------------|
 
 
                                                     PM PM PM PM PM     
  W                   W                   H        S S  S  S  S  S  E   
-------------------|-------------------|-------------------------------|
-------------------|-------------------|-------------------------------|
-------------------|-------------------|-------------------------------|
-------------------|-------------------|-------------------------------|
-------------------|-------------------|--3--------5----------------5--|
-------------------|-------------------|--1--------3-3--3--3--3--3--3--|
 
 
    PM         PM     PM                                     PM PM            PM           
  S S  E  Q    S  E.  S  E.      E  E  E   E  E  E  E  E     S  S   E  E   E  E  E  E  E   
-----------------------------|----------------7--------7--|-------------------------7-----|
-----------------------------|--10-----8--10--------8-----|--------10--8--10-----8--7--8--|
-----------------------------|------9------------9--------|--9--9---9--7---9--9--7-----7--|
-----------------------------|----------------------------|-------------------------------|
-------5--5-------3------5---|----------------------------|-------------------------------|
----3--3--3----1--1---3--3---|----------------------------|-------------------------------|
 
 
                               PM PM            PM                                        
   E  E  E   E  E  E  E  E     S  S   E  E   E  E  E  E  E      E  E  E   E  E  E  E  E   
----------------7--------7--|-------------------------7-----|----------------7--------7--|
--10-----8--10--------8-----|--------10--8--10-----8--7--8--|--10-----8--10--------8-----|
------9------------9--------|--9--9---9--7---9--9--7-----7--|------9------------9--------|
----------------------------|-------------------------------|----------------------------|
----------------------------|-------------------------------|----------------------------|
----------------------------|-------------------------------|----------------------------|
 
 
                                                                 PM     PM                 
  E   E   E  E   S  S  S  S  S  S  S  S     W                    S  E.  S  E.  Q    Q      
--8----------8-----------12-13-15-13----|--12~----------------|--------------------------||
---------10-----12-13-15-------------15-|---------------------|--------------------------||
-----10---------------------------------|---------------------|--------------------------||
----------------------------------------|---------------------|--------------------------||
----------------------------------------|---------------------|-----3------5---7---------||
----------------------------------------|---------------------|--1--1---3--3---5---------||
 
 
 
 
Duration Legend
---------------
W - whole
H - half
Q - quarter
E - 8th
S - 16th
T - 32nd
X - 64th
. - note dotted
|-n-|  - n-tuplets
 
 
Tablature Legend
----------------
L - tied note
x - dead note
g - grace note
(n) - ghost note
> - accentuded note
NH - natural harmonic
AH - artificial harmonic
TH - tapped harmonic
SH - semi harmonic
PH - pitch harmonic
h - hammer on
p - pull off
b - bend
br - bendRelease
pb - preBend
pbr - preBendRelease
brb - bendReleaseBend
\n/ - tremolo bar dip
\n - tremolo bar dive
-/n - tremolo bar Release up
/n\ - tremolo bar inverted dip
/n - tremolo bar return
-\n - tremolo bar Release down
S - shift slide
s - legato slide
/ -  slide into from below or out of upwards
\ -  slide into from above or out of downwards
~ - vibrato
W - wide vibrato
tr - tril'
TP - tremolo picking
T - tapping
S - slap
P - pop
< - fade in
^ - brush up
v - brush down
comments
We did not receive enough feedback on this tab! Please rate:
print report bad tab
1 2 3 4 5
I want to post or [tab]
guest
You may want to rate the tab now too:
select rating
Please do not post tabs as comments. Select "correction" instead!