Oops, an error
Loading. Please wait.

Follow The Reaper Tab

ver1
ver1

Album

Solo

Whole song

Interactive

More versions @911Tabs.com
19,685 views 24 this week
1 commentread comment
1 2 3 4 5
accurate
x 4
Autoscroll
+/-
esc
set tempo
stop
Contributor
Hey! There's an official Ultimate Guitar app which is ideal
for learning songs when you're away from computer. Get the app
WARNING: You are trying to view
                                    content from Ultimate-Guitar.com
                                    in an unauthorized application,
                                    which is prohibited.

                                    Please use an official Ultimate
                                    Guitar Tabs application for iPhone,
                                    iPad or Android to access legitimate
                                    chords, guitar, bass, and drum tabs
                                    from Ultimate-Guitar.com database.

                                    Type "ultimate guitar tabs" in Apple
                                    App Store's or Android Market's
                                    search to find the application.
Children of Bodom
Follow the reaper Album
Tabbed by Kevin Cruz (Kevin666)

WARNING: IF THIS PAGE IS HARD TO READ, CHECK OUT THE 
         TABS OF THE SONGS INDIVIDUALY

1.Follow the Reaper       | Kevin666
2.Bodom after Midnight    | SolidMetaL
3.Children of Decadence   | Risto A.
4.Everytime i die         | SolidMetaL
5.Mask of Sanity          | Michiel Quakernaat
6.Taste my Scythe         | Kevin666
7.Hate me                 | Bodom@666.zzn.com
8.Northern Comfort        | THE SANDMAN
9.Kissing the Shadows     | THE SANDMAN
10.Hellion (Wasp Cover)   | Jani Ylikangas
 
-----------------------------------------------------------------------------

Tune down one whole step
Guitar 1                                 1.
D:-------------------|-----------------|-----------------------------------|
A:-------------------|-----------------|-----------------------------------|
F:-------------------|-----------------|-----------------------------------|
G:-9---9h10-9---9----|-9--9h10-9p7-----|-9---9h10-9---9----9---9h10-5-7-10-|
C:-7-7-7----7-7-7h10-|-7-7-7---7---7-7-|-7-7-7----7-7-7h10-7-7-7----3-5-8--|
D:-------------------|-----------------|-----------------------------------|
     .        .          .         .       .        .        .
                                         2.
                                       |-------------------|---------------|
                                       |-------------------|---------------|
                                       |-------------------|---------------|
                                       |-9---9h10-9---9--7-|--9p7-5--7p5-9-|
                                       |-7-7-7----7-7-7--5-|--5---3--3---7-|
                                       |-------------------|---------------|
                                           .        .

                                       1.
D:-----------------|------------------|-------------------|----------------|
A:-----------------|------------------|-------------------|----------8-----|
F:-----------------|------------------|-------------------|--------6---6---|
G:---9h10-9---9----|-9---9h10-9p7-----|-9---9h10-9---9----|-9---------8s11-|
C:-7-7----7-7-7h10-|-7-7-7----7---7-7-|-7-7-7----7-7-7h10-|-7-7-7----------|
D:-----------------|------------------|-------------------|----------------|
   .        .          .          . .     .        .          . .
                               2.
                             |-------------------|-------------|-----------|
                             |-------------------|-------------|-----------|
                             |-------------------|-------------|-----4-7-9~|
                             |-9---9h10-9---9--4-|-2---2-----4-|-2---5-4-9~|
                             |-7-7-7----7-7-7----|---5----5-3--|---5-------|
                             |-------------------|-------------|-----------|
                                 .        .

D:----------------|------------|-----------|
A:----------------|------------|---8-------|
F:-10~------------|------------|-9---6---9-|
G:-10~---10--7--9-|------------|-------8---|
C:-------8---5--7-|-Dive\Raise-|-----------|
D:----------------|-0\---------|-----------|

D:-----|----------------|----------|----------|
A:-----|----------------|----------|----------|
F:-----|----------------|----------|----------|
G:--9--|10---10---7-----|-5~-4~----|-------4~-|
C:--7--|8----8----5---5-|-------7~-|-5~-7~----|
D:-----|----------------|----------|----------|
                      .

D:-----------------|---------|--------------------------------|
A:-----------------|---------|--------------------------------|
F:-----------------|---------|--------------------------------|
G:-9----/11s12\11--|-\7s5/9--|------------------------------9-|
C:-7----/9-s10\9---|-\5s3/7--|------------------------8-8-8-7-|
D:-----------------|---------|-0-000-0-0-000-0-0-000--6-6-6---|
                               . ... . . ... . . ...

D:---------|-------------|-----------------------------------|
A:---------|-------------|-----------------------------------|
F:---------|-------------|-----------------------------------|
G:-\7s5/7--|--/12s11\9---|-----------------------4--4--4--5--|
C:-\5s3/5--|--/10s9-\7---|-----------------------------------|
D:---------|-------------|-0-000-0-0-000-0-0-000-------------|
                           . ... . . ... . . ...

D:-----------------|------------------------|-------------------------------|
A:-----------------|------------------------|-------------------------------|
F:------------4----|------------------------|-------------------------------|
G:-5-5-5-5-7-----7-|-7--7--7--7--7--5--4--5-|-----------------------------5-|
C:-----------------|------------------------|-----------------------8-8-8---|
D:-----------------|------------------------|-0-000-0-0-000-0-0-000-6-6-6---|
                                              . ... . . ... . . ...

D:---------------|-----------------|------------------------|---------------|
A:---------------|-----------------|------------9-----------|---------------|
F:---------------|-----------------|------8-----------8-----|---------------|
G:-5-5-5-5-4---4-|-4-4-4-4-4-5-4---|---7-----7-----7-----7--|---------------|
C:-----------7---|---------------7-|-0----------------------|---------2-5-4-|
D:---------------|-----------------|------------------------|-000-000-0-3-2-|
                                     . .     .     .     .    ... ... . . .

Chorus
D:-----------------|-----------------|-------------------------|------------|
A:-----------------|-----------------|-------------------------|------------|
F:-9-9-9-9-7-7-5-7-|-9-9-7-7-7-7-7-7-|---------4---5---4-----4-|-5--7--5--4~|
G:-7-7-7-7-5-5-5-5-|-7-7-7-7-5-5-5-5-|-x----7-------------7----|------------|
C:-----------------|-----------------|---7---------------------|------------|
D:-----------------|-----------------|-------------------------|------------|

D:-----------------|-----------------|---------------------|----------------|
A:-----------------|---------8-------|---------------------|----------------|
F:-9-9-9-9-4-4-5-5-|-7-7-7-7-----7---|-------4--5--4-----4-|-5-7s9-7---10-9-|
G:-7-7-7-7-2-2-3-3-|-5-5-5-5---5---5-|----7-----------7----|---------7------|
C:-----------------|-----------------|-7-------------------|----------------|
D:-----------------|-----------------|---------------------|----------------|
                                                                     .

D:------------------------|-----------------------|
A:------------------------|-----------------------|
F:-7-----9--7-------7-----|-----------------------|
G:-------------10------10-|-9--7-\6---------------|
C:----10----------8-------|---------8--7--5-------|
D:------------------------|------------------8--7-|
      .           .                 .  .  .  .  .

D:----------------7-|--7-------------|---------------7~|-7-----------------|
A:-/9-9-7---7-9-----|----9-7-9-7---7-|-9-9-7---7-9-----|---9-7-9-7h9p7---7-|
F:--------9-----9---|------------9---|-------9-----9---|---------------9---|
G:------------------|----------------|-----------------|-------------------|
C:------------------|----------------|-----------------|-------------------|
D:------------------|----------------|-----------------|-------------------|

D:----------------|-----------------|-----------------|----------|
A:-9-7---------7~-|-9-7-----------7-|-----------------|----------|
F:-----9-8~--9----|-----9-6~--8-9---|-9-8-6---6-8-6~--|---/18\---|
G:----------------|-----------------|-------9---------|----------|
C:----------------|-----------------|-----------------|----------|
D:----------------|-----------------|-----------------|----------|

                   ---PLAY 4 TIMES-------------------------------------------|
D:----------------------7~-|--7----------------------------------------------|
A:-9--9--7-----7--9--7-----|-----9--7--9--7-----7----------------------------|
F:----------9--------------|-----------------9-------------------------------|
G:-------------------------|-------------------------------------------------|
C:-------------------------|-------------------------------------------------|
D:-------------------------|-------------------------------------------------|
                   ---PLAY 3 TIMES-------------------------------------------|              4.
D:----------------------10-|-10-------------------|--------------------------|
A:-12-12-10----10-12-------|----12-10-12-10----10-|-17-----------------------|
F:----------12-------12----|----------------12----|----16--------------------|
G:-------------------------|----------------------|-------17-16-14-14--------|
C:-------------------------|----------------------|-------------------16-13--|
D:-------------------------|----------------------|--------------------------|

Bridge                                  1.
D:------------------|-----------------||---------13-------|-13------------|
A:---------15-------|-15--------------||---------12-------|-12------------|
F:-7-------13-------|-13--------9--7--||-7----------------|---------------|
G:-7-0-0-0----0-0-0-|----0-0-0-10--8--||-7-0-0-0----0-0-0-|----0-0-0-7--5-|
C:------------------|-----------------||------------------|---------------|
D:------------------|-----------------||------------------|---------------|
     . . .    . . .      . . .             . . .    . . .      . . .

                                        2.
                                     D:-------------|------|
                                     A:-------------|------|
                                     F:--14---7-----|--9---|
                                     G:--12---8-----|--6---|
                                     C:-------------|------|
                                     D:-------------|------|

                         1.                       2.
D:------------------13-||-----------------------||-------13-17-13-15----|
A:--------15-----------||---------15-13---------||-----15------------17-|
F:---12-14-----14-15---||---12-14------15-14-12-||---14-----------------|
G:-12--------12--------||-12--------------------||-12-------------------|
C:---------------------||-----------------------||----------------------|
D:---------------------||-----------------------||----------------------|

                     1.                    2.
D:---------------8-||--------------------||-------8-12-8-10----|
A:------10-----10--||-------10-8---------||-----10----------12-|
F:---7-9-----9-----||---7-9-------10-9-7-||---9----------------|
G:-7-------7-------||-7------------------||-7------------------|
C:-----------------||--------------------||--------------------|
D:-----------------||--------------------||--------------------|
   . . .   . . .      . . .                 . .

REPEAT CHORUS
REPEAT 2ND PART OF CHORUS 2x

INTERLUDE
D:-17-------------------19-|-20-17-17-19-19-15-15-17-|
A:----17-17-20-20----------|-------------------------|
F:----------------19-19----|-------------------------|
G:-------------------------|-------------------------|
C:-------------------------|-------------------------|
D:-------------------------|-------------------------|

D:-17p12------12-15p12------12-|-15p12------12-13p12-----|
A:------13--13--------13--13---|------13--13--------13---|
F:--------14------------14-----|--------14------------12-|
G:-----------------------------|-------------------------|
C:-----------------------------|-------------------------|
D:-----------------------------|-------------------------|

D:-20--22--24--22-20\19--|-24-22-20-22--20\19-|
A:-----------------------|--------------------|
F:-----------------------|--------------------|
G:-----------------------|--------------------|
C:-----------------------|--------------------|
D:-----------------------|--------------------|

D:-----------------------------------17-|-----------|
A:-------------------------13-15-17-----|-----------|
F:-----------------12-14-16-------------|-----------|
G:---------12-14-15---------------------|-----------|
C:-12-14-15-----------------------------|-/x\--/x\--|
D:--------------------------------------|-----------|

Keyboard solo

|-------------------------------|
|-----------???solo???----------|
|-------------------------------|
|-------------------------------|
 
 Solo
D:------------------------------------|--------------------------17-|
A:------15----------15--------(15)b17-|-17~----------15-17-19\20----|
F:-(14)b16-----(14)b16-r14--12--------|-----14-16-17----------------|
G:------------------------------------|-----------------------------|
C:------------------------------------|-----------------------------|
D:------------------------------------|-----------------------------|

|-19---19-19----------17--|-201917201917-----------------|
|------------20-17-20-----|-------------201917201917-----|
|-------------------------|-------------------------1917-|
|-------------------------|------------------------------|
|-------------------------|------------------------------|
|-------------------------|------------------------------|

|-----19---------22s24--19-|-2219--1922192219--19221922191919-|
|---17----15s17------------|-----23----------23---------------|
|-16-----------------------|----------------------------------|
|--------------------------|----------------------------------|
|--------------------------|----------------------------------|
|--------------------------|----------------------------------|

|-221819221918---------------------|----------------------------------|
|-------------20191719201917-------|-----------------------------1719-|
|---------------------------191716-|-171917161716----------161719-----|
|----------------------------------|-------------1917161719-----------|
|----------------------------------|----------------------------------|
|----------------------------------|----------------------------------|

|-------0-----------|-----------------------------------|
|-(22)b24--r22-b24--|-------------------------------12--|
|-------------------|-(14)b16--r14-12-14------12-14-----|
|-------------------|-------------------14--------------|
|-------------------|-----------------------------------|
|-------------------|-----------------------------------|

|--------------------------------(17)b19---|
|----------------(15)b17-r15--12-----------|
|-(14)b16-r14--12--------------------------|
|------------------------------------------|
|------------------------------------------|
|------------------------------------------|

-----------------------------------------------------------------------------

Bodom after Midnight

INTRO
                A                               B      C
-|---------------------------------------------------------|
-|---------------------------------------------------------|
-|---------------------------------------------------------|
-|-----------------------------------------------------9-7-|
-|-10p7-7-7-7-7-7-7-10p7-7-7-9p7-12p7-10p7-7-7-7-7-7-7-7-5-|
-|---------------------------------------------------------|
  p.m.  . . . . . .      . .               . . . . . .                        

-|-----------------------------------------------------------|
-|-----------------------------------------------------------|
-|-----------------------------------------------------------|
-|-----------------------------------------------------------|
-|-10p7-7-7-7-7-7-7-10p7-7-7-9p7-12p7-10p7-7-7-7-7-7-7-10-12-|
-|-----------------------------------------------------8--10-|
  p.m.  . . . . . .      . .               . . . . . .                        


INTRO-SOLO

-|-11p8-----------------------------------------------------------------------
-|------11p8-11p8------11p8---------------------------------------------------
-|----------------10p8------10p8-10p8------10p8-------------------------------
-|------------------------------------10p8------10p8-10p8------10p8-----------
-|--------------------------------------------------------10p8------10p8------
-|----------------------------------------------------------------------------
  p.m.  .. . .. . .. .      .. . .. . .. .      .. . .. . .. .      .. .      

------------------------------------------------------------------------------
--------------------------------------------------------------------9h11-9----
------------------------------------------------8--------10p13-8h10-----------
----------------------------------8--------8-10----10h13----------------------
-10p8--------------8---------8-10-----8-10------------------------------------
------11p8-8-10-11-----10-11--------------------------------------------------
 .. . .. .                                                                    

-------8-10----8-10-12\/\-|
-11-12------12------------|
--------------------------|
--------------------------|
--------------------------|
--------------------------|



-|----------------------------------------------------------------------------
-|----------------------------------------------------------------------------
-|------------------------11-11-------------------------12-11-----------------
-|----------------------------------------------------------------------------
-|------------------------9--9--------------------------10-9------------------
-|-0--0-0-0-0-0-0-0-0-0-0--------0--0-0-0-0-0-0-0-0-0-0--------0--0-0-0-0-0---
                                                                              

-------------------15-------14------12--------------|
---------------------17-------15------13----13------|
-----------------------16-------14------12----12----|
-------------------------17-------16------14----14--|
-----------12-12----------------------------------15|
-0-0-0-0-0-10-10------------------------------------|
                                                                              
-|----------------------------------------------------------------------------
-|----------------------------------------------------------------------------
-|------------------------------------------------------12-11-----------------
-|------------------------12-12-----------------------------------------------
-|------------------------12-12-------------------------10-9------------------
-|-0--0-0-0-0-0-0-0-0-0-0-10-10--0--0-0-0-0-0-0-0-0-0-0--------0--0-0-0-0-0---
                                                                              

-------------------15-------14------12--------------|
---------------------17-------15------13----13------|
-----------------------16-------14------12----12----|
-------------------------17-------16------14----14--|
-----------12-12----------------------------------15|
-0-0-0-0-0-10-10------------------------------------|

-|----------------------------------------------------------------------------
-|----------------------------------------------------------------------------
-|------------------------------------------------------12-11-----------------
-|------------------------12-12-----------------------------------------------
-|------------------------12-12-------------------------10-9------------------
-|-0--0-0-0-0-0-0-0-0-0-0-10-10--0--0-0-0-0-0-0-0-0-0-0--------0--0-0-0-0-0---
                                                                              

------------------20p19p17-20p19p17---------------------------------------------------------|
--------------------------------------20p19p17-20p19p17-------------------------------------|
--------------------------------------------------------19p17p16-19p17p16-------------------|
--------------------------------------------------------------------------19p17p16-19p17p16-|
-----------12-12----------------------------------------------------------------------------|
-0-0-0-0-0-10-10----------------------------------------------------------------------------|


-|----------------------------------------------------------------------------
-|----------------------------------------------------------------------------
-|----------------------------------------------------------------------------
-|--------7--------------------------------------5----7-----------------------
-|-19v17--5---10p7-7-7-7-7-7-7-10p7-7-7-9p7-12p7-3----5---9-------------12----
-|--------------------------------------------------------7-7-7-7-7-7-7-10----
  p.m.             . . . . . .      . .                     . . . . . .       

			       1. Interlude
-----------------------------|------------------------------------------------
-----------------------------|------------------------------------------------
-----------------------------|---------------------4--------------------------
-------------------12-11-9-7-|---------5-2---2-2-2---5---------5-2------------
-------------------10-9--7-5-|-3-3-3-3-----------------3-3-3-3-------2-2-2----
-10-10-10-10-10-10-----------|------------------------------------------------
 .. .. .. .. .. ..             . . . .       . . .     . . . .       . . .    

------------------------------------------------------------------------------
------------------------------------------------------------------------------
-------------------------4-----------------------------------------------4----
-4^----------5-2---2-2-2---5---------5-2---------8-----------5-2---2-2-2---5--
-----3-3-3-3-----------------3-3-3-3-----7-7-7-7-6---3-3-3-3------------------
------------------------------------------------------------------------------
     . . . .       . . .     . . . .     . . . .     . . . .       . . .      

--------------------------------------------------------------------------|
--------------------------------------------------------------------------|
---------------------4^----------------------4----------------------------|
---------5-2---2-2-2-------------5-2---2-2-2---5---------5-2------5-----5-|
-3-3-3-3-----------------3-3-3-3-----------------3-3-3-3------7-7-7-7-7-7-|
--------------------------------------------------------------------------|
 . . . .       . . .     . . . .       . . .     . . . .      . .   . .       

-|------------------------------------------------------------------------|
-|------------------------------------------------------------------------|
-|--------------------------------------------------------8---------------|
-|-9------------------8-8---9--------------------7---7-10----9------------|
-|-7------------------6-6---7-------------7-9-10---9---------7------------|
-|---0-0-0-0-0-0-0-00-----x---0-0-0-0-0-0---------------------0-0-0-0-0-0-|
                                        

				Second Verse
-|----------------------------|-----------------------------------------------
-|----------------------------|-----------------------------------------------
-|-----9p7p5------------------|-------------------------12-12-----------------
-|-8-8-------9p7p5\4---5-7-9--|-------------------------12-12-----------------
-|-6-6---------------7-7-9-10-|-0---0-0-0-0-0-0-0-0-0-0-10-10---0---0-0-0-0---
-|----------------------------|-----------------------------------------------
                       . . ..                                                 

-|-------------------------------------------------|-20----------19-----------
-|-------------13-12-------------------------------|----22----------20--------
-|-------------------------------------------12-12-|-------21----------19-----
-|-------------10-9--------------------------12-12-|----------22----------21--
-|-0-0-0-0-0-0-------0---0-0-0-0-0-0-0-0-0-0-10-10-|--------------------------
-|-------------------------------------------------|--------------------------
                                                                              

-17-------------------------------------------------------------------------
----18-------18----------a.h.-----------------------------------------------
-------17-------17-------7b9------release---(7)-------12-12-----------------
----------19-------19---------------------------------12-12-----------------
----------------------20------0---0-0-0-0-0-0-0-0-0-0-10-10---0---0-0-0-0---
----------------------------------------------------------------------------


----------------------------------------------------|
---------------13-12--------------------------------|
---------------------------------------------12-12--|
---------------10-9--------------------------12-12--|
---0-0-0-0-0-0-------0---0-0-0-0-0-0-0-0-0-0-10-10--|
----------------------------------------------------|
                                                                              

-|----12h15p15------------------------------------------------|
-|-15----------15-13-15-13-12----17-15-13----15-13------------|
-|----------------------------14----------16-------16-14------|
-|-------------------------------------------------------15\--|
-|------------------------------------------------------------|
-|------------------------------------------------------------|



-|---------------------------------------------------------------
-|---------------------------------------------------------------
-|-7-----------------------------------7---7----9-10-9-7---------
-|-5---5h7-------------5h7-----5h7-----3---5-------------10-9\/--
-|---------0-0-0-0-0-0-----0-0-----0-0--------7------------------
-|---------------------------------------------------------------
                                                . .. . . ..      

-------------------------|----------------------------------------------------
-------------------------|----------------------------------------------------
-9-10-9-7------12-11-9-7-|----------------------9-------------------------9---
----------10-9-10-9--7-5-|---------10-7---7-7-7---10---------10-7---7-7-7-----
-------------------------|-8-8-8-8-------------------8-8-8-8------------------
-------------------------|----------------------------------------------------
 . .. . . .. .             . . . .        . . .      . . . .        . . .     

------------------------------------------------------------------------------
------------------------------------------------------12----------------------
----------------------9------------------12-9-9-9-9-9----12-------------12-9--
---------10-7---7-7-7---10---10-10-10-10--------------------10-10-10-10-------
-8-8-8-8----------------------------------------------------------------------
------------------------------------------------------------------------------
 . . . .        . . .        .. .. .. ..      . . . .       .. .. .. ..       

----------------------------------------------------------------------------|
-------12-----------------------------12-----------------------------12-----|
-9-9-9----12-------------12-9---9-9-9-------------------12-9---9-9-9----12--|
-------------10-10-10-10--------------------10-10-10-10---------------------|
----------------------------------------------------------------------------|
----------------------------------------------------------------------------|
 . . .       .. .. .. ..        . . .                          . . .          
			      CHORUS	
-|--------------------------|---------------------------------------------|
-|--------------------------|---------------------------------------------|
-|--------------------------|-9-----9-------------9----9------------------|
-|-7-9-10-6-7-9-4-5-7-2-4-5-|-9--10-9-9---9-10\/\-9-10-9----12------11----|
-|--------------------------|-7--10-7-9-7---------7-10-7-10----10-9----9--|
-|--------------------------|----8----7-------------8---------------------|
                                                                        
         Bridge - play the part on the G-String twice!
-|-----|----------------------------------------------------------------------
-|-----|----------------------------------------------------------------------
-|-----|-0-0-3-0-5-0-7-0-8-0-0-5-0-0-7-0-0-0-3-0-5-0-7-0-5-0-0-2-0-0-3-0-0-0--
-|-9-7-|----------------------------------------------------------------------
-|-7-5-|----------------------------------------------------------------------
-|-----|----------------------------------------------------------------------
         . . . . . . . . . . . . . . . . . . . . . . . . . . . . . . . . . .  
         use a deep and wide flanger to play it like the album version

-----------------------------------------------------------|------------------
-----------------------------------------------------------|----0-0-3-0-5-0---
-3-0-5-0-7-0-8-0-0-5-0-0-7-0-0-0-3-0-5-0-7-0-5-0-0-2-0-0-3-|-3/---------------
-----------------------------------------------------------|------------------
-----------------------------------------------------------|------------------
-----------------------------------------------------------|------------------
 . . . . . . . . . . . . . . . . . . . . . . . . . . . .                      

------------------------------------------------------------------------------
-7-0-8-0-0-5-0-0-7-0-0-0-3-0-5-0-7-0-5-0-0-2-0-0-3-0-0-0-3-0-5-0-7-0-8-0-0-5--
------------------------------------------------------------------------------
------------------------------------------------------------------------------
------------------------------------------------------------------------------
------------------------------------------------------------------------------
                                                                              

----------------------------------------0-0-15-0-17-0-19-0-20-0-0-17-0-0-19-0-0-0-
-0-0-7-0-0-0-3-0-5-0-7-0-5-0-0-2-0-0-3/-------------------------------------------
----------------------------------------------------------------------------------
----------------------------------------------------------------------------------
----------------------------------------------------------------------------------
----------------------------------------------------------------------------------
                                                                              

-15-0-17-0-19-0-17-0-0-14-0-0-15-0-0-0-15-0-17-0-19-0-20-0-0-17-0-0-19-0-0-0-15-0-17-0-19-0--
---------------------------------------------------------------------------------------------
---------------------------------------------------------------------------------------------
---------------------------------------------------------------------------------------------
---------------------------------------------------------------------------------------------
------------------------------------------------------------------------------
                                                                              

-17-0-0-14-0-0-15/-|------------------------------------15\---|--------------------
-------------------|-15----x 12-12-12-12-12-12-x\----*--/-----|--------------------
-------------------|-14b16-x 12-12-12-12-12-12-x\----*--/-----|--------------------
-------------------|------------------------------------------|--------------------
-------------------|------------------------------------------|-10p7-7-7-7-7-7-7---
-------------------|------------------------------------------|--------------------
                  Wide Wah-Wah and flange effects...            . . . . . .   
					
					SOLO-RIFF
-------------------------------------|----------------------------------------
-------------------------------------|----------------------------------------
-------------------------------------|----------------------------------------
-------------------------------------|----------------------------------------
-10p7-7-7-12p7-9p7-7-7-7-7-7-7-10-12-|--10--------------10-----8---8--10------
-------------------------------8--10-|-/8--8-8-8-8-8-8-/8--8-8-6-x-6-/8--8-8--
      . .          . . . . . .             . . . . . .     . .           . .  

------------------------------------------------------------------------------
------------------------------------------------------------------------------
------------------------------------------------------------------------------
-----------------8------------------8-------------10--------------12----------
-----------------6-8-10-------------6-6-6-6-6-6-6-8--8-8-8-8-8-8--10-10-10----
-8-8-8-8-8-8-8-8---6-8--8-8-8-8-8-8-------------------------------------------
 . . . . . . . .        . . . . . .   . . . . . .    . . . . . .     .. ..    

-------------|----------------------------------------------------------------
-------------|----------------------------------------------------------------
-------------|----------------------------------------------------------------
-------------|-7---------------7---------3-*-7-----------55-7-7-7-77-7-7------
-10-10-10-10-|-5-555-555-5533335-555-555-1-3-5-555-555-5533-5-5-5-55-5-5------
-------------|----------------------------------------------------------------
 .. .. .. ..     ... ... ......  ... ...       ... ... .... . . . .. . .      

	GUITAR SOLO
------|----------------17-19-17----17-19-20-22-20-19--------------------------
------|-20-19-17-19-20----------20-------------------22-20-19-17-20-19-17-----
------|-----------------------------------------------------------------------
-7777-|-----------------------------------------------------------------------
-5555-|-----------------------------------------------------------------------
------|-----------------------------------------------------------------------
 ....  

------------------------------------------------------------------------------
----------------------------------------------------------------------15-17---
-19-17-16-19-17-16-------------------------------------------16-17-19---------
-------------------19-17-16-19-17-16----------------16-17-19------------------
-------------------------------------19-17-15-17-19---------------------------
------------------------------------------------------------------------------
   					   .. .. .. .. .. .. .. .. .. .. 

-------------------------------------------------16-19p15-------------17p14---
-19-17-17-16b-17*-16b-17-15h18p15----------15-18----------17------------------
----------------------------------16-15-16-------------------16---------------
----------------------------------------------------------------17------------
-------------------------------------------------------------------19---------
------------------------------------------------------------------------------
                                                                              

-------------15p12----------12-17p12------------------------------------------
-15----------------13----13----------13-----------------------------10h11h----
----14----------------12----------------14--------------10h11h12h13-----------
-------16-----------------------------------11h12h13h14-----------------------
----------17------------------------------------------------------------------
------------------------------------------------------------------------------
					     thx to Janne Posti for helping    

-------9h10h11h12p11p10p9-----------------------------------------------------
-12h13--------------------13p12p11p10h11h12p11p10-----------------------------
--------------------------------------------------13p12p11p10h11h12p11p10-----
-------------------------------------------------------------------------t14p-
------------------------------------------------------------------------------
------------------------------------------------------------------------------
during that part!!                                                                              

--------------------------------------------------14/19-19-20-19-17-----------
--------------------------------------------12/16-----------------------------
-----------------------------------------11-----------------------------------
-13p12p11p10h11h12h13p12p11p10p9p8----13--------------------------------------
-----------------------------------14-----------------------------------------
------------------------------------------------------------------------------
                                                                              

-------------------------------------------------------|
-20-19-19-17----19-17----------------------------------|
-------------20-------19-17-16-19-17-16----------------|
----------------------------------------19-17-16-------|
-------------------------------------------------19-17-|
-------------------------------------------------------|

after the solo, there are 3 harmonics, and I'll try to desribe how to play them :

1. Play the natural harmonic on 7th fret on G-string
2. Grab your whammy-bar like you would increase 2-semitones, and release it slowly
3. Play the natural harmonic on 5th fret on G-string BUT 
   have the whammy bar already pushed down to increase 2 semitones
4. lower whammy-bar to normal position
5. Play the ARTIFICIAL harmonic on 3th fret on G-string bended two semitones higher 
   and have the whammy-bar one more time pushed down to increase 2 semitones
6. lower whammy bar to normal position, and release bending

To get this cool sound, Alexi doubles this part, I think with artifical harmonics.
But THIS is the way as he played it live!
If you don't understand my words, here is it in tabulature


|----------------------------------------------------------------------------------------|
|-n.h.---------\------------n.h.-\-----------a.h.--\-------------------------------------|
|-7*-(9)--------\--(7)------5(7)--\---5------3(7)---\(5)-3*------------------------------|
|----whammy------\-----------------\-----------------\-----------------------------------|
|------------release---------------------------------------------------------------------|
|----------------------------------------------------------------------------------------|

  |     |     |      |         |   |  |       |     |  |    |
  v     v     v      v         v   v  v       v     v  v    v 

  0 +1 +2    +1      0        +2  +1  0      +2    +1  0   (-1)  

This is the position of the whammy bar 
       

|-0-0-15-0-17-0-19-0-20-0-0-17-0-0-19-0-0-0-15-0-17-0-19-0-17-0-0-14-0-0-15-0-0-0-15-0-17-0-19-
|----------------------------------------------------------------------------------------------
|----------------------------------------------------------------------------------------------
|----------------------------------------------------------------------------------------------
|----------------------------------------------------------------------------------------------
|----------------------------------------------------------------------------------------------
                                                                              

-0-20-0-0-17-0-0-19--20-19-17-----------------------------------------------------|
---------------------------20-19-17-----------------------------------------------|
------------------------------------19-17-16--------------------------------------|
----------------------------------------------19-17-16-------------------2--------|
-------------------------------------------------------19-17-15----------2--------|
----------------------------------------------------------------19-17-15-0--------| 
 
-----------------------------------------------------------------------------

Children Of Bodom: Children Of Decadence
Guitar (Alexi)
Tabbed by Risto A.


D||--------------12--------------12--|--------------12------------------------|
A||--12------12------13------13------|--12------12-------------------12-13-15-|
F||----------------------------------|------------------14--11-12-14----------|
C||------14--------------14----------|------14--------------------------------|
G||----------------------------------|----------------------------------------|
D||----------------------------------|----------------------------------------|

--------------12--------------12--|---------------------------14-15-17-19--20--|
--12------12------13------13------|--12-----------12-13-15-17------------------|
----------------------------------|------11-12-14------------------------------|
------14--------------14----------|--------------------------------------------|
----------------------------------|--------------------------------------------|
----------------------------------|--------------------------------------------|

--------------12--------------12--|--------------12------------------------|
--12------12------13------13------|--12------12-------------------12-13-15-|
----------------------------------|------------------14--11-12-14----------|
------14--------------14----------|------14--------------------------------|
----------------------------------|----------------------------------------|
----------------------------------|----------------------------------------|

--------------12--------------12--|--12-----------------------------------|
--12------12------13------13------|------12-12-15-15-10-10-12-12----------|
----------------------------------|------------------------------7-7-9----|
------14--------------14----------|---------------------------------------|
----------------------------------|---------------------------------------|
----------------------------------|---------------------------------------|

--------------12--------------12--|--------------12------------------------|
--12------12------13------13------|--12------12-------------------12-13-15-|
----------------------------------|------------------14--11-12-14----------|
------14--------------14----------|------14--------------------------------|
----------------------------------|----------------------------------------|
----------------------------------|----------------------------------------|

--------------12--------------12--|---------------------------14-15-17-19--20--|
--12------12------13------13------|--12-----------12-13-15-17------------------|
----------------------------------|------11-12-14------------------------------|
------14--------------14----------|--------------------------------------------|
----------------------------------|--------------------------------------------|
----------------------------------|--------------------------------------------|

--------------12--------------12--|--------------12------------------------|
--12------12------13------13------|--12------12-------------------12-13-15-|
----------------------------------|------------------14--11-12-14----------|
------14--------------14----------|------14--------------------------------|
----------------------------------|----------------------------------------|
----------------------------------|----------------------------------------|

--------------12--------------12--|--12----------------------------------------|
--12------12------13------13------|------12-12-15-15-10-10-12-12-8-8-10-10-----|
----------------------------------|----------------------------------------7-7-|
------14--------------14----------|--------------------------------------------|
----------------------------------|--------------------------------------------|
----------------------------------|--------------------------------------------|

--------------------|--------------------------------|
--------------------|--------------------------------|
--10~---------------|--------------------------------|
--------------------|--------------------------------|
--------------------|--2-2--2-2-2-2-2-2-2--2-2-2-2-2-|
--------------------|--------------------------------|

--------------------------------|--------------------------------|
--------------------------------|--------------------------------|
--------------------------------|--------------------------------|
--------------------------------|--------------------------------|
--2-2--2-2-2-2-2-2-2--2-2-2-2-2-|--2-2--2-2-2-2-2-2-2--2-2-2-2-2-|
--------------------------------|--------------------------------|

--------------------|--------------------------------|
--------------------|--------------------------------|
--10/---------------|--------------------------------|
--------------------|--4-4--4-4-4-4-4-4-4--4-4-4-4-4-|
--------------------|--2-2--2-2-2-2-2-2-2--2-2-2-2-2-|
--------------------|--------------------------------|

--------------------------------|--------------------------------|
--------------------------------|--------------------------------|
--------------------------------|--------------------------------|
--4-4--4-4-4-4-4-4-4--4-4-4-4-4-|--4-4--4-4-4-4-4-4-4--4-4-4-4-4-|
--2-2--2-2-2-2-2-2-2--2-2-2-2-2-|--2-2--2-2-2-2-2-2-2--2-2-2-2-2-|
--------------------------------|--------------------------------|

--------------------------------|--------------------------------|
--------------------------------|--------------------------------|
--------------------------------|--------------------------------|
--4-4--4-4-4-4-4-4-4--4-4-4-4-4-|--4-4--4-4-4-4-4-4-4--4-4-4-4-4-|
--2-2--2-2-2-2-2-2-2--2-2-2-2-2-|--2-2--2-2-2-2-2-2-2--2-2-2-2-2-|
--------------------------------|--------------------------------|

--------------------------------|-------------------------------|
--------------------------------|-------------------------------|
--------------------------------|-------------------------------|
--4-4--4-4-4-4-4-4-4--4-4-4-4-4-|--4-4--4-4-4-4-4-4-4----9--11--|
--2-2--2-2-2-2-2-2-2--2-2-2-2-2-|--2-2--2-2-2-2-2-2-2-9---------|
--------------------------------|-------------------------------|

----------------------19~-----|------------------------------------------|
----------------------19~-----|--14---15---15-15-17-15-14-12-15-14-12-14-|
------------------------------|------------------------------------------|
--12-11-9-11-----9------------|------------------------------------------|
--------------12--------------|------------------------------------------|
------------------------------|------------------------------------------|

------------------------------------------|
--14---15---15-15-17-15-14-12-15-14-12-14-|
------------------------------------------|
------------------------------------------|
------------------------------------------|
------------------------------------------|

----------------------------------------|
--14---12---12--12-12-12-12-12-12-12-12-|
----------------------------------------|
----------------------------------------|
----------------------------------------|
----------------------------------------|

----------------------------------------|
--14---12---12--12-12-12-12-12-12-12-12-|
----------------------------------------|
----------------------------------------|
----------------------------------------|
----------------------------------------|

------------------------------------------|
--14---15---15-15-17-15-14-12-15-14-12-14-|
------------------------------------------|
------------------------------------------|
------------------------------------------|
------------------------------------------|

------------------------------------------|
--14---15---15-15-17-15-14-12-15-14-12-14-|
------------------------------------------|
------------------------------------------|
------------------------------------------|
------------------------------------------|

----------------------------------------|----------------------------|
--14---12---12--12-12-12-12-12-12-12-12-|--11-12---------------------|
----------------------------------------|--------11-12-10/-----------|
----------------------------------------|----------------------------|
----------------------------------------|----------------------------|
----------------------------------------|----------------------------|

--------------------------------|-------------------------------|
--------------------------------|-------------------------------|
--------------------------------|---------------------------7---|
--------------------------------|---------------------------7---|
--2-2--2-2-2-2-2-2-2--2-2-2-2-2-|--2-2--2-2-2-2-2-2-2-2-2-2-5---|
--0-0--0-0-0-0-0-0-0--0-0-0-0-0-|--0-0--0-0-0-0-0-0-0-0-0-0-----|

--------------------------------|------------------------------|
--------------------------------|------------------------------|
--------------------------------|--x-x-3--x-x-2--x-x-4--x-x-3--|
--------------------------------|--x-x-5--x-x-4--x-x-6--x-x-5--|
--2-2--2-2-2-2-2-2-2--2-2-2-2-2-|------------------------------|
--0-0--0-0-0-0-0-0-0--0-0-0-0-0-|------------------------------|

--------------------------------|-------------------------------|
--------------------------------|-------------------------------|
--------------------------------|---------------------------7---|
--------------------------------|---------------------------7---|
--2-2--2-2-2-2-2-2-2--2-2-2-2-2-|--2-2--2-2-2-2-2-2-2-2-2-2-5---|
--0-0--0-0-0-0-0-0-0--0-0-0-0-0-|--0-0--0-0-0-0-0-0-0-0-0-0-----|

--------------------------------|---------------------|
--------------------------------|---------------------|
--------------------------------|--5---7---7----------|
--------------------------------|--5---7---7----------|
--2-2--2-2-2-2-2-2-2--2-2-2-2-2-|--3---5---5----------|
--0-0--0-0-0-0-0-0-0--0-0-0-0-0-|---------------------|

---------------------12--------|---------------------------------------|
-------------------------12-12-|--15-15-10-10-12-12-8-8-10-10----------|
--7/9-9-9-9--7--9--------------|------------------------------7-7-9----|
--7/9-9-9-9--7--9--------------|---------------------------------------|
--5/7-7-7-7--5--7--------------|---------------------------------------|
-------------------------------|---------------------------------------|

-------------------------|------------------14--15--14----|
-------------------------|--15--17--17--15----------------|
--7/9-9-9-9--7--9--------|--------------------------------|
--7/9-9-9-9--7--9--------|--------------------------------|
--5/7-7-7-7--5--7--------|--------------------------------|
-------------------------|--------------------------------|

---------------------12--------|---------------------------------------|
-------------------------12-12-|--15-15-10-10-12-12-8-8-10-10----------|
--7/9-9-9-9--7--9--------------|------------------------------7-7-9----|
--7/9-9-9-9--7--9--------------|---------------------------------------|
--5/7-7-7-7--5--7--------------|---------------------------------------|
-------------------------------|---------------------------------------|

-------------------------|--------------------------------|
-------------------------|--------------------------------|
--7/9-9-9-9--7--9--------|------------------11h-12h-11----|
--7/9-9-9-9--7--9--------|--12h-14--14--12----------------|
--5/7-7-7-7--5--7--------|--------------------------------|
-------------------------|--------------------------------|

------------------------|-----------------------------|------------------------|
--8---7---8/------------|-----------------------------|--8---7---8/------------|
--9---7---9/------------|-----------------------------|--9---7---9/------------|
------------------------|-----------------------------|------------------------|
---------------2--2--2--|--2--2--2-2-2-2-2--2-2-2--2--|---------------2--2--2--|
---------------0--0--0--|--0--0--0-0-0-0-0--0-0-0--0--|---------------0--0--0--|

----------------------------|------------------------|
------------12--------------|--8---7---8/------------|
-----12---------12----11----|--9---7---9/------------|
--9------9------------------|------------------------|
----------------------------|---------------2--2--2--|
----------------------------|---------------0--0--0--|

-----------------------------|--13---10---12/------------|
-----------------------------|---------------------------|
-----------------------------|--10---7----9/-------------|
-----------------------------|---------------------------|
--2--2--2-2-2-2-2--2-2-2--2--|------------------2--2--2--|
--0--0--0-0-0-0-0--0-0-0--0--|------------------0--0--0--|

----------------------------|----------------------------|
----------------------------|----------------------------|
----------------------------|----------------------------|
----------------------------|----------------------------|
--2--2--2-2-2--2--2-2-2--2--|--2--2--2-2-2--2--2-2-2--2--|
--0--0--0-0-0--0--0-0-0--0--|--0--0--0-0-0--0--0-0-0--0--|

----------------------------|--------------------------|
----------------------------|--------------------------|
----------------------------|--------------------------|
----------------------------|---------------------3----|
--2--2--2-2-2--2--2-2-2--2--|--2--2--2-2-2--2-2---3----|
--0--0--0-0-0--0--0-0-0--0--|--0--0--0-0-0--0-0---1----|

--------14--17--16--14------14--|--------14--17--16----------14--|
----14------------------17------|----14--------------17--14------|
--------------------------------|--------------------------------|
--------------------------------|--------------------------------|
--------------------------------|--------------------------------|
--------------------------------|--------------------------------|

------------------------------|--------------------------------|
--14---17---14----------------|-----14-17-15-14----------------|
----------------16---14---13--|--14-------------16-14----------|
------------------------------|--------------------------------|
------------------------------|--------------------------------|
------------------------------|--------------------------------|

--------14--17--16--14------14--|--------14--17--16----------14--|
----14------------------17------|----14--------------17--14------|
--------------------------------|--------------------------------|
--------------------------------|--------------------------------|
--------------------------------|--------------------------------|
--------------------------------|--------------------------------|

------------------------------|--------------------------------------------|
--14---17---14----------------|-----14-17-15-14----14-------14-17-15-14----|
----------------16---14---13--|--14-------------16-------14-------------16-|
------------------------------|--------------------------------------------|
------------------------------|--------------------------------------------|
------------------------------|--------------------------------------------|

--------------------------------------------|
-----14-17-15-14----14-------14-17-15-14----|
--14-------------16-------14-------------16-|
--------------------------------------------|
--------------------------------------------|
--------------------------------------------|

-----17-21-19-17----17-------17-21-19-17----|--21-19-17------------------|
--19-------------21-------19-------------21-|-----------21-19------------|
--------------------------------------------|----------------------------|
--------------------------------------------|----------------------------|
--------------------------------------------|----------------------------|
--------------------------------------------|----------------------------|

--------------11--------------11--|--------------11------------------------|
--11------11------12------12------|--11------11-------------------11-12-14-|
----------------------------------|------------------13--10-11-13----------|
------13--------------13----------|------13--------------------------------|
----------------------------------|----------------------------------------|
----------------------------------|----------------------------------------|

--------------11--------------11--|---------------------------13-14-16-18--19--|
--11------11------12------12------|--11-----------11-12-14-16------------------|
----------------------------------|------10-11-13------------------------------|
------13--------------13----------|--------------------------------------------|
----------------------------------|--------------------------------------------|
----------------------------------|--------------------------------------------|

--------------11--------------11--|--------------11------------------------|
--11------11------12------12------|--11------11-------------------11-12-14-|
----------------------------------|------------------13--10-11-13----------|
------13--------------13----------|------13--------------------------------|
----------------------------------|----------------------------------------|
----------------------------------|----------------------------------------|

--------------11--------------11--|
--11------11------12------12------|
----------------------------------|
------13--------------13----------|
----------------------------------|
----------------------------------|

--11h14h11----------------------------------------------|
-----------11h14h11----11-------------------------------|
--------------------11----10----11----------------------|
-----------------------------13----11-------------------|
--------------------------------------13-16-11-13-------|
--------------------------------------------------13-14-|

------------------------------------------|
--14---15---15-15-17-15-14-12-15-14-12-14-|
------------------------------------------|
------------------------------------------|
------------------------------------------|
------------------------------------------|

------------------------------------------|
--14---15---15-15-17-15-14-12-15-14-12-14-|
------------------------------------------|
------------------------------------------|
------------------------------------------|
------------------------------------------|

----------------------------------------|----------------------------19~---|
--14---12---12--12-12-12-12-12-12-12-12-|--14---12---12--12-12-12-12-19~---|
----------------------------------------|----------------------------------|
----------------------------------------|----------------------------------|
----------------------------------------|----------------------------------|
----------------------------------------|----------------------------------|

------------------------------------------|
--14---15---15-15-17-15-14-12-15-14-12-14-|
------------------------------------------|
------------------------------------------|
------------------------------------------|
------------------------------------------|

------------------------------------------|
--14---15---15-15-17-15-14-12-15-14-12-14-|
------------------------------------------|
------------------------------------------|
------------------------------------------|
------------------------------------------|

----------------------------------------|
--14---12---12--12-12-12-12-12-12-12-12-|
----------------------------------------|
----------------------------------------|
----------------------------------------|
----------------------------------------|

----------------------------------------|--------------------------------|
--14---12---12--12-12-12-12-12-12-12-12-|--------------------------------|
----------------------------------------|--------------------------------|
----------------------------------------|--8-8--8-8-8-8-8-8-8--8-8-8-8-8-|
----------------------------------------|--6-6--6-6-6-6-6-6-6--6-6-6-6-6-|
----------------------------------------|--------------------------------|

-------------------------------|--------------------------------|
-------------------------------|--------------------------------|
-------------------------------|--------------------------------|
--8-8--8-8-8-8-8-8-8-8-8-8-9---|--8-8--8-8-8-8-8-8-8--8-8-8-8-8-|
--6-6--6-6-6-6-6-6-6-6-6-6-9---|--6-6--6-6-6-6-6-6-6--6-6-6-6-6-|
---------------------------7---|--------------------------------|

-------------------------------|--------------------------------|
-------------------------------|--------------------------------|
---------------------------6---|--------------------------------|
--8-8--8-8-8-8-8-8-8-8-8-8-6---|--8-8--8-8-8-8-8-8-8--8-8-8-8-8-|
--6-6--6-6-6-6-6-6-6-6-6-6-4---|--6-6--6-6-6-6-6-6-6--6-6-6-6-6-|
-------------------------------|--------------------------------|

-------------------------------|--------------------------------|
-------------------------------|--------------------------------|
-------------------------------|--------------------------------|
--8-8--8-8-8-8-8-8-8-8-8-8-9---|--8-8--8-8-8-8-8-8-8--8-8-8-8-8-|
--6-6--6-6-6-6-6-6-6-6-6-6-9---|--6-6--6-6-6-6-6-6-6--6-6-6-6-6-|
---------------------------7---|--------------------------------|

------------------------------|---------------------12--------|
------------------------------|-------------------------12-12-|
--x-x-3--x-x-2--x-x-4--x-x-3--|--7/9-9-9-9--7--9--------------|
--x-x-5--x-x-4--x-x-6--x-x-5--|--7/9-9-9-9--7--9--------------|
------------------------------|--5/7-7-7-7--5--7--------------|
------------------------------|-------------------------------|

---------------------------------------|-------------------------|
--15-15-10-10-12-12-8-8-10-10----------|-------------------------|
------------------------------7-7-9----|--7/9-9-9-9--7--9--------|
---------------------------------------|--7/9-9-9-9--7--9--------|
---------------------------------------|--5/7-7-7-7--5--7--------|
---------------------------------------|-------------------------|

------------------14--15--14----|---------------------12--------|
--15--17--17--15----------------|-------------------------12-12-|
--------------------------------|--7/9-9-9-9--7--9--------------|
--------------------------------|--7/9-9-9-9--7--9--------------|
--------------------------------|--5/7-7-7-7--5--7--------------|
--------------------------------|-------------------------------|

---------------------------------------|-------------------------|
--15-15-10-10-12-12-8-8-10-10----------|-------------------------|
------------------------------7-7-9----|--7/9-9-9-9--7--9--------|
---------------------------------------|--7/9-9-9-9--7--9--------|
---------------------------------------|--5/7-7-7-7--5--7--------|
---------------------------------------|-------------------------|

--------------------------------|------------------------|
--------------------------------|--8---7---8/------------|
------------------11h-12h-11----|--9---7---9/------------|
--12h-14--14--12----------------|------------------------|
--------------------------------|---------------2--2--2--|
--------------------------------|---------------0--0--0--|

-----------------------------|------------------------|
-----------------------------|--8---7---8/------------|
-----------------------------|--9---7---9/------------|
-----------------------------|------------------------|
--2--2--2-2-2-2-2--2-2-2--2--|---------------2--2--2--|
--0--0--0-0-0-0-0--0-0-0--0--|---------------0--0--0--|

----------------------------|------------------------|
------------12--------------|--8---7---8/------------|
-----12---------12----11----|--9---7---9/------------|
--9------9------------------|------------------------|
----------------------------|---------------2--2--2--|
----------------------------|---------------0--0--0--|

-----------------------------|--13---10---12/------------|
-----------------------------|---------------------------|
-----------------------------|--10---7----9/-------------|
-----------------------------|---------------------------|
--2--2--2-2-2-2-2--2-2-2--2--|------------------2--2--2--|
--0--0--0-0-0-0-0--0-0-0--0--|------------------0--0--0--|

--------------------------|--------14--17--16--14------14--|
--------------------------|----14------------------17------|
--------------------------|--------------------------------|
---------------------3----|--------------------------------|
--2--2--2-2-2--2-2---3----|--------------------------------|
--0--0--0-0-0--0-0---1----|--------------------------------|

--------14--17--16----------14--|------------------------------|
----14--------------17--14------|--14---17---14----------------|
--------------------------------|----------------16---14---13--|
--------------------------------|------------------------------|
--------------------------------|------------------------------|
--------------------------------|------------------------------|

--------------------------------|--------14--17--16--14------14--|
-----14-17-15-14----------------|----14------------------17------|
--14-------------16-14----------|--------------------------------|
--------------------------------|--------------------------------|
--------------------------------|--------------------------------|
--------------------------------|--------------------------------|

--------14--17--16----------14--|------------------------------|
----14--------------17--14------|--14---17---14----------------|
--------------------------------|----------------16---14---13--|
--------------------------------|------------------------------|
--------------------------------|------------------------------|
--------------------------------|------------------------------|

--------------------------------------------|
-----14-17-15-14----14-------14-17-15-14----|
--14-------------16-------14-------------16-|
--------------------------------------------|
--------------------------------------------|
--------------------------------------------|

--------------------------------------------|
-----14-17-15-14----14-------14-17-15-14----|
--14-------------16-------14-------------16-|
--------------------------------------------|
--------------------------------------------|
--------------------------------------------|

-----17-21-19-17----17-------17-21-19-17----|------------------------|
--19-------------21-------19-------------21-|------------------------|
--------------------------------------------|------------------7---6-|
--------------------------------------------|--4---2---4---7---7---6-|
--------------------------------------------|--2---0---2---5---5---4-|
--------------------------------------------|--2---0---2---5---5---4-|

---0-7-7-0-5-7-7-0-0-7-7-0-5-7-7-|---0-0-7-8-0-5-7---5---------------|
---------------------------------|-----------------8---7-8-5-7-4-5---|
---------------------------------|---------------------------------5-|
---------------------------------|-----------------------------------|
---------------------------------|-----------------------------------|
---------------------------------|-----------------------------------|

-----0-7-7-0-5-7-7-0-0-7-7-0-5-7-7-|---0-0-7-8-0-5-7---5---------------|
---4-------------------------------|-----------------8---7-8-5-7-4-5---|
-----------------------------------|---------------------------------5-|
-----------------------------------|-----------------------------------|
-----------------------------------|-----------------------------------|
-----------------------------------|-----------------------------------|

-----0-7-7-0-5-7-7-0-0-7-7-0-5-7-7-|---0-0-7-8-0-5-7---5---------------|
---4-------------------------------|-----------------8---7-8-5-7-4-5---|
-----------------------------------|---------------------------------5-|
-----------------------------------|-----------------------------------|
-----------------------------------|-----------------------------------|
-----------------------------------|-----------------------------------|

-----0-7-7-0-5-7-7-0-0-7-7-0-5-7-7-|---0-0-7-8-0-5-7---5---------------|
---4-------------------------------|-----------------8---7-8-5-7-4-5---|
-----------------------------------|---------------------------------5-|
-----------------------------------|-----------------------------------|
-----------------------------------|-----------------------------------|
-----------------------------------|-----------------------------------|

-------10-10---8-10-10-----10-10---8-10-10-|
-----8-------8---------8-8-------8---------|
---4---------------------------------------|
-------------------------------------------|
-------------------------------------------|
-------------------------------------------|

-------10-11---8-10----8------------------|
---8-8-------8------11---10-11-8-10-7-8---|
----------------------------------------7-|
------------------------------------------|
------------------------------------------|
------------------------------------------|

-------10-10---8-10-10-----10-10---8-10-10-|
-----8-------8---------8-8-------8---------|
---8---------------------------------------|
-------------------------------------------|
-------------------------------------------|
-------------------------------------------|

-------10-11---8-10----8------------------|
---8-8-------8------11---10-11-8-10-7-8---|
----------------------------------------7-|
------------------------------------------|
------------------------------------------|
------------------------------------------|

--------19-19----17-19-19-------19-19----17-

-----------------------------------------------------------------------------

Everytime i Die

D tuning (D,G,C,F,A,D)

Intro:
guitar 1:
			  N.H     N.H			 N.H	   N.H
|-------------------12---------------------------------------/|
|-3------3-/-5--------------------3------3-/-5--------------/-|
|-2------2-/-4--------------24----2------2-/-4---12-11---15/--|
|------------------------------------------------------whammy-|
|--------------------------------------------------------bar--|
|-------------------------------------------------------------|

guitar 2:
|-------------------------------------------------------------|
|*-----------------------------------------------------------*|
|-------------------------------------------------------------|
|-------------------------------------------------------------|
|*-----------------------------------------------------------*|
|-0-00000000-00-0-0-00000000-00-0-0-00000000-00-0-0-00000000-0|
  . ........ .. . . ........ .. . . ........ .. . . ........ .

Riff 1:

guitar 1 & 2
|-------------------------------------------------------------|
|-------------------------------------------------------------|
|---------------------------------7---------------------------|
|---------------------------------7---------------------------|
|---------------------------------5---------------------------|
|-0-00000000-00-0-0-00000000-00-0-----------------------------|
  . ........ .. . . ........ .. .

guitar 1
|-------------------------------------------------------------|
|-------------------------------------------------------------|
|----------------------------9---9-11-12-11-9----9------------|
|------------------------------9--------------12--------------|
|-------------------------------------------------------------|
|-0-00000000-00-0-0-00000000----------------------------------|
  . ........ .. . . ........

guitar 2
|-------------------------------------------------------------|
|------------------------------------10-12-10-----------------|
|----------------------------12-9-12----------12-11-12--------|
|-------------------------------------------------------------|
|-------------------------------------------------------------|
|-0-00000000-00-0-0-00000000----------------------------------|
  . ........ .. . . ........

guitar 1 & 2
|-------------------------------------------------------------|
|-------------------------------------------------------------|
|---------------------------------7---------------------------|
|---------------------------------7---------------------------|
|---------------------------------5---------------------------|
|-0-00000000-00-0-0-00000000-00-0-----------------------------|
  . ........ .. . . ........ .. .

guitar 1 & 2
|---------------------|
|---------------------|
|---------------------|
|---------------------|
|---------------------|
|-0-00000000-00-0-0---|
  . ........ .. . .

guitar 1
|-----121712------121512------121712------141714--------------|
|---13------13--13------13--13------13--15------15------------|
|-14----------12----------14----------14----------------------|
|-------------------------------------------------------------|
|-------------------------------------------------------------|
|-------------------------------------------------------------|

guitar 2
|-------------------------------------------------------------|
|-------------------------------------------------------------|
|-------------------------------------------------------------|
|-2-----------5-----------2-----------7-----------------------|
|-0-----------3-----------0-----------5-----------------------|
|-------------------------------------------------------------|

Riff 2:

guitar 1
|-------------------------------------------------------------|
|*--8-7---7----------7-----------777-------------------------*|
|-9-----9---7-9--------9-7---999------------------------------|
|---------------10-9------------------------------------------|
|*-----------------------------------------------------------*|
|-------------------------------------------------------------|
				     ... ...
guitar 2
|-------------------------------------------------------------|
|*-----------------------------------------------------------*|
|-9-----------------------------------------------------------|
|---9-9-9-7----------4-2-----555-777--------------------------|
|*----------9-10-7-2-----5---333-555-------------------------*|
|-------------------------------------------------------------|
				     ... ...
guitar 1					 1.
|-12---------------------------------|------------------------|
|----12-12-12------------------------|-----777----------------|
|-------------14-11-12------11-9-----|-999--------------------|
|----------------------14-9------12--|------------------------|
|------------------------------------|------------------------|
|------------------------------------|------------------------|

guitar 2			    1.
|---------------------------|---------------------------------|
|---8-7---7----------7------|---------------------------------|
|-9-----9---7-9--------9-7--|---------------------------------|
|---------------10-9--------|-555-777-------------------------|
|---------------------------|-333-555-------------------------|
|---------------------------|---------------------------------|
			            ... ...
guitar 1 & 2
 2.
|----------------------------15-17-19---24~-------------------|
|-------------------15-17-19----------------------------------|
|----------14-16-17-------------------------------------------|
|-14-16-17----------------------------------------------------|
|-------------------------------------------------------------|
|-------------------------------------------------------------|

guitar 1 & 2
|-------------------------------------------------------------|
|-------------------------------------------------------------|
|-------------------------------------------------------------|
|--Keyboard---------------------4---4-4-4---4---5-5-5---7-7-7-|
|-------------------------------2---2-2-2---2---3-3-3---5-5-5-|
|-------------------------------------------------------------|
					      . . .       . .     . .
 Verse:

guitar 1 & 2
|-------------------------------------------------------------|
|*------------------------------------------------------------|
|-------------------------------------------------------------|
|-2---------2----------------2---------2------------5---------|
|*2---------2----------------2---------2------------5---------|
|-0---0-0---0---0---000000---0---0-0---0---0---00---3---------|
      . .       .   ......       . .       .   ..
|-------------------------------------------------------------|
|------------------------------------------------------------*|
|------------------------7---4---4-4-4---4---5-5-5---7-7-7----|
|-2---------2------------7---4---4-4-4---4---5-5-5---7-7-7----|
|-2---------2------------5---2---2-2-2---2---3-3-3---5-5-5---*|
|-0---0-0---0---0---00----------------------------------------|
      . .       .   ..            . . .       . .     . .


|-------------------------------------------------------------|
|-------------------------------------------------------------|
|-------------------------------------------------------------|
|-2---------2----------------2---------2------------5---------|
|-2---------2----------------2---------2------------5---------|
|-0---0-0---0---0---000000---0---0-0---0---0---00---3---------|
      . .       .   ......       . .       .   ..

|-------------------------------------------------------------|
|-------------------------------------------------------------|
|------------------------7------------------------------------|
|-2---------2------------7---3---3-3---3---3-3---5------------|
|-2---------2------------5---3---3-3---3---3-3---5------------|
|-0---0-0---0---0---00-------1---1-1---1---1-1---3------------|
      . .       .   ..           . .       . .

guitar 1                                     A.H    A.H
|-------------------------------------------------------------|
|*--13-12----12------------12-------------------121212--------|
|-14-------14---12-14----------14---12---141414---------------|
|---------------------15-14------------------------------3x---|
|*------------------------------------------------------------|
|-------------------------------------------------------------|
                                         ...... ......
guitar 2
|-------------------------------------------------------------|
|*-----------------------------------------------------------*|
|-14----------------------------------------------------------|
|----14-14-14-12------------9-7----------101010--121212---3x--|
|*---------------14-15-12-7-------10-----8-8-8---101010------*|
|-------------------------------------------------------------|
						     ......  ......
guitar 1 + keyboard
|-----172217------172017------172217------192219--19b20r19p17191919|
|---18------18--18------18--18------18--20------20-----------------|
|-19----------17----------19----------19---------------------------|
|------------------------------------------------------------------|
|------------------------------------------------------------------|
|------------------------------------------------------------------|

guitar 2
|-------------------------------------------------------------|
|-------------------------------------------------------------|
|-7-----------10----------7-----------12----------14------12--|
|-7-----------10----------7-----------12----------14------12--|
|-5-----------8-----------5-----------10----------12------10--|
|-------------------------------------------------------------|

Chorus:

guitar 1
|-----------7----7----------------------------7---------------|
|*10---8-10----8---------10--8---10-------------8------------*|
|----9-------9-------9-9-9---7---9---9---99-------------------|
|-------------------------------------------------------------|
|*-----------------------------------------------------------*|
|-------------------------------------------------------------|
                     . .             .   ..
guitar 2
|-------------------------------------------------------------|
|*-----------------------------------------------------------*|
|---------------------------------------------7---------------|
|-7---------2--------7-5-7---5---7------------7-5-------------|
|*7---------2--------7-7-7---5---7------------5-5------------*|
|-5---------0--------5-5-5---3---5---5---55-----3-------------|

guitar 1
|-----------7----7---8------8---------12131513--12~-----------|
|-10---8-10----8---------10-----121315--------15--------------|
|----9-------9---------10-------------------------------------|
|-------------------------------------------------------------|
|-------------------------------------------------------------|
|-------------------------------------------------------------|

guitar 2
|-------------------------------------------------------------|
|-------------------------------------------------------------|
|-------------------------------------------------------------|
|-7---------2--------3----------0---------3-------------------|
|-7---------2--------3----------0---------3-------------------|
|-5---------0--------1--------------------1-------------------|

guitar 1 & 2
|-------------------------------------------------------------|
|-------------------------------------------------------------|
|---------------------------------7---------------------------|
|---------------------------------7---------------------------|
|---------------------------------5---------------------------|
|-0-00000000-00-0-0-00000000-00-0-----------------------------|
  . ........ .. . . ........ .. .
|-------------------------------------------------------------|
|-------------------------------------------------------------|
|---------------------------------7-----7---5---7-------------|
|---------------------------------7-----7---5---7-------------|
|---------------------------------5-5-5-5-3-3-5-5-------------|
|-0-00000000-00-0-0-00000000-00-0-----------------------------|
  . ........ .. . . ........ .. .   . .   .   .

Play verse 1 time
                               ________________
guitar 1                       |1.2
|----------------15-0-15-17-15-0-15----------15---------------|
|-17----17----17--------------------17----17------------------|
|----16----16--------------------------16---------------------|
|-------------------------------------------------------------|
|-------------------------------------------------------------|
|-------------------------------------------------------------|

guitar 2
|-------------------------------------------------------------|
|-------------------------------------------------------------|
|-------------------------------------------------------------|
|-99999----99999----9---7----99999---99999---5----------------|
|-77777----77777----7---5----77777---77777---3----------------|
|-00000----00000----0--------00000---00000--------------------|

guitar 2 on third time
|-------------------------------------------------------------|
|-------------------------------------------------------------|
|-------------------------------------------------------------|
|--2---------------5-------------2-------------7--------------|
|--0---------------3-------------0-------------5--------------|
|-------------------------------------------------------------|

guitar 1
|----------------------------------------------------------------|
|*--------------------------------------------------------------*|
|----------------------------------------------------------------|
|-9---9-9-1111-1212---5------5---------------2-4/7-5-4-9-7-5-5-4-|
|*7---7-7-9-9--1010---3-3333-3--77775555------------------------*|
|--0000----------------------------------------------------------|
   ....   .... ....     ....    ........

|----------------------------------------------------------------|
|*--------------------------------------------------------------*|
|----------------------------------------------------------------|
|-9---9-9-1111-1212---5------5-5---5---4-4---2-4/7-5-4-9-7-5-5-4-|
|*7---7-7-9-9--1010---3-3333-3-3-3-3-2-2------------------------*|
|--0000----------------------------------------------------------|
   ....   .... ....     ....     .   .

SOLO:

guitar 1 Listen rhytm from CD
|------12---19p15---15/17--------------------------17-15------|
|-------------------------17/13---15/17------------------15---|
|-9/14----------------------------------14\12-----------------|
|-----------------------------------------------12------------|
|-------------------------------------------------------------|
|-------------------------------------------------------------|

guitar 2
|-------------------------------------------------------------|
|-------------------------------------------------------------|
|-2----------------------5------------------------------------|
|-2-----------------5----5--------3---------2-----------------|
|-0-----------------5----3--------3---------2-----------------|
|-------------------3-------------1---------0-----------------|

guitar 1
|-----------------------------------------------|
|-16-17-20-16-17-22-16-17-20-16-17-22-16-17-20--|
|-----------------------------------------------|
|-----------------------------------------------|
|-----------------------------------------------|
|-----------------------------------------------|

guitar 2
|-----------------------------------------------|
|-----------------------------------------------|
|-----------------------------------------------|
|-5-----------------------2---------------------|
|-5-----------------------2---------------------|
|-3-----------------------0---------------------|

guitar 1
|-17-20----20-19-17----17----17-19-20-19-17-------------------|
|-------18----------20----20----------------20-19-17----------|
|-------------------------------------------------------------|
|-------------------------------------------------------------|
|-------------------------------------------------------------|
|-------------------------------------------------------------|

guitar 2
|-------------------------------------------------------------|
|-------------------------------------------------------------|
|-------------------------------------------------------------|
|-3------------------5----------------------------------------|
|-3------------------5----------------------------------------|
|-1------------------3----------------------------------------|

guitar 1
|20b22r20p17-------------------------17-19-19b20r19p17--------|
|------------20-17----------------18--------------------------|
|------------------19-17-------17-----------------------------|
|---------------------------19--------------------------------|
|------------------------20-----------------------------------|
|-------------------------------------------------------------|

guitar 2
|-------------------------------------------------------------|
|-------------------------------------------------------------|
|-2----------------5------------------------------------------|
|-2-------5--------5-----------3------------2-----------------|
|-0-------5--------3-----------3------------2-----------------|
|---------3--------------------1------------0-----------------|

guitar 1
|-19-17-20p17p15----------20p17p15----------------------------|
|----------------17p15-------------17p15----------------------|
|----------------------17----------------17-------------------|
|-------------------------------------------------------------|
|-------------------------------------------------------------|
|-------------------------------------------------------------|

guitar 2
|-------------------------------------------------------------|
|-------------------------------------------------------------|
|-------------------------------------------------------------|
|-5-----------------------------------------------------------|
|-5-----------------------------------------------------------|
|-3-----------------------------------------------------------|

guitar 1
|-20p17p15----------20p17p15----------------------------------|
|----------17p15-------------17p15----------------------------|
|----------------17----------------17-------------------------|
|-------------------------------------------------------------|
|-------------------------------------------------------------|
|-------------------------------------------------------------|

guitar 2
|-------------------------------------------------------------|
|-------------------------------------------------------------|
|-------------------------------------------------------------|
|-2-----------------------------------------------------------|
|-2-----------------------------------------------------------|
|-0-----------------------------------------------------------|

guitar 1
|-20p17p15----------15p12p10----------------------------------|
|----------17p15-------------13p10----------------------------|
|----------------17----------------10-------------------------|
|-------------------------------------------------------------|
|-------------------------------------------------------------|
|-------------------------------------------------------------|

guitar 2
|-------------------------------------------------------------|
|-------------------------------------------------------------|
|-------------------------------------------------------------|
|-3-----------------------------------------------------------|
|-3-----------------------------------------------------------|
|-1-----------------------------------------------------------|

guitar 1
|-15p12p10----------15p12p10----------------------------------|
|----------13p10-------------13p10----------------------------|
|----------------10----------------10-------------------------|
|-------------------------------------------------------------|
|-------------------------------------------------------------|
|-------------------------------------------------------------|

guitar 2
|-------------------------------------------------------------|
|-------------------------------------------------------------|
|-------------------------------------------------------------|
|-5-----------------------------------------------------------|
|-5-----------------------------------------------------------|
|-3-----------------------------------------------------------|

|-------------------------------------------------------------|
|-------------------------------------------------------------|
|-------------------------------------------------------------|
|-keyboard solo, guitar 1&2 plays solo riff----5---5---3---5--|
|----------------------------------------------5---5---3---5--|
|--------------------------------------------3-3-3-3-1-1-3-3--|
                                             .   .   .   .
|------------------------------------------|------------------|
|------------------------------------------|------------------|
|-play chorus 1 time ----------------------|------------------|
|------------------------------------------|---7---7---3---5--|
|------------------------------------------|---7---7---3---5--|
|------------------------------------------|-5-5-5-5-1-1-3-3--|
                                             .	 .   .   

-----------------------------------------------------------------------------

Mask of Sanity

Mask Of Sanity


                                                              Michiel Quakernaat
Alexi Laiho


D||-------|-----------||---------------------------|--------------------------|
A||-------|-----------||---------------------------|--------------------------|
F||*------|----------*||*--9--9--9--9--9--9--9--9--|--9--9--9--9--7--7--7--7--|
C||*------|----------*||*--9--9--9--9--9--9--9--9--|--9--9--9--9--7--7--7--7--|
G||-------|-----------||---7--7--7--7--7--7--7--7--|--7--7--7--7--5--5--5--5--|
D||-------|-----------||---------------------------|--------------------------|

--------------------------|-------------------------------||
--------------------------|-------------------------------||
--9--9--9--9--9--9--9--9--|--9--9--9--9--12--12----------*||
--9--9--9--9--9--9--9--9--|--9--9--9--9--12--12--12--12--*||
--7--7--7--7--7--7--7--7--|--7--7--7--7--10--10--12--12---||
--------------------------|----------------------10--10---||


                                                         2x
---------7--7--5--5--7--7--|--------10--10--5--7--5------||
---5--5--------------------|--8--8-------------------8---||
*--------------------------|----------------------------*||
*--------------------------|----------------------------*||
---------------------------|-----------------------------||
---------------------------|-----------------------------||

--------7--7--5--5--7--7--|--------10--10/-5---------|-----------------------|
--5--5--------------------|--8--8---------------8----|-----------------------|
--------------------------|--------------------------|-----------------------|
--------------------------|--------------------------|-------------2----5----|
--------------------------|--------------------------|--2----------2----3----|
--------------------------|--------------------------|--0----0--0------------|

------------------------|-----------------------|-------------------------|
------------------------|-----------------------|-------------------------|
------------------------|----------7------------|-------------------------|
--------------9----7----|--9-------5--7----7----|--9----------------------|
--------------7----5----|--7----------5----5----|--7----------------------|
--0--0--0--0------------|-------0---------------|-------0--0--0--0--0--0--|

-----------------------|------------------------|-------------------|
-----------------------|------------------------|-------------------|
-----------------------|------------------------|--4----------------|
-------------2----5----|--------------9----7----|--4----------------|
--2----------2----3----|--------------7----5----|--2----------------|
--0----0--0------------|--0--0--0--0------------|-------------------|

--17----------------|-----------------------|------------------------|
--------------------|-----------------------|------------------------|
--------------------|-----------------------|------------------------|
--------------------|-------------2----5----|--------------9----7----|
--------------------|--2----------2----3----|--------------7----5----|
--------------------|--0----0--0------------|--0--0--0--0------------|

-----------------------|-------------------------|
-----------------------|-------------------------|
----------7------------|-------------------------|
--9-------5--7----7----|--9----------------------|
--7----------5----5----|--7----------------------|
-------0---------------|-------0--0--0--0--0--0--|

---------------------------------|----------------------------------|
---------------------------------|----------------------------------|
---------------------------------|----------------------------------|
--9------------------------------|----------------------------------|
--7--7-7-7-7-7-7-7-7-7-7-7-7-7-7-|--7-7-7-7-7-7-7-7-7-7-7-7-5-5-5-5-|
---------------------------------|----------------------------------|

------------------------------------------|-------------------|
------------------------------------------|-------------------|
------------------------------------------|-------------------|
------------------------------------------|--2----------------|
--10-10-10-10-10-10-10-10-9-9-9-9-7-7-7-7-|--2----------------|
------------------------------------------|--0----------------|

-----------------------|------------------------|-----------------------|
-----------------------|------------------------|-----------------------|
-----------------------|------------------------|----------7------------|
-------------2----5----|--------------9----7----|--9-------5--7----7----|
--2----------2----3----|--------------7----5----|--7----------5----5----|
--0----0--0------------|--0--0--0--0------------|-------0---------------|

-------------------------|---------------------------------|
-------------------------|---------------------------------|
-------------------------|---------------------------------|
--9----------------------|--9------------------------------|
--7----------------------|--7--7-7-7-7-7-7-7-7-7-7-7-7-7-7-|
-------0--0--0--0--0--0--|---------------------------------|

----------------------------------|----------------------------|
----------------------------------|--8----10--12--10--8--7--8--|
----------------------------------|----------------------------|
----------------------------------|----------------------------|
--7-7-7-7-7-7-7-7-7-7-7-7-5-5-5-5-|----------------------------|
----------------------------------|----------------------------|

-----------------------|-----------------------|--------------------------|
------5--7--8--7--5----|-----------------------|--------------------------|
-----------------------|--5-------7-------9----|--------------------------|
-----------------------|--5-------5-------9----|-----------4--5--4--------|
-----------------------|--3---------------7----|--------7-----------7--5--|
-----------------------|-------0-------0-------|--0--0--------------------|

-----------------------|--------------------------|-----------------------|
-----------------------|--------------------------|-----------------------|
--5-------7-------9----|--------------------------|--5-------7-------9----|
--5-------7-------9----|-----------4--5--4--------|--5-------5-------9----|
--3-------5-------7----|--------7-----------7--5--|--3---------------7----|
-------0-------0-------|--0--0--------------------|-------0-------0-------|

--------------------------|-------------------|-------------------------|
--------------------------|-------------------|-------------------------|
--------------------------|-------------------|-----------5--4----------|
-----------4--5--4--------|--5~---------------|--5--4-----------5--4~---|
--------7-----------7--5--|-------------------|--------7----------------|
--0--0--------------------|-------------------|-------------------------|

-----------------------|--------------------------|-----------------------|
-----------------------|--------------------------|-----------------------|
--5-------7-------9----|--------------------------|--5-------7-------9----|
--5-------5-------9----|-----------4--5--4--------|--5-------7-------9----|
--3---------------7----|--------7-----------7--5--|--3-------5-------7----|
-------0-------0-------|--0--0--------------------|-------0-------0-------|

--------------------------|-----------------------|--------------------------|
--------------------------|-----------------------|--------------------------|
--------------------------|--5-------7-------9----|--------------------------|
-----------4--5--4--------|--5-------5-------9----|-----------4--5--4--------|
--------7-----------7--5--|--3---------------7----|--------7-----------7--5--|
--0--0--------------------|-------0-------0-------|--0--0--------------------|

-----------------------|----------------------|--------------------------|
-----------------------|-----------8----------|--------------------------|
--7--------------------|----------------------|--------------------------|
--5--------5--4-----4--|----------------------|--------6--6--4--4--6--6--|
-----------------7-----|----------------------|--4--4--------------------|
-----------------------|--0--0--0-------------|--------------------------|

--------------------------|--------------------------|-------------------------|
--------------------------|--------------------------|-------------------------|
--------4--4--------------|--------------------------|-----4--4--4-------6--6--|
--2--2--------4--6--4-----|--------6--6--4--4--6--6--|-----4--4--4-------6--6--|
-----------------------7--|--4--4--------------------|--2--2--2--2----2--4--4--|
--------------------------|--------------------------|-------------------------|

--------------------------|--------------------------|
--------------------------|--------------------------|
--------------------------|--------4--4--------------|
--------6--6--4--4--6--6--|--2--2--------4--6--4-----|
--4--4--------------------|-----------------------7--|
--------------------------|--------------------------|

--------------------------|------16--14------12--11----------|
--------------------------|--14----------14----------14--12--|
--------------------------|----------------------------------|
--------6--6--4--4--6--6--|----------------------------------|
--4--4--------------------|----------------------------------|
--------------------------|----------------------------------|

--------------------------|--------7--7--------------|
--------9--9--7--7--9--9--|--------------7--9--7--5--|
--6--6--------------------|--9--9--------------------|
--------------------------|--------------------------|
--------------------------|--------------------------|
--------------------------|--------------------------|

--------------------------|------------------------------14--|
--------9--9--7--7--9--9--|--14--16--17--16--14--16--17------|
--6--6--------------------|----------------------------------|
--------------------------|----------------------------------|
--------------------------|----------------------------------|
--------------------------|----------------------------------|

--------------------------|--------7--7--------------|
--------9--9--7--7--9--9--|--------------7--9--7--5--|
--6--6--------------------|--9--9--------------------|
--------------------------|--------------------------|
--------------------------|--------------------------|
--------------------------|--------------------------|

--------------------------|------16--14----------------------|
--------9--9--7--7--9--9--|--14----------14--17--16--14--12--|
--6--6--------------------|----------------------------------|
--------------------------|----------------------------------|
--------------------------|----------------------------------|
--------------------------|----------------------------------|

--------------------------|--------------------------|
--------------------------|--------------------------|
--9--9--9--9--9--9--9--9--|--9--9--9--9--7--7--7--7--|
--9--9--9--9--9--9--9--9--|--9--9--9--9--7--7--7--7--|
--7--7--7--7--7--7--7--7--|--7--7--7--7--5--5--5--5--|
--------------------------|--------------------------|

--------------------------|------------------------------|
--------------------------|------------------------------|
--9--9--9--9--9--9--9--9--|--9--9--9--9--12--12----------|
--9--9--9--9--9--9--9--9--|--9--9--9--9--12--12--12--12--|
--7--7--7--7--7--7--7--7--|--7--7--7--7--10--10--12--12--|
--------------------------|----------------------10--10--|

--------------------------|--------------------------|
--------------------------|--------------------------|
--9--9--9--9--9--9--9--9--|--9--9--9--9--7--7--7--7--|
--9--9--9--9--9--9--9--9--|--9--9--9--9--7--7--7--7--|
--7--7--7--7--7--7--7--7--|--7--7--7--7--5--5--5--5--|
--------------------------|--------------------------|

--7h8h7---------------------|-------------------------|---------------------|
--------10--8--7-----7------|-----7--8--7-------------|---------------------|
------------------9-----7---|--9-------------9--7--9--|--4------------------|
----------------------------|-------------------------|-----------2----5----|
----------------------------|-------------------------|-----------2----3----|
----------------------------|-------------------------|---------------------|

------------------------|-----------------------|-------------------------|
------------------------|-----------------------|-------------------------|
------------------------|----------7------------|-------------------------|
--------------9----7----|--9-------5--7----7----|--9----------------------|
--------------7----5----|--7----------5----5----|--7----------------------|
--0--0--0--0------------|-------0---------------|-------0--0--0--0--0--0--|

---------------------------------|----------------------------------|
---------------------------------|----------------------------------|
---------------------------------|----------------------------------|
--9------------------------------|----------------------------------|
--7--7-7-7-7-7-7-7-7-7-7-7-7-7-7-|--7-7-7-7-7-7-7-7-7-7-7-7-5-5-5-5-|
---------------------------------|----------------------------------|

------------------------------------------|-------------------|
------------------------------------------|-------------------|
------------------------------------------|-------------------|
------------------------------------------|--2----------------|
--10-10-10-10-10-10-10-10-9-9-9-9-7-7-7-7-|--2----------------|
------------------------------------------|--0----------------|

-----------------------|------------------------|-----------------------|
-----------------------|------------------------|-----------------------|
-----------------------|------------------------|----------7------------|
-------------2----5----|--------------9----7----|--9-------5--7----7----|
--2----------2----3----|--------------7----5----|--7----------5----5----|
--0----0--0------------|--0--0--0--0------------|-------0---------------|

-------------------------|---------------------------------|
-------------------------|---------------------------------|
-------------------------|---------------------------------|
--9----------------------|--9------------------------------|
--7----------------------|--7--7-7-7-7-7-7-7-7-7-7-7-7-7-7-|
-------0--0--0--0--0--0--|---------------------------------|

----------------------------------|----------------------------|
----------------------------------|--8----10--12--10--8--7--8--|
----------------------------------|----------------------------|
----------------------------------|----------------------------|
--7-7-7-7-7-7-7-7-7-7-7-7-5-5-5-5-|----------------------------|
----------------------------------|----------------------------|


                                                            3x
-------------------||-------------------|-------------------||
-------------------||-------------------|-------------------||
-------------------||*------------------|------------------*||
--2----------------||*------------------|------------------*||
--2----------------||-------------------|-------------------||
--0----------------||-------------------|-------------------||


                                                 3x
-------------------------|-----------------------||--------------------------|
-------------------------|-----------------------||--------------------------|
*--12------------12--14--|--16------------------*||*-------------------------|
*------------------------|--------14------------*||*--5--5--5--5--5----------|
-------------------------|-----------------------||---3--3--3--3--3----2--2--|
-------------------------|-----------------------||--------------------0--0--|


                          2x
--------------------------||-------------------------|--------------------|
--------------------------||-------------------------|--------------------|
-------------------------*||-------------------------|--------------------|
-------------------------*||--5--5--5--5--5----------|--------------------|
--2--2--2----2--2--2--2---||--3--3--3--3--3----2--2--|--7/-------2--------|
--0--0--0----0--0--0--0---||-------------------0--0--|--------------------|

-------------------------|-------------------------|-------------------------|
-------------------------|-------------------------|-------------------------|
-------------------------|-------------------------|-------------------------|
-------------------------|-------------------------|-------------------------|
--2--2--2--2--2----2--2--|--2--2--2----2--2--2--2--|--2--2--2--2--2----2--2--|
--0--0--0--0--0----0--0--|--0--0--0----0--0--0--0--|--0--0--0--0--0----0--0--|

----------------------|-------------------------|-------------------------|
----------------------|-------------------------|-------------------------|
----------------------|-------------------------|-------------------------|
-------------5b-------|-------------------------|-------------------------|
--2--2--2-------------|--2--2--2--2--2----2--2--|--2--2--2----2--2--2--2--|
--0--0--0-------------|--0--0--0--0--0----0--0--|--0--0--0----0--0--0--0--|

----------------------------------|---------------------|
----------------------------------|---------------------|
----------------------------------|---------------------|
--9-9-9-8-8-8-7-7-7-6-6-6-5-5-5-4-|--4--4--3b-----------|
----------------------------------|---------------------|
----------------------------------|---------------------|

--------------------------|--------------------------|
--15----------------15----|--------------------------|
--14b-------14--14b-------|--14--14b---14--------12~-|
--------------------------|--------------------------|
--------------------------|--------------------------|
--------------------------|--------------------------|

------------------------------------------------|
------------------------------------------------|
--12-12-14-16-16-15-14-14-12-12-11-11-12-12-9-9-|
------------------------------------------------|
------------------------------------------------|
------------------------------------------------|

-------------------------------|
-------------------------------|
--11-11-9-9-11-11-7-7-9b-------|
-------------------------------|
-------------------------------|
-------------------------------|

-----------------------------------------------14-|
--15-------15-17-------15-19-------17-19-15-17----|
-----14-16-------14-16-------14-16----------------|
--------------------------------------------------|
--------------------------------------------------|
--------------------------------------------------|

--15-------15-17-------17-18-20-22-20-------------|--------------19b---------|
-----15-17-------17-19----------------22-20-19-17-|--17b---15b---------------|
--------------------------------------------------|--------------------14b---|
--------------------------------------------------|--------------------------|
--------------------------------------------------|--------------------------|
--------------------------------------------------|--------------------------|

--14-12-10------------------------------------|----------------------------17--|
-----------14-12-10-12-10---------------------|--10----------------15----------|
--------------------------11-9-7-9------------|------11----------------14------|
-----------------------------------12-11-9-12-|----------12/-14----------------|
----------------------------------------------|--------------------------------|
----------------------------------------------|--------------------------------|

--14----------19--17--22--24----|------------------------|
------15--17--------------------|-------------------3b---|
--------------------------------|--14b---9b---12b--------|
--------------------------------|------------------------|
--------------------------------|------------------------|
--------------------------------|------------------------|

--------------------------17------|
----------15------------------15--|
--12--14------14--12--14----------|
----------------------------------|
----------------------------------|
----------------------------------|

--------------------------------------------------|
-----------12-14-15----------12-14-15-12-14-15-14-|
--11-12-14----------11-12-14----------------------|
--------------------------------------------------|
--------------------------------------------------|
--------------------------------------------------|

--12-14-15-12-14-15-14-15-17-15-17-15-------|----------------------------|
--------------------------------------------|----------------------------|
--------------------------------------17b---|--7------------7------------|
--------------------------------------------|--7------------7------------|
--------------------------------------------|--5----5-5-5-5-5----5-5-5-5-|
--------------------------------------------|----------------------------|

-------------------------|----------------------------|
-------------------------|----------------------------|
--7------------7---------|----------------------------|
--7------------7----7----|--9------------9------------|
--5----5-5-5-5-5----7----|--9------------9------------|
--------------------5----|--7----7-7-7-7-7----7-7-7-7-|

-------------------------|----------------------------|
-------------------------|----------------------------|
-------------------------|--7------------7------------|
--9------------9----7----|--7------------7------------|
--9------------9----7----|--5----5-5-5-5-5----5-5-5-5-|
--7----7-7-7-7-7----5----|----------------------------|

-------------------------|----------------------------|
-------------------------|----------------------------|
--7------------7---------|----------------------------|
--7------------7----7----|--9------------9------------|
--5----5-5-5-5-5----7----|--9------------9------------|
--------------------5----|--7----7-7-7-7-7----7-7-7-7-|

-------------------------|--19-22-19-22-24-19-22-19-22-19----22-19----22-22-|
-------------------------|--------------------------------22-------22-------|
-------------------------|--------------------------------------------------|
--9------------9----7----|--------------------------------------------------|
--9------------9----7----|--------------------------------------------------|
--7----7-7-7-7-7----5----|--------------------------------------------------|

-----------------------------12-14-15-17-15-|
--15-14-12-14-12-15--15--14-----------------|
--------------------------------------------|
--------------------------------------------|
--------------------------------------------|
--------------------------------------------|

--15-17-19-17-15-17-19----------------------------|
-----------------------17-15-12-15-17-15-12-15-17-|
--------------------------------------------------|
--------------------------------------------------|
--------------------------------------------------|
--------------------------------------------------|

--19------------------------------|
----------17------17------17------|
------16--------------14------16--|
--------------14------------------|
----------------------------------|
----------------------------------|

--------------------------------------------------|
--12-14-15-14-12-14-15-14-12-14-17-15-14-15-17-15-|
--------------------------------------------------|
--------------------------------------------------|
--------------------------------------------------|
--------------------------------------------------|

-----------------------------------12-14-19-17-19-|
--12-14-15-14-12-14-15-14-12-14-15----------------|
--------------------------------------------------|
--------------------------------------------------|
--------------------------------------------------|
--------------------------------------------------|

--22--21--19--22--21--17------|--19----------------|
------------------------------|--------------------|
------------------------------|--------------------|
------------------------------|--------------------|
------------------------------|--------------------|
------------------------------|--------------------|


                                                        2x
|---------------------------|--------5--5---------------||
|---------7--7--5--5--7--7--|--3--3--------5--7--5------||
|*--4--4--------------------|-----------------------7--*||
|*--------------------------|--------------------------*||
|---------------------------|---------------------------||
|---------------------------|---------------------------||

--------------------------|--------5--5--------------|
--------7--7--5--5--7--7--|--3--3--------5--7--5-----|
--4--4--------------------|-----------------------7--|
--------------------------|--------------------------|
--------------------------|--------------------------|
--------------------------|--------------------------|

--------------------------|--------7--7--------------|
--------9--9--7--7--9--9--|--------------7--9--7--5--|
--6--6--------------------|--9--9--------------------|
--------------------------|--------------------------|
--------------------------|--------------------------|
--------------------------|--------------------------|

--------------------------|------------------------------14--|
--------9--9--7--7--9--9--|--14--16--17--16--14--16--17------|
--6--6--------------------|----------------------------------|
--------------------------|----------------------------------|
--------------------------|----------------------------------|
--------------------------|----------------------------------|

--------------------------|--------7--7--------------|
--------9--9--7--7--9--9--|--------------7--9--7--5--|
--6--6--------------------|--9--9--------------------|
--------------------------|--------------------------|
--------------------------|--------------------------|
--------------------------|--------------------------|

--------------------------|------16--14----------------------|
--------9--9--7--7--9--9--|--14----------14--17--16--14--12--|
--6--6--------------------|----------------------------------|
--------------------------|----------------------------------|
--------------------------|----------------------------------|
--------------------------|----------------------------------|

--------------------------|--------7--7--------------|
--------9--9--7--7--9--9--|--------------7--9--7--5--|
--6--6--------------------|--9--9--------------------|
--------------------------|--------------------------|
--------------------------|--------------------------|
--------------------------|--------------------------|

--------------------------|------------------------------14--|
--------9--9--7--7--9--9--|--14--16--17--16--14--16--17------|
--6--6--------------------|----------------------------------|
--------------------------|----------------------------------|
--------------------------|----------------------------------|
--------------------------|----------------------------------|

--------------------------|--------7--7--------------|
--------9--9--7--7--9--9--|--------------7--9--7--5--|
--6--6--------------------|--9--9--------------------|
--------------------------|--------------------------|
--------------------------|--------------------------|
--------------------------|--------------------------|

--------------------------||----------------------------||
--------9--9--7--7--9--9--||----------------------------||
--6--6--------------------||*--------------------------*||
--------------------------||*-----6--4-----------------*||
--------------------------||---4--------4--7--6--4--6---||
--------------------------||----------------------------||

----------------------------------|----------------------------------|
----------------------------------|----------------------------------|
----------------------------------|----------------------------------|
----------------------------------|----------------------------------|
--4-4-4-4-4-4-4-4-4-4-4-4-4-4-4-4-|--4-4-4-4-4-4-4-4-4-4-4-4-4-4-4-4-|
----------------------------------|----------------------------------|

----------------------|--------------------|----||
----------------------|--------------------|----||
--9--6------8--4------|--9--6--------------|----||
--9--6------8--4------|--9--6--------------|----||
--7--4------6--2------|--7--4--------------|----||
----------------------|--------------------|----||

-----------------------------------------------------------------------------

Taste my Scythe
 
Tune down all strings one whole step

D:--------------|--------------|-----------------|-----------------|
A:--------------|--------------|-----------------|-----------------|
F:--------------|--------------|-----------------|-----------------|
G:------------2-|------------2-|----5-5-5--5-5-2-|----5-5-5--5-5-2-|
C:-5-5-5--5-5-2-|-5-5-5--5-5-2-|---------------2-|---------------2-|
D:-3-3-3--3-3-0-|-3-3-3--3-3-0-|-00-3-3-3--3-3-0-|-00-3-3-3--3-3-0-|
                                 ..                ..

D:--------------|--------------|-----|-----------------|------|
A:--------------|--------------|-----|-----------------|------|
F:-5-5-5--5-5-7-|-5-5-5--5-5-7-|-----|-3--2-2-2--2-2-3-|--7~--|
G:--------------|--------------|-2\3-|-5--3-3-3--3-3-5-|------|
C:-3-3-3--3-3-5-|-3-3-3--3-3-5-|-3\5-|-----------------|------|
D:--------------|--------------|-----|-----------------|------|

D:-----------------------------------|------------------------------------|
A:-----------------------------------|------------------------------------|
F:-----------------------------------|------------------------------------|
G:-----------------------------------|------------------------------------|
C:----10p7----7p6----10p7------------|------------10p7--------------------|
D:-00------00-----00------00-000-000-|-00-10p7-00------00-10p7-00-000-000-|
   ..      ..     ..      .. ... ...   ..      ..      ..      .. ... ...

D:-----------------------------------|------------------|
A:-----------------------------------|------------------|
F:-----------------------------------|------------------|
G:-----------------------------------|------------------|
C:----10p7----7p6----10p7------------|------------10p7--|
D:-00------00-----00------00-000-000-|-00-10p7-00-------|
   ..      ..     ..      .. ... ...   ..      ..

D:-----------------------------|--------7-9------10-9-7--------|
A:-----------------------------|-7-9-10-----10-9--------10-9-7-|
F:----------------------7-9----|-------------------------------|
G:--------7-9----7-9-10-----10-|-------------------------------|
C:-7-9-10-----10---------------|-------------------------------|
D:-----------------------------|-------------------------------|
   . . .  . . .  . . .  . . . 

D:-----------------------------------------------------------------|
A:-----------------------------------------------------------------|
F:----------------------------------------------------5-5------4-4-|
G:----10/9----7\9----10\9----7\9----10--9---------5-5------4-4-----|
C:----8-/7----5\7----8-\7----5\7----8---7---------3-3-3-3--2-2-2-2-|
D:-00------00-----00------00-----00-------0-2-3-5------------------|
   ..      ..     ..      ..     ..       . . . . 


D:-------------------------|-------------------|
A:-------------------------|-------------------|
F:------------------4-2-4--|-------------------|
G:------------------4-2-4--|-----77774444------|
C:-5555444422224400-2-0-2--|-5555--------5533--|
D:-------------------------|-------------------|
   ................          ................

CHORUS W/KEYBOARDS
D:----------------19-20----19-22-17----15----14-----|
A:-17-20-19----17-------22----------19----17----15--|
F:----------19--------------------------------------|
G:--------------------------------------------------|
C:--------------------------------------------------|
D:--------------------------------------------------|

D:----------------19-20----19-22-17----15----14-----|---------|
A:-17-20-19----17-------22----------19----17----15--|---15b---|
F:----------19--------------------------------------|---------|
G:--------------------------------------------------|---------|
C:--------------------------------------------------|---------|
D:--------------------------------------------------|---------|

i'll write the rest later...much!

-----------------------------------------------------------------------------

Hate Me

Tuning: D G C F A D

                                           Play this 2 times
|--------------------||-----------------||-------------|
|--------------------||-----------------||-------------|
|--------------------||-----------------||-2-----------|
|-2---2--------2---2-||-2-2-2-2-2-2-----||-2--2---2--2-|
|-2---2--------2---2-||-2-2-2-2-2-2-----||-0--2---2--2-|
|-0---0--------0---0-||-0-0-0-0-0-0-----||----0---0--0-|

Riff 1 (play 6 times)
|----15-------------------------------------------|
|-17----19-17-15-------17----17-15-17-15----15-17-|
|----------------16----------------------16-------|
|-------------------17----------------------------|
|-------------------------------------------------|
|-------------------------------------------------|


Verse (play 2 times)
|------------------------------------|
|------------------------------------|
|-------------------------------9--7-|
|-2-----------------------------9--7-|
|-2-----------------------------7--5-|
|-0---0-0-0-0-0-0-0-0-0-0-0-0-0------|

|--------------------------------------------------------------------------|
|--------------------------------------------------------------------------|
|---------------------------------------9--9--9-9--7--7--7-7--5--5--5-5--4-|
|-2-------------------------------------9--9--9-9--7--7--7-7--5--5--5-5--4-|
|-2-------------------------------------7--7--7-7--5--5--5-5--3--3--3-3--2-|
|-0---0-0-0-0-0-0-0-0-0-0-0-0-0-0-0-0-0------------------------------------|

Chorus
|-----------------------------------------------|
|-----------------------------------------------|
|-----------------------------------------------|
|-7--9--------10--2--------------2--------------|
|-7--9--------10--2--------------2--------------|
|-5--7--------8---0--0-0-0-0-0-0-0--0-0-0-0-0-0-|

|---------------------------------|
|---------------------------------|
|---------------------------------|
|-7--9------------------2-2-2-2-2-|
|-7--9------------------2-2-2-2-2-|
|-5--7--------0-0-0-0-0-0-0-0-0-0-|

Repeat Verse and Chorus

Riff 3
|-----------------------------------------------|
|-----------------------------------------------|
|-7----10-------7-7-7-7---------7-7-7-7---------|
|-7----10--10---7-7-7-7-7-7-7-7-7-7-7-7-7-7-7-7-|
|-5----8---10---5-5-5-5-7-7-7-7-5-5-5-5-7-7-7-7-|
|----------8------------5-5-5-5---------5-5-5-5-|

|----------------------------------------------------|
|----------------------------------------------------|
|-7----10-------7-7-7-7---------7-7-7-7---------9----|
|-7----10--10---7-7-7-7-7-7-7-7-7-7-7-7-7-7-7-7-9----|
|-5----8---10---5-5-5-5-7-7-7-7-5-5-5-5-7-7-7-7-7----|
|----------8------------5-5-5-5---------5-5-5-5------|

The rest are coming later, and I mean much later.

-----------------------------------------------------------------------------

Northern comfort

Tuning:standard


Gtr I (E A D G B E) - 'Lead'
Gtr II (E A D G B E) - 'Rhythm'
Gtr III (E A D G B E) - 'Lead2'

  Q=180
 4/4
  Gtr I
  PM---|           PM---|          PM---|           PM---|
  E  E E  H    E   E  E E H    E   E  E E  H    E   E  E E  H         E
|----------------|---------------|----------------|----------------------|
|----------------|---------------|----------------|----------------------|
|----------------|---------------|----------------|--------12------------|
|------9-10------|------9-8------|------9-10------|------9---------------|
|-7-10-----------|-7-10----------|-7-10-----------|-7-10-----------------|
|----------------|---------------|----------------|----------------------|
|
| Gtr II
|                                                                 PM  PM
| W                W               W                H         +E  E E E
|----------------|---------------|----------------|----------------------|
|----------------|---------------|----------------|----------------------|
|-9--------------|-9-------------|-9--------------|-9---------(9)--------|
|-9--------------|-9-------------|-9--------------|-9---------(9)---9----|
|-7--------------|-7-------------|-7--------------|-7---------(7)---7----|
|-0--------------|-0-------------|-0--------------|-0---------(0)-0---0--|


  PM---|                PM----|
  E  E E  H        E    E   E E H           E
|--------------------|------------------------|
|--------------------|------------------------|
|--------------------|------------------------|
|------9-10----------|--------9-8-------------|
|-7-10---------------|--7--10-----------------|
|--------------------|------------------------|
|
|                                      PM   PM
| W                     H         +E   E E  E
|--------------------|------------------------|
|--------------------|------------------------|
|-9------------------|--9---------(9)---------|
|-9------------------|--9---------(9)----9----|
|-7------------------|--7---------(7)----7----|
|-0------------------|--0---------(0)--0----0-|
|
| Gtr III
| H         E  E E E   +H          E   E E  E
|--------------------|------------------------|
|--------------------|------------------------|
|--------------------|------------------------|
|----------------9-8-|-(8)---------------9-10-|
|-------------10-----|----------------10------|
|--------------------|------------------------|


    PM----|                    PM----|
    E   E E  H           E     E   E E  H    E
|--------------------------|-------------------|
|--------------------------|-------------------|
|--------------------------|-----------12------|
|---------9-10-------------|---------9---------|
|---7--10------------------|---7--10-----------|
|--------------------------|-------------------|
|
|                   PM   PM
|   H          +E   E E  E     W
|--------------------------|-------------------|
|--------------------------|-------------------|
|---9----------(9)---------|---9---------------|
|---9----------(9)----9----|---9---------------|
|---7----------(7)----7----|---7---------------|
|---0----------(0)--0----0-|---0---------------|
|
|  +H           E   E E  E    +Q.       H    E
|--------------------------|-------------------|
|--------------------------|-----------11------|
|-----------------------12-|-(12)--------------|
|-(10)----------------9----|-------------------|
|------------------10------|-------------------|
|--------------------------|-------------------|


                                                           PM----------|
  Q   Q  Q   E E   +Q    Q   Q   Q    Q   Q  Q   E E   +E  E E E E E E E
|----------------|------------------|----------------|-------------------|
|----------------|------------------|----------------|-------------------|
|-9------8-----9-|-(9)------12------|-9------8-----9-|-(9)---------------|
|-9--10--8--10-9-|-(9)--10--12--12--|-9--10--8--10-9-|-(9)---------------|
|-7--10--6--10-7-|-(7)--10--10--12--|-7--10--6--10-7-|-(7)-2-3-2-2-2-3-2-|
|-----8------8---|-------8------10--|-----8------8---|-----0-1-0-3-0-1-0-|


  Q   Q  Q   E E   +Q    Q   Q   Q    Q   Q  Q   E E   +E  S E H    E.
|----------------|------------------|----------------|-----------------|
|----------------|------------------|----------------|-----------------|
|-9------8-----9-|-(9)------12------|-9------8-----9-|-(9)---7-5-------|
|-9--10--8--10-9-|-(9)--10--12--12--|-9--10--8--10-9-|-(9)---7-5-------|
|-7--10--6--10-7-|-(7)--10--10--12--|-7--10--6--10-7-|-(7)---5-3-------|
|-----8------8---|-------8------10--|-----8------8---|-----------------|


     E E E  E  E  E E  E    E E E  E  E  E E  E
||-----------------------|----------------------|
||o----------------------|----------------------|
||--11-9-9-11-12-11-9-11-|-11-9-9-11-12-11-9-11-|
||-----------------------|----------------------|
||o----------------------|----------------------|
||-----------------------|----------------------|
|
|   Gtr II
|      PM|     PM|     PM     PM|     PM|     PM
|    E E E  E  E  E E  E    E E E  E  E  E E  E
||-----------------------|----------------------|
||o----------------------|----------------------|
||---7------7-------9----|--7------7-------9----|
||---7------7-------9----|--7------7-------9----|
||o--5-5-5--5--7--7-7--7-|--5-5-5--5--7--7-7--7-|
||-----------------------|----------------------|


  1.
  PM---------------------------------------------------------------------|
  S S S S S S  S  S S S S S S S  S  S   S S S S S S  S  S S S S S S S  S  S
|-------------------------------------|--------------------------------------||
|-------------------------------------|-------------------------------------o||
|-------------------------------------|--------------------------------------||
|-7-7-7-7-7-7-12-12-9-9-9-9-9-9-12-12-|-7-7-7-7-7-7-12-12-9-9-9-9-9-9-12-12--||
|-------------------------------------|-------------------------------------o||
|-------------------------------------|--------------------------------------||
|
| PM---------------------------------------------------------------------|
| S S S S S S  S  S S S S S S S  S  S   S S S S S S  S  S S S S S S S  S  S
|-------------------------------------|--------------------------------------||
|-------------------------------------|-------------------------------------o||
|-------------------------------------|--------------------------------------||
|-------------------------------------|--------------------------------------||
|-5-5-5-5-5-5--5--5-7-7-7-7-7-7--7--7-|-5-5-5-5-5-5--5--5-7-7-7-7-7-7--7--7-o||
|-------------------------------------|--------------------------------------||


  2.
  PM--------------------------------------------------------------|
  S S S S S S S S S S S S S S S S   S S S S S S S S S S S S S S S S
|---------------------------------|---------------------------------|
|---------------------------------|---------------------------------|
|-------------7-7-------------7-7-|-------------7-7-------------7-7-|
|-5-5-5-5-5-5-----7-7-7-7-7-7-----|-5-5-5-5-5-5-----7-7-7-7-7-7-----|
|---------------------------------|---------------------------------|
|---------------------------------|---------------------------------|
|
| PM--------------------------------------------------------------|
| S S S S S S S S S S S S S S S S   S S S S S S S S S S S S S S S S
|---------------------------------|---------------------------------|
|---------------------------------|---------------------------------|
|---------------------------------|---------------------------------|
|---------------------------------|---------------------------------|
|-3-3-3-3-3-3-3-3-5-5-5-5-5-5-5-5-|-3-3-3-3-3-3-3-3-5-5-5-5-5-5-5-5-|
|---------------------------------|---------------------------------|


   E E E  E  E  E E  E    E E E  E  E  E E  E
|----------------------|----------------------|
|----------------------|----------------------|
|-11-9-9-11-12-11-9-11-|-11-9-9-11-12-11-9-11-|
|----------------------|----------------------|
|----------------------|----------------------|
|----------------------|----------------------|
|
|  H         H            H         H
|----------------------|----------------------|
|----------------------|----------------------|
|--7---------9---------|--7---------9---------|
|--7---------9---------|--7---------9---------|
|--5---------7---------|--5---------7---------|
|----------------------|----------------------|


  PM---------------------------------------------------------------------|
  S S S S S S  S  S S S S S S S  S  S   S S S S S S  S  S S S S S S S  S  S
|-------------------------------------|-------------------------------------|
|-------------------------------------|-------------------------------------|
|-------------------------------------|-------------------------------------|
|-7-7-7-7-7-7-12-12-9-9-9-9-9-9-12-12-|-7-7-7-7-7-7-12-12-9-9-9-9-9-9-12-12-|
|-------------------------------------|-------------------------------------|
|-------------------------------------|-------------------------------------|
|
| PM---------------------------------------------------------------------|
| S S S S S S  S  S S S S S S S  S  S   S S S S S S  S  S S S S S S S  S  S
|-------------------------------------|-------------------------------------|
|-------------------------------------|-------------------------------------|
|-------------------------------------|-------------------------------------|
|-------------------------------------|-------------------------------------|
|-5-5-5-5-5-5--5--5-7-7-7-7-7-7--7--7-|-5-5-5-5-5-5--5--5-7-7-7-7-7-7--7--7-|
|-------------------------------------|-------------------------------------|


   E E E  E  E  E E  E    E  E  E  E  E  E  E  E
|----------------------|-------------------------|
|----------------------|-------------------------|
|-11-9-9-11-12-11-9-11-|-14-12-11-12-16-14-12-14-|
|----------------------|-------------------------|
|----------------------|-------------------------|
|----------------------|-------------------------|
|
|  H         H            H           H
|----------------------|-------------------------|
|----------------------|-------------------------|
|--7---------9---------|--7-----------9----------|
|--7---------9---------|--7-----------9----------|
|--5---------7---------|--5-----------7----------|
|----------------------|-------------------------|


  PM--------------------------------------------------------------|
  S S S S S S S S S S S S S S S S   S S S S S S S S S S S S S S S S
|---------------------------------|---------------------------------|
|---------------------------------|---------------------------------|
|-------------7-7-------------7-7-|-------------7-7-------------7-7-|
|-5-5-5-5-5-5-----7-7-7-7-7-7-----|-5-5-5-5-5-5-----7-7-7-7-7-7-----|
|---------------------------------|---------------------------------|
|---------------------------------|---------------------------------|
|
| PM--------------------------------------------------------------|
| S S S S S S S S S S S S S S S S   S S S S S S S S S S S S S S S S
|---------------------------------|---------------------------------|
|---------------------------------|---------------------------------|
|---------------------------------|---------------------------------|
|---------------------------------|---------------------------------|
|-3-3-3-3-3-3-3-3-5-5-5-5-5-5-5-5-|-3-3-3-3-3-3-3-3-5-5-5-5-5-5-5-5-|
|---------------------------------|---------------------------------|


                                                           PM----------|
  Q   Q  Q   E E   +Q    Q   Q   Q    Q   Q  Q   E E   +E  E E E E E E E
|----------------|------------------|----------------|-------------------|
|----------------|------------------|----------------|-------------------|
|-9------8-----9-|-(9)------12------|-9------8-----9-|-(9)---------------|
|-9--10--8--10-9-|-(9)--10--12--12--|-9--10--8--10-9-|-(9)---------------|
|-7--10--6--10-7-|-(7)--10--10--12--|-7--10--6--10-7-|-(7)-2-3-2-2-2-3-2-|
|-----8------8---|-------8------10--|-----8------8---|-----0-1-0-3-0-1-0-|


  Q   Q  Q   E E   +Q    Q   Q   Q    Q   Q  Q   E E   +E  S E H    E.
|----------------|------------------|----------------|-----------------|
|----------------|------------------|----------------|-----------------|
|-9------8-----9-|-(9)------12------|-9------8-----9-|-(9)---7-5-------|
|-9--10--8--10-9-|-(9)--10--12--12--|-9--10--8--10-9-|-(9)---7-5-------|
|-7--10--6--10-7-|-(7)--10--10--12--|-7--10--6--10-7-|-(7)---5-3-------|
|-----8------8---|-------8------10--|-----8------8---|-----------------|


     E E E  E  E  E E  E    E E E  E  E  E E  E
||-----------------------|----------------------|
||o----------------------|----------------------|
||--11-9-9-11-12-11-9-11-|-11-9-9-11-12-11-9-11-|
||-----------------------|----------------------|
||o----------------------|----------------------|
||-----------------------|----------------------|
|
|   Gtr II
|      PM|     PM|     PM     PM|     PM|     PM
|    E E E  E  E  E E  E    E E E  E  E  E E  E
||-----------------------|----------------------|
||o----------------------|----------------------|
||---7------7-------9----|--7------7-------9----|
||---7------7-------9----|--7------7-------9----|
||o--5-5-5--5--7--7-7--7-|--5-5-5--5--7--7-7--7-|
||-----------------------|----------------------|


  1.
  PM---------------------------------------------------------------------|
  S S S S S S  S  S S S S S S S  S  S   S S S S S S  S  S S S S S S S  S  S
|-------------------------------------|--------------------------------------||
|-------------------------------------|-------------------------------------o||
|-------------------------------------|--------------------------------------||
|-7-7-7-7-7-7-12-12-9-9-9-9-9-9-12-12-|-7-7-7-7-7-7-12-12-9-9-9-9-9-9-12-12--||
|-------------------------------------|-------------------------------------o||
|-------------------------------------|--------------------------------------||
|
| PM---------------------------------------------------------------------|
| S S S S S S  S  S S S S S S S  S  S   S S S S S S  S  S S S S S S S  S  S
|-------------------------------------|--------------------------------------||
|-------------------------------------|-------------------------------------o||
|-------------------------------------|--------------------------------------||
|-------------------------------------|--------------------------------------||
|-5-5-5-5-5-5--5--5-7-7-7-7-7-7--7--7-|-5-5-5-5-5-5--5--5-7-7-7-7-7-7--7--7-o||
|-------------------------------------|--------------------------------------||


  2.
  PM--------------------------------------------------------------|
  S S S S S S S S S S S S S S S S   S S S S S S S S S S S S S S S S
|---------------------------------|---------------------------------|
|---------------------------------|---------------------------------|
|-------------7-7-------------7-7-|-------------7-7-------------7-7-|
|-5-5-5-5-5-5-----7-7-7-7-7-7-----|-5-5-5-5-5-5-----7-7-7-7-7-7-----|
|---------------------------------|---------------------------------|
|---------------------------------|---------------------------------|
|
| PM--------------------------------------------------------------|
| S S S S S S S S S S S S S S S S   S S S S S S S S S S S S S S S S
|---------------------------------|---------------------------------|
|---------------------------------|---------------------------------|
|---------------------------------|---------------------------------|
|---------------------------------|---------------------------------|
|-3-3-3-3-3-3-3-3-5-5-5-5-5-5-5-5-|-3-3-3-3-3-3-3-3-5-5-5-5-5-5-5-5-|
|---------------------------------|---------------------------------|


  E E E  Q.   Q     E  E  E  Q.   Q    E E E  Q.   Q    E E Q  E E Q
|----------------|-------------------|----------------|---------------|
|----------------|-------------------|----------------|-8-8-8---------|
|-7-7-7--5----5--|-10-10-10--7----7--|-7-7-7--5----5--|-5-5-5--5-5-5--|
|-5-5-5--5----5--|--8--8--8--8----8--|-5-5-5--5----5--|--------3-3-3--|
|----------------|-------------------|----------------|---------------|
|----------------|-------------------|----------------|---------------|
|
| E E H.            E  E  H.           E E H.           E E Q  E E Q
|----------------|-------------------|----------------|---------------|
|----------------|-------------------|----------------|---------------|
|----------------|--3--3-------------|----------------|-5-5-----------|
|-5-5------------|--3--3-------------|-5-5------------|-5-5----3-3----|
|-5-5------------|--1--1-------------|-5-5------------|-3-3----3-3----|
|-3-3------------|-------------------|-3-3------------|--------1-1----|


  E E E  Q.   Q     E  E  E  Q.   Q
|----------------|-------------------|
|----------------|-------------------|
|-7-7-7--5----5--|-10-10-10--7----7--|
|-5-5-5--5----5--|--8--8--8--8----8--|
|----------------|-------------------|
|----------------|-------------------|
|
| E E H.            E  E  H.
|----------------|-------------------|
|----------------|-------------------|
|----------------|-------------------|
|-5-5------------|--8--8-------------|
|-5-5------------|--8--8-------------|
|-3-3------------|--6--6-------------|


   E  E  E  Q.   Q     E  E   E   E  +H
|-------------------|-----------------------|
|-10-10-10--8----8--|-13-13--13--10-(10)----|
|--7--7--7--7----7--|-10-10--10--10-(10)----|
|-------------------|-----------------------|
|-------------------|-----------------------|
|-------------------|-----------------------|
|
|  E  E  H.            E  E  +H.
|-------------------|-----------------------|
|-------------------|-----------------------|
|--7--7-------------|-10-10-(10)------------|
|--7--7-------------|-10-10-(10)------------|
|--5--5-------------|--8--8--(8)------------|
|-------------------|-----------------------|


     E  E  E  E  E  E  E  E    E  E  E  E  E  E  E  E
||--------------------------|-------------------------|
||o-15----------------------|-18----------------------|
||-----12-12-12-12-12-12-12-|----15-15-15-15-15-15-15-|
||--------------------------|-------------------------|
||o-------------------------|-------------------------|
||--------------------------|-------------------------|
|
|    W                         W
||--------------------------|-------------------------|
||o-------------------------|-------------------------|
||--------------------------|--3----------------------|
||---5----------------------|--3----------------------|
||o--5----------------------|--1----------------------|
||---3----------------------|-------------------------|
|
|   Gtr III
|    E  E  E  E  E  E  E  E    E  E  E  E  E  E  E  E
||--------------------------|-------------------------|
||o-------------------------|-------------------------|
||---7--0--3--0--7--0--3--0-|-10--0--7--0-10--0--7--0-|
||--------------------------|-------------------------|
||o-------------------------|-------------------------|
||--------------------------|-------------------------|


   E  E  E  E  E  E  E  E    E  E  E  E  E  E  E  E
|-------------------------|-15-------------15----13-|
|-15----------------------|----13-13-13-15----15----|
|----12-12-12-12-12-12-12-|-------------------------|
|-------------------------|-------------------------|
|-------------------------|-------------------------|
|-------------------------|-------------------------|
|
|  W                         H           H
|-------------------------|-------------------------|
|-------------------------|-------------------------|
|-------------------------|--5----------------------|
|--5----------------------|--5-----------3----------|
|--5----------------------|--3-----------3----------|
|--3----------------------|--------------1----------|
|
|  E  E  E  E  E  E  E  E    E  E  E  E  E  E  E  E
|-------------------------|-------------------------|
|-------------------------|-------------------------|
|--7--0--3--0--7--0--3--0-|--5--0--8--0--5--0--2--0-|
|-------------------------|-------------------------|
|-------------------------|-------------------------|
|-------------------------|-------------------------|


   E  E  E  E  E  E  E  E    E  E  E  E  E  E  E  E
|-------------------------|-------------------------|
|-15----------------------|-18----------------------|
|----12-12-12-12-12-12-12-|----15-15-15-15-15-15-15-|
|-------------------------|-------------------------|
|-------------------------|-------------------------|
|-------------------------|-------------------------|
|
|  W                         W
|-------------------------|-------------------------|
|-------------------------|-------------------------|
|-------------------------|--3----------------------|
|--5----------------------|--3----------------------|
|--5----------------------|--1----------------------|
|--3----------------------|-------------------------|
|
|  E  E  E  E  E  E  E  E    E  E  E  E  E  E  E  E
|-------------------------|-------------------------|
|-------------------------|-------------------------|
|--7--0--3--0--7--0--3--0-|-10--0--7--0-10--0--7--0-|
|-------------------------|-------------------------|
|-------------------------|-------------------------|
|-------------------------|-------------------------|


   E  E  E  E  E  E  E  E    H         H
|-17----------------------|-----------20-----||
|----15-15-15-15-15-15-15-|-18--------------o||
|-------------------------|------------------||
|-------------------------|------------------||
|-------------------------|-----------------o||
|-------------------------|------------------||
|
|  W                         W
|-------------------------|------------------||
|-------------------------|-----------------o||
|--7----------------------|-10---------------||
|--7----------------------|-10---------------||
|--5----------------------|--8--------------o||
|-------------------------|------------------||
|
|  E  E  E  E  E  E  E  E    E E  E E  H
|-------------------------|------------------||
|-------------------------|-----------------o||
|-14--0-10--0-14--0-10--0-|-17-0-14-0-17-----||
|-------------------------|------------------||
|-------------------------|-----------------o||
|-------------------------|------------------||


    E E E E E E E E   E E E E E E E E  4x
||------------------|------------------||
||o-----8-----------|---------------8-o||
||--0-0---8-0-0-8-7-|-0-6-7-8-6-7-8----||
||------------------|------------------||
||o-----------------|-----------------o||
||------------------|------------------||


   Q   Q   Q   E  E    +Q    Q   Q   Q
|-------------------|-------------------|
|-------------------|-------------------|
|-12------11-----12-|-(12)------15------|
|-12--13--11--13-12-|-(12)--13--15--15--|
|-10--13---9--13-10-|-(10)--13--13--15--|
|-----11------11----|-------11------13--|


                           PM----------|
   Q   Q   Q   E  E    +E  E E E E E E E
|-------------------|--------------------|
|-------------------|--------------------|
|-12------11-----12-|-(12)---------------|
|-12--13--11--13-12-|-(12)---------------|
|-10--13---9--13-10-|-(10)-5-6-5-5-5-6-5-|
|-----11------11----|------3-4-3-6-3-4-3-|


   Q   Q   Q   E  E    +Q    Q   Q   Q
|-------------------|-------------------|
|-------------------|-------------------|
|-12------11-----12-|-(12)------15------|
|-12--13--11--13-12-|-(12)--13--15--15--|
|-10--13---9--13-10-|-(10)--13--13--15--|
|-----11------11----|-------11------13--|


   Q   Q   Q   E  E    +E  S  E H    E.
|-------------------|-------------------|
|-------------------|-------------------|
|-12------11-----12-|-(12)---10-8-------|
|-12--13--11--13-12-|-(12)---10-8-------|
|-10--13---9--13-10-|-(10)----8-6-------|
|-----11------11----|-------------------|


     E E E  E  E  E E  E    E E E  E  E  E E  E
||-----------------------|----------------------|
||o----------------------|----------------------|
||--11-9-9-11-12-11-9-11-|-11-9-9-11-12-11-9-11-|
||-----------------------|----------------------|
||o----------------------|----------------------|
||-----------------------|----------------------|
|
|   Gtr II
|      PM|     PM|     PM     PM|     PM|     PM
|    E E E  E  E  E E  E    E E E  E  E  E E  E
||-----------------------|----------------------|
||o----------------------|----------------------|
||---7------7-------9----|--7------7-------9----|
||---7------7-------9----|--7------7-------9----|
||o--5-5-5--5--7--7-7--7-|--5-5-5--5--7--7-7--7-|
||-----------------------|----------------------|


  1.
  PM---------------------------------------------------------------------|
  S S S S S S  S  S S S S S S S  S  S   S S S S S S  S  S S S S S S S  S  S
|-------------------------------------|--------------------------------------||
|-------------------------------------|-------------------------------------o||
|-------------------------------------|--------------------------------------||
|-7-7-7-7-7-7-12-12-9-9-9-9-9-9-12-12-|-7-7-7-7-7-7-12-12-9-9-9-9-9-9-12-12--||
|-------------------------------------|-------------------------------------o||
|-------------------------------------|--------------------------------------||
|
| PM---------------------------------------------------------------------|
| S S S S S S  S  S S S S S S S  S  S   S S S S S S  S  S S S S S S S  S  S
|-------------------------------------|--------------------------------------||
|-------------------------------------|-------------------------------------o||
|-------------------------------------|--------------------------------------||
|-------------------------------------|--------------------------------------||
|-5-5-5-5-5-5--5--5-7-7-7-7-7-7--7--7-|-5-5-5-5-5-5--5--5-7-7-7-7-7-7--7--7-o||
|-------------------------------------|--------------------------------------||


  2.
  PM--------------------------------------------------------------|
  S S S S S S S S S S S S S S S S   S S S S S S S S S S S S S S S S
|---------------------------------|---------------------------------|
|---------------------------------|---------------------------------|
|-------------7-7-------------7-7-|-------------7-7-------------7-7-|
|-5-5-5-5-5-5-----7-7-7-7-7-7-----|-5-5-5-5-5-5-----7-7-7-7-7-7-----|
|---------------------------------|---------------------------------|
|---------------------------------|---------------------------------|
|
| PM--------------------------------------------------------------|
| S S S S S S S S S S S S S S S S   S S S S S S S S S S S S S S S S
|---------------------------------|---------------------------------|
|---------------------------------|---------------------------------|
|---------------------------------|---------------------------------|
|---------------------------------|---------------------------------|
|-3-3-3-3-3-3-3-3-5-5-5-5-5-5-5-5-|-3-3-3-3-3-3-3-3-5-5-5-5-5-5-5-5-|
|---------------------------------|---------------------------------|


     E E E  E  E  E E  E    E  E  E  E  E  E  E  E
||-----------------------|-------------------------|
||o----------------------|-------------------------|
||--11-9-9-11-12-11-9-11-|-14-12-11-12-16-14-12-14-|
||-----------------------|-------------------------|
||o----------------------|-------------------------|
||-----------------------|-------------------------|
|
|    H         H            H           H
||-----------------------|-------------------------|
||o----------------------|-------------------------|
||---7---------9---------|--7-----------9----------|
||---7---------9---------|--7-----------9----------|
||o--5---------7---------|--5-----------7----------|
||-----------------------|-------------------------|


  1.
  PM---------------------------------------------------------------------|
  S S S S S S  S  S S S S S S S  S  S   S S S S S S  S  S S S S S S S  S  S
|-------------------------------------|--------------------------------------||
|-------------------------------------|-------------------------------------o||
|-------------------------------------|--------------------------------------||
|-7-7-7-7-7-7-12-12-9-9-9-9-9-9-12-12-|-7-7-7-7-7-7-12-12-9-9-9-9-9-9-12-12--||
|-------------------------------------|-------------------------------------o||
|-------------------------------------|--------------------------------------||
|
| PM---------------------------------------------------------------------|
| S S S S S S  S  S S S S S S S  S  S   S S S S S S  S  S S S S S S S  S  S
|-------------------------------------|--------------------------------------||
|-------------------------------------|-------------------------------------o||
|-------------------------------------|--------------------------------------||
|-------------------------------------|--------------------------------------||
|-5-5-5-5-5-5--5--5-7-7-7-7-7-7--7--7-|-5-5-5-5-5-5--5--5-7-7-7-7-7-7--7--7-o||
|-------------------------------------|--------------------------------------||


  2.
  PM----------------------------|
  S S S S S S S S S S S S S S S S   E E Q  E E Q
|---------------------------------|---------------|
|---------------------------------|---------------|
|-------------7-7-------------7-7-|---------------|
|-5-5-5-5-5-5-----7-7-7-7-7-7-----|-5-5----7-7----|
|---------------------------------|---------------|
|---------------------------------|---------------|
|
| PM----------------------------|
| S S S S S S S S S S S S S S S S   E E Q  E E Q
|---------------------------------|---------------|
|---------------------------------|---------------|
|---------------------------------|-5-5----7-7----|
|---------------------------------|-5-5----7-7----|
|-3-3-3-3-3-3-3-3-5-5-5-5-5-5-5-5-|-3-3----5-5----|
|---------------------------------|---------------|


  PM------------------------------------------------------------------|
  E E E E E E E E   E E E E E E E E   E E E E E E E E   E E E E E E E E
|-----------------|-----------------|-----------------|-----------------|
|-----------------|-----------------|-----------------|-----------------|
|-----------------|-----------------|-----------------|-----------------|
|-----------------|-----------------|-----------------|-----------------|
|-9-9-9-9-9-9-9-9-|-9-9-9-9-9-9-9-9-|-9-9-9-9-9-9-9-9-|-9-9-9-9-9-9-9-9-|
|-----------------|-----------------|-----------------|-----------------|


  PM-----------------------------------------
  E E E E  E  E  E  E    E  E  E  E E E E E
|---------------------|---------------------|
|---------------------|---------------------|
|---------------------|---------------------|
|---------------------|---------------------|
|-9-9-9-9-------------|-12-12-12-12-7-7-7-7-|
|---------10-10-10-10-|---------------------|


 ------------------|
  E E E E  E  E  E  E   E E E E Q  E E
|---------------------|----------------|
|---------------------|----------------|
|---------------------|-9-9-7-6--------|
|---------------------|---------9--7-6-|
|-9-9-9-9-------------|----------------|
|---------10-10-10-10-|----------------|


     E  E  E  E  E  E  E  E    E  E  E  E  E  E  E  E  4x
||--------------------------|--------------------------||
||o-16----12-16-17----12-17-|-16----12-16-14----12-14-o||
||-----13----------13-------|----13----------13--------||
||--------------------------|--------------------------||
||o-------------------------|-------------------------o||
||--------------------------|--------------------------||
|
|   Gtr II
|    H           H             H           H           4x
||--------------------------|--------------------------||
||o-------------------------|-------------------------o||
||---8----------------------|-11-----------------------||
||---8-----------9----------|-11----------11-----------||
||o--6-----------9----------|--9----------11----------o||
||---------------7----------|--------------9-----------||


  Q  Q  Q  Q    Q  Q  Q  Q    E q  E q  Q
|-------------|-------------|--------------|
|-------------|-------------|--------------|
|-------------|-------------|--------------|
|-6--5--4--3--|-6--5--4--3--|--------------|
|-6--5--4--3--|-6--5--4--3--|-6-6--6-6--7--|
|-4--3--2--1--|-4--3--2--1--|-4-4--4-4--5--|


                       PM|
    W          H.      E E   W          Q  S S S S S S S S S S S S
||-----------|-------------|----------|-------------------------------||
||o----------|-------------|----------|------------------------------o||
||-----------|-------------|----------|----7h8p7h8--------------------||
||--6--------|-7-----------|-6--------|-7----------6h7p6h7------------||
||o-6--------|-7-----------|-6--------|-7------------------5h6p5h6---o||
||--4--------|-5-------7-5-|-4--------|-5-----------------------------||


  W
|------|
|------|
|------|
|------|
|------|
|------|


  S  S  S   S S  S S S S  S S S S S S S
|----------------------6-10-8-6-5-8-6-5-|
|-8-11-10---8-6-10-8-6------------------|
|---------------------------------------|
|---------------------------------------|
|---------------------------------------|
|---------------------------------------|
|
| Gtr II
| E     H..
|---------------------------------------|
|---------------------------------------|
|---------------------------------------|
|-5-------------------------------------|
|-5-------------------------------------|
|-3-------------------------------------|


  S  S  S   S  S  S  S S  S S  S  S S  S  S S
|-----------8-10-11-10-8-10-8-------8---------|
|-8-10-11---------------------11-10---11-10-8-|
|---------------------------------------------|
|---------------------------------------------|
|---------------------------------------------|
|---------------------------------------------|
|
| E     H..
|---------------------------------------------|
|---------------------------------------------|
|---------------------------------------------|
|-5-------------------------------------------|
|-5-------------------------------------------|
|-3-------------------------------------------|


    S  S  S S S  S S S S  S S S S S S S
||---------------------6-10-8-6-5-8-6-5-|
||o-8-11-10-8-6-10-8-6------------------|
||--------------------------------------|
||--------------------------------------|
||o-------------------------------------|
||--------------------------------------|
|
|   Q         Q        Q        Q
||--------------------------------------|
||o-------------------------------------|
||---------------------3----------------|
||--5---------1--------3--------3-------|
||o-5---------1--------1--------3-------|
||--3---------------------------1-------|


  S  S  S S S  S S S S  S S S S S S S
|--------------------6-10-8-6-5-8-6-5---||
|-8-11-10-8-6-10-8-6-------------------o||
|---------------------------------------||
|---------------------------------------||
|--------------------------------------o||
|---------------------------------------||
|
| Q         Q        Q        Q
|---------------------------------------||
|--------------------------------------o||
|--------------------3------------------||
|-5---------1--------3--------3---------||
|-5---------1--------1--------3--------o||
|-3---------------------------1---------||


  \2____________________________________|                      /3__________|
                  |-3-| |-3-| |-3-| |-3-|
  W               E E E E E E E E E E E E         W            H.          Q
|---------------|-------------------------|-----------------|------------------|
|-8-------------|-5-8-5-8-5-8-5-8-5-8-5-8-|-----------------|------------------|
|---------------|-------------------------|-----------------|-<5>---------<5>--|
|---------------|-------------------------|-----------------|------------------|
|---------------|-------------------------|-----------------|------------------|
|---------------|-------------------------|-----------------|------------------|
|
|                                           PM------------|
| Q    Q  Q  Q    Q   Q   Q   Q             E E E E E E E E    Q    Q  Q   Q
|---------------|-------------------------|-----------------|------------------|
|---------------|-------------------------|-----------------|------------------|
|---------------|-------------------------|-----------------|----------3-------|
|-5----4--3--2--|-5---4---3---2-----------|-----------------|--5----1--3---3---|
|-5----4--3--2--|-5---4---3---2-----------|-5-4-3-2-5-4-3-2-|--5----1--1---3---|
|-3----2--1--0--|-3---2---1---0-----------|-3-2-1-0-3-2-1-0-|--3-----------1---|


  E E E  Q.   Q     E  E  E  Q.   Q    E E E  Q.   Q    E E Q  E E Q
|----------------|-------------------|----------------|---------------|
|----------------|-------------------|----------------|-8-8-8---------|
|-7-7-7--5----5--|-10-10-10--7----7--|-7-7-7--5----5--|-5-5-5--5-5-5--|
|-5-5-5--5----5--|--8--8--8--8----8--|-5-5-5--5----5--|--------3-3-3--|
|----------------|-------------------|----------------|---------------|
|----------------|-------------------|----------------|---------------|
|
| Gtr II
| E E H.            E  E  H.           E E H.           E E Q  E E Q
|----------------|-------------------|----------------|---------------|
|----------------|-------------------|----------------|---------------|
|----------------|--3--3-------------|----------------|-5-5-----------|
|-5-5------------|--3--3-------------|-5-5------------|-5-5----3-3----|
|-5-5------------|--1--1-------------|-5-5------------|-3-3----3-3----|
|-3-3------------|-------------------|-3-3------------|--------1-1----|


  E E E  Q.   Q     E  E  E  Q.   Q
|----------------|-------------------|
|----------------|-------------------|
|-7-7-7--5----5--|-10-10-10--7----7--|
|-5-5-5--5----5--|--8--8--8--8----8--|
|----------------|-------------------|
|----------------|-------------------|
|
| E E H.            E  E  H.
|----------------|-------------------|
|----------------|-------------------|
|----------------|-------------------|
|-5-5------------|--8--8-------------|
|-5-5------------|--8--8-------------|
|-3-3------------|--6--6-------------|


   E  E  E  Q.   Q     E  E   E   E  +H
|-------------------|-----------------------|
|-10-10-10--8----8--|-13-13--13--10-(10)----|
|--7--7--7--7----7--|-10-10--10--10-(10)----|
|-------------------|-----------------------|
|-------------------|-----------------------|
|-------------------|-----------------------|
|
|  E  E  H.            E  E  +H.
|-------------------|-----------------------|
|-------------------|-----------------------|
|--7--7-------------|-10-10-(10)------------|
|--7--7-------------|-10-10-(10)------------|
|--5--5-------------|--8--8--(8)------------|
|-------------------|-----------------------|


     E  E  E  E  E  E  E  E    E  E  E  E  E  E  E  E
||--------------------------|-------------------------|
||o-15----------------------|-18----------------------|
||-----12-12-12-12-12-12-12-|----15-15-15-15-15-15-15-|
||--------------------------|-------------------------|
||o-------------------------|-------------------------|
||--------------------------|-------------------------|
|
|    W                         W
||--------------------------|-------------------------|
||o-------------------------|-------------------------|
||--------------------------|--3----------------------|
||---5----------------------|--3----------------------|
||o--5----------------------|--1----------------------|
||---3----------------------|-------------------------|
|
|   Gtr III
|    E  E  E  E  E  E  E  E    E  E  E  E  E  E  E  E
||--------------------------|-------------------------|
||o-------------------------|-------------------------|
||---7--0--3--0--7--0--3--0-|-10--0--7--0-10--0--7--0-|
||--------------------------|-------------------------|
||o-------------------------|-------------------------|
||--------------------------|-------------------------|


   E  E  E  E  E  E  E  E    E  E  E  E  E  E  E  E
|-------------------------|-15-------------15----13-|
|-15----------------------|----13-13-13-15----15----|
|----12-12-12-12-12-12-12-|-------------------------|
|-------------------------|-------------------------|
|-------------------------|-------------------------|
|-------------------------|-------------------------|
|
|  W                         H           H
|-------------------------|-------------------------|
|-------------------------|-------------------------|
|-------------------------|--5----------------------|
|--5----------------------|--5-----------3----------|
|--5----------------------|--3-----------3----------|
|--3----------------------|--------------1----------|
|
|  E  E  E  E  E  E  E  E    E  E  E  E  E  E  E  E
|-------------------------|-------------------------|
|-------------------------|-------------------------|
|--7--0--3--0--7--0--3--0-|--5--0--8--0--5--0--2--0-|
|-------------------------|-------------------------|
|-------------------------|-------------------------|
|-------------------------|-------------------------|


   E  E  E  E  E  E  E  E    E  E  E  E  E  E  E  E
|-------------------------|-------------------------|
|-15----------------------|-18----------------------|
|----12-12-12-12-12-12-12-|----15-15-15-15-15-15-15-|
|-------------------------|-------------------------|
|-------------------------|-------------------------|
|-------------------------|-------------------------|
|
|  W                         W
|-------------------------|-------------------------|
|-------------------------|-------------------------|
|-------------------------|--3----------------------|
|--5----------------------|--3----------------------|
|--5----------------------|--1----------------------|
|--3----------------------|-------------------------|
|
|  E  E  E  E  E  E  E  E    E  E  E  E  E  E  E  E
|-------------------------|-------------------------|
|-------------------------|-------------------------|
|--7--0--3--0--7--0--3--0-|-10--0--7--0-10--0--7--0-|
|-------------------------|-------------------------|
|-------------------------|-------------------------|
|-------------------------|-------------------------|


   E  E  E  E  E  E  E  E    H         H
|-17----------------------|-----------20-----||
|----15-15-15-15-15-15-15-|-18--------------o||
|-------------------------|------------------||
|-------------------------|------------------||
|-------------------------|-----------------o||
|-------------------------|------------------||
|
|  W                         W
|-------------------------|------------------||
|-------------------------|-----------------o||
|--7----------------------|-10---------------||
|--7----------------------|-10---------------||
|--5----------------------|--8--------------o||
|-------------------------|------------------||
|
|  E  E  E  E  E  E  E  E    E E  E E  H
|-------------------------|------------------||
|-------------------------|-----------------o||
|-14--0-10--0-14--0-10--0-|-17-0-14-0-17-----||
|-------------------------|------------------||
|-------------------------|-----------------o||
|-------------------------|------------------||


                              PM------------|
  Q  Q  Q  Q    Q  Q  Q  Q    E E E E E E E E   E q  E q  Q
|-------------|-------------|-----------------|--------------|
|-------------|-------------|-----------------|--------------|
|-------------|-------------|-----------------|--------------|
|-5--4--3--2--|-5--4--3--2--|-----------------|--------------|
|-5--4--3--2--|-5--4--3--2--|-5-4-3-2-5-4-3-2-|-5-5--5-5--6--|
|-3--2--1--0--|-3--2--1--0--|-3-2-1-0-3-2-1-0-|-3-3--3-3--4--|


  q  S S S S S S S S S S S S   q  H.
|----------------------------|----------*|
|----------------------------|----------*|
|----6h7p6h7-----------------|-7--------*|
|-5----------5h6p5h6---------|-5--------*|
|-5------------------4h5p4h5-|-5--------*|
|-3--------------------------|-3--------*|


jebus thats long

-----------------------------------------------------------------------------

kISSING THE SHADOWS

Gtr I (D G C F A D) - 'Untitled'
Gtr II (D G C F A D) - 'Untitled'

    Q=142
   4/4
    Gtr I
         PM----------------|            PM--------|     ~~~
    S  S S S S S S S S S S S  Q    S  S S S S S S S Q   Q
||-------------------------------|--------------------------|
||o------------------------------|--------------------------|
||---------------------------10--|--------------------------|
||--5--7---------------------10--|-5--7-------------7--[7]--|
||o------0-0-0-0-0-0-0-0-0-0--8--|------0-0-0-0-0-0-5-------|
||-------------------------------|--------------------------|
|
|   Gtr II
|        PM----------------|            PM--------|     ~~~
|   S  S S S S S S S S S S S  Q    S  S S S S S S S Q   Q
||-------------------------------|--------------------------|
||o------------------------------|--------------------------|
||-------------------------------|---------------------[5]--|
||--9-10----------------------6--|-9-10-------------7-------|
||o------0-0-0-0-0-0-0-0-0-0-----|------0-0-0-0-0-0-5-------|
||-------------------------------|--------------------------|


                                1.
       PM----------------|           PM--------|
  S  S S S S S S S S S S S Q    S  S S S S S S S  Q   Q
|-----------------------------|-----------------------------||
|-----------------------------|----------------------------o||
|--------------------------7--|-------------------4---5-----||
|-5--7---------------------5--|-5--7--------------2---3-----||
|------0-0-0-0-0-0-0-0-0-0----|------0-0-0-0-0-0-----------o||
|-----------------------------|-----------------------------||
|
|      PM----------------|           PM--------|
| S  S S S S S S S S S S S Q    S  S S S S S S S  Q   Q
|-----------------------------|-----------------------------||
|-----------------------------|----------------------------o||
|-----------------------------|-----------------------------||
|-9-10---------------------9--|-9-10------------------------||
|------0-0-0-0-0-0-0-0-0-0----|------0-0-0-0-0-0-10--12----o||
|-----------------------------|-----------------------------||


  2.
  Q  Q   Q   Q      S S S S S S S S S S S S S S S S
|---------------||----------------------------------|
|---------------||o---------------------------------|
|---------------||--7-7-7-7-7-7-7-7-6-6-6-6-6-6-6-6-|
|-5--7--10--10--||----------------------------------|
|-3--5---8--10--||o---------------------------------|
|---------------||----------------------------------|
|
|                   PM-------------------------------
| Q  Q   Q   Q      S S S S S S S S S S S S S S S S
|---------------||----------------------------------|
|---------------||o---------------------------------|
|---------------||----------------------------------|
|-5--7--10--10--||--4-4-4-4-4-4-4-4-----------------|
|-3--5---8--10--||o-2-2-2-2-2-2-2-2-4-4-4-4-4-4-4-4-|
|---------------||------------------2-2-2-2-2-2-2-2-|


  S S S S S S S S S S S S S S S S
|-----------------------------------|
|-----------------------------------|
|-7-7-7-7-7-7-7-7-6-6-6-6-6-6-6-6---|
|-----------------------------------|
|-----------------------------------|
|-----------------------------------|
|
|-------------------------------|
| S S S S S S S S S S S S S S S S
|-----------------------------------|
|-----------------------------------|
|-----------------------------------|
|-4-4-4-4-4-4-4-4-------------------|
|-2-2-2-2-2-2-2-2-4-4-4-4-4-4-4-4---|
|-----------------2-2-2-2-2-2-2-2---|


  S S S S S S S S S S S S S S S S   S S S S S S S S S S S S S S S S
|---------------------------------|------------------------------------||
|-7-7-7-7-7-7-7-7-5-5-5-5-5-5-5-5-|-----------------------------------o||
|-7-7-7-7-7-7-7-7-6-6-6-6-6-6-6-6-|-7-7-7-7-7-7-7-7-6-6-6-6-6-6-6-6----||
|---------------------------------|------------------------------------||
|---------------------------------|-----------------------------------o||
|---------------------------------|------------------------------------||
|
| PM--------------------------------------------------------------|
| S S S S S S S S S S S S S S S S   S S S S S S S S S S S S S S S S
|---------------------------------|------------------------------------||
|---------------------------------|-----------------------------------o||
|---------------------------------|------------------------------------||
|-7-7-7-7-7-7-7-7-----------------|-4-4-4-4-4-4-4-4--------------------||
|-5-5-5-5-5-5-5-5-7-7-7-7-7-7-7-7-|-2-2-2-2-2-2-2-2-4-4-4-4-4-4-4-4---o||
|-----------------5-5-5-5-5-5-5-5-|-----------------2-2-2-2-2-2-2-2----||


   E  S  S  S  S  q  q  E                           +W
|-------------------------------------------------|--------------------------|
|-------------------------------------------------|--------------------------|
|--4-----------------4----------------------------|--------------------------|
|--4--------------4--4--5-------------------------|-(5)----------------------|
|--2--2--2--2--2--4--2--5-------------------------|-(5)----------------------|
|-----------------2-----3-------------------------|-(3)----------------------|
|
|                                                    \6                 |
|  S  S  S  S  S  S  S  S  S  S  S  S  S  S  S  S    H.                +Q
|-14-12-10----------15-14-12----------------------|--------------------------|
|----------14-12-10----------15-14-12-------------|--------------------------|
|-------------------------------------14-12-------|--------------------------|
|-------------------------------------------16-14-|-12----------------(12)---|
|-------------------------------------------------|--------------------------|
|-------------------------------------------------|--------------------------|


     S  S S S  S  S  S  S  S  S  S  S  S  S S S
||----------------------------------------------|
||o-------8-8-10-10-------13-13-10-10-12-12-8-8-|
||--10-10-----------10-10-----------------------|
||----------------------------------------------|
||o---------------------------------------------|
||----------------------------------------------|
|
|    W
||----------------------------------------------|
||o---------------------------------------------|
||----------------------------------------------|
||---3------------------------------------------|
||o--3------------------------------------------|
||---1------------------------------------------|


  S S S S  S  S S S  S  S  S  S  S  S S S
|------------------------------------------|
|-----8-8-10-10-----13-13-10-10-12-12-8-8--|
|-9-9-----------9-9------------------------|
|------------------------------------------|
|------------------------------------------|
|------------------------------------------|
|
| W
|------------------------------------------|
|------------------------------------------|
|------------------------------------------|
|-5----------------------------------------|
|-5----------------------------------------|
|-3----------------------------------------|


  PM----------------------------------------------|
  S S E E S E S S S S S S S   S S E E S S S E S E E
|---------------------------|------------------------||
|---------------------------|-----------------------o||
|---------------------------|------------------------||
|---------------------------|------------------------||
|-0-0-0-0-0-0-0-0-0-0-0-0-0-|-0-0-0-0-0-0-0-0-0-0-0-o||
|---------------------------|------------------------||


     Q.            S  S  E    S  S  S  S  S  S    Q.            S  S  E    S  S  S  S  S  S
||---------------------------------------------|--------------------------17-15-14----------|
||o---------------14-15-17---15-14-15-14-------|---------------14-15-17------------17-15-14-|
||--16-----------------------------------16-14-|-16-----------------------------------------|
||---------------------------------------------|--------------------------------------------|
||o--------------------------------------------|--------------------------------------------|
||---------------------------------------------|--------------------------------------------|
|
|    S  S S S S S  S  S  S S  S  S  S  S  S  S    S  S S S S S  S  S  S S  S  S  S  S  S  S
||---------------------------------------------|--------------------------------------------|
||o--------------------------------------------|--------------------------------------------|
||---7--7-7-7-7-7--7--7--6-6--6--6--6--6--6--6-|--7--7-7-7-7-7--7--7--6-6--6--6--6--6--6--6-|
||---------------------------------------------|--------------------------------------------|
||o--2--2-2-2-2-2--2--2------------------------|--2--2-2-2-2-2--2--2------------------------|
||-----------------------2-2--2--2--2--2--2--2-|----------------------2-2--2--2--2--2--2--2-|


   S  S  S  S  S  S  S  S  S  S  S  S  S  S  S  S
|-------14----17-15-14----------------15-14-------|
|-15-17----15----------17-14-15-17-14-------17-15-|
|-------------------------------------------------|
|-------------------------------------------------|
|-------------------------------------------------|
|-------------------------------------------------|
|
|  S  S  S  S  S  S  S  S  S  S  S  S  S  S  S  S
|-------------------------------------------------|
|--7--7--7--7--7--7--7--7--5--5--5--5--5--5--5--5-|
|--7--7--7--7--7--7--7--7--6--6--6--6--6--6--6--6-|
|-------------------------------------------------|
|--5--5--5--5--5--5--5--5-------------------------|
|--------------------------5--5--5--5--5--5--5--5-|


   S  S  S  S  S  S  S  S  S  S  S  S  S  S  S  S
|-------------14-15-14----14-----------------------||
|----14-15-17----------17----17-15-14-15-14-------o||
|-16----------------------------------------16-14--||
|--------------------------------------------------||
|-------------------------------------------------o||
|--------------------------------------------------||
|
|  S  S  S  S  S  S  S  S  S  S  S  S  S  S  S  S
|--------------------------------------------------||
|-------------------------------------------------o||
|--7--7--7--7--7--7--7--7--6--6--6--6--6--6--6--6--||
|--------------------------------------------------||
|--2--2--2--2--2--2--2--2-------------------------o||
|--------------------------2--2--2--2--2--2--2--2--||


                                  ~~~
    q               H.            Q
|--19\------------|-------------------|---------------|
|-----------------|-------------------|---------------|
|-----------------|-------------------|---------------|
|-----------------|--------------[7]--|---------------|
|-----------------|-------------------|---------------|
|-----------------|-------------------|---------------|
|
|                         PM|
|   q   Q.   Q.     q   E S S Q   Q     q  Q.   Q.
|-----------------|-------------------|---------------|
|-----------------|-------------------|---------------|
|---4--------2----|-4-----------------|-4-------2-----|
|---4--------2----|-4---------5---7---|-4-------2-----|
|---2--------0----|-2---------5---7---|-2-------0-----|
|-----------------|-------3-3-3---5---|---------------|


                E  S  S  e  S  S  e  S  S  e  S  S
|-------------|---14-12-14-------------------------|
|-------------|------------15-14-15-12-11-12-15-14-|
|-------------|------------------------------------|
|-------------|------------------------------------|
|-------------|------------------------------------|
|-------------|------------------------------------|
|
|                  PM-------------------------------
| q  Q   Q  Q   E  S  S  E  S  S  E  S  S  E  S  S
|-------------|------------------------------------|
|-------------|------------------------------------|
|-4-----------|-4----------------------------------|
|-4------5--7-|-4----------------------------------|
|-2------5--7-|-2--2--2--2--2--2--2--2--2--2--2--2-|
|--------3--5-|------------------------------------|


   e  S  S  e    S  S  S  S  S  S  S  S  S  S
|---------------------12-14-12----------------|
|-15-12-11-12---14-15----------15-14-12-11-14-|
|---------------------------------------------|
|---------------------------------------------|
|---------------------------------------------|
|---------------------------------------------|
|
|------------------|
|  E  S  S  S S  S  S  Q     Q
|---------------------------------------------|
|---------------------------------------------|
|---------------------------------------------|
|----------------------5-----7----------------|
|--2--2--2--2-2--2--2--5-----7----------------|
|----------------------3-----5----------------|


   E  S  S  e  S  S  e  S  S  e  S  S
|----14-12-14-------------------------|
|-12----------15-14-15-12-11-12-15-14-|
|-------------------------------------|
|-------------------------------------|
|-------------------------------------|
|-------------------------------------|
|
|     PM---------|      PM---------|
|  E  S  S  E  S  S  E  S  S  E  S  S
|-------------------------------------|
|-------------------------------------|
|--4-----------------7----------------|
|--4-----------------7----------------|
|--2--2--2--2--2--2--5--5--5--5--5--5-|
|-------------------------------------|


                                             2/4
   e  S  S  e  S  S  S  S  S  S  S  S  S  S    S  S  S  S  S  S  S  S
|-------------------12-14-12----------12-14-|-12----------14-12-------|
|-15-12-11-12-14-15----------15-14-12-------|----15-14-12-------15-14-|
|-------------------------------------------|-------------------------|
|-------------------------------------------|-------------------------|
|-------------------------------------------|-------------------------|
|-------------------------------------------|-------------------------|
|
|     PM------------|      PM------|           PM------|      PM|
|  E  S  S  S  S  S  S  E  S  S  S  S  E       S  S  S  S  E  S  S
|-------------------------------------------|-------------------------|
|-------------------------------------------|-------------------------|
|--9-------------------11-------------11----|-------------11----------|
|--9-------------------11-------------11----|-------------11----------|
|--7--7--7--7--7--7--7--9--9--9--9--9--9----|--9--9--9--9--9--9--9----|
|-------------------------------------------|-------------------------|


 4/4
   E  S  S  e  S  S  e  S  S  e  S  S
|----14-12-14-------------------------|
|-12----------15-14-15-12-11-12-15-14-|
|-------------------------------------|
|-------------------------------------|
|-------------------------------------|
|-------------------------------------|
|
|     PM-------------------------------
|  E  S  S  E  S  S  E  S  S  E  S  S
|-------------------------------------|
|-------------------------------------|
|--4----------------------------------|
|--4----------------------------------|
|--2--2--2--2--2--2--2--2--2--2--2--2-|
|-------------------------------------|


   e  S  S  e    S  S  S  S  S  S  S   S  S  S
|---------------------12-14-12-----------------|
|-15-12-11-12---14-15----------15-14--12-11-14-|
|----------------------------------------------|
|----------------------------------------------|
|----------------------------------------------|
|----------------------------------------------|
|
|------------------|               ~~~
|  E  S  S  S S  S  S  Q           Q
|----------------------------------------------|
|----------------------------------------------|
|----------------------------------------------|
|----------------------5----------[7]----------|
|--2--2--2--2-2--2--2--5-----------7-----------|
|----------------------3-----------5-----------|


   E  S  S  e  S  S  e  S  S  e  S  S
|----14-12-14-------------------------|
|-12----------15-14-15-12-11-12-15-14-|
|-------------------------------------|
|-------------------------------------|
|-------------------------------------|
|-------------------------------------|
|
|     PM---------|      PM---------|
|  E  S  S  E  S  S  E  S  S  E  S  S
|-------------------------------------|
|-------------------------------------|
|--4-----------------7----------------|
|--4-----------------7----------------|
|--2--2--2--2--2--2--5--5--5--5--5--5-|
|-------------------------------------|


   e  S  S  e    S  S  S  S  S  S  S  S  S  S
|---------------------12-14-12----------------|
|-15-12-11-12---14-15----------15-14-12-14-15-|
|---------------------------------------------|
|---------------------------------------------|
|---------------------------------------------|
|---------------------------------------------|
|
|     PM-----------|         PM------|
|  E  S  S  S S  S  S  E     S  S  S  S  E
|---------------------------------------------|
|---------------------------------------------|
|--9------------------11----------------11----|
|--9------------------11----------------11----|
|--7--7--7--7-7--7--7--9-----9--9--9--9--9----|
|---------------------------------------------|


 2/4                       4/4
   S  S  S  S  S  S  S  S    S  S  S  S  S  S  S  S  S  S  S  S  S  S  S  S
|-12-14-12----14-12-------|-15-14----------14-15-18-19-18-15-14-------------|
|----------15-------15-14-|-------17-15-17----------------------17-15-14----|
|-------------------------|----------------------------------------------16-|
|-------------------------|-------------------------------------------------|
|-------------------------|-------------------------------------------------|
|-------------------------|-------------------------------------------------|
|
|  PM------|         PM|           PM------|         PM------|         PM|
|  S  S  S  S  E     S  S    E     S  S  S  S  E     S  S  S  S  E     S  S
|-------------------------|-------------------------------------------------|
|-------------------------|-------------------------------------------------|
|-------------11----------|-12----------------11----------------11----------|
|-------------11----------|-12----------------11----------------11----------|
|--9--9--9--9--9-----9--9-|-10----10-10-10-10--9-----9--9--9--9--9-----9--9-|
|-------------------------|-------------------------------------------------|


  PM----------------------------------------------------------------------|
  S S E E S E S S S S S S S   S S E E S S S E S E E   S S E E S S S E S E E
|---------------------------|-----------------------|-----------------------|
|---------------------------|-----------------------|-----------------------|
|---------------------------|-----------------------|-----------------------|
|---------------------------|-----------------------|-----------------------|
|-2-2-2-2-2-2-2-2-2-2-2-2-2-|-2-2-2-2-2-2-2-2-2-2-2-|-2-2-2-2-2-2-2-2-2-2---|
|---------------------------|-----------------------|---------------------2-|


   ~~~
   Q     H.           S  S S S  S  S  S  S  S  S  S  S  S  S S S
|----------------||----------------------------------------------|
|----------------||o-------8-8-10-10-------13-13-10-10-12-12-8-8-|
|--3-------------||--10-10-----------10-10-----------------------|
|-[4]------------||----------------------------------------------|
|----------------||o---------------------------------------------|
|----------------||----------------------------------------------|
|
|  Q  H.              W
|----------------||----------------------------------------------|
|----------------||o---------------------------------------------|
|----------------||----------------------------------------------|
|--4-------------||---3------------------------------------------|
|--4-------------||o--3------------------------------------------|
|--2-------------||---1------------------------------------------|


  S S S S  S  S S S  S  S  S  S  S  S S S
|-------------------------------------------|
|-----8-8-10-10-----13-13-10-10-12-12-8-8---|
|-9-9-----------9-9-------------------------|
|-------------------------------------------|
|-------------------------------------------|
|-------------------------------------------|
|
| W
|-------------------------------------------|
|-------------------------------------------|
|-------------------------------------------|
|-5-----------------------------------------|
|-5-----------------------------------------|
|-3-----------------------------------------|


                            1.
  PM--------------------------------------------|
  S S E E S E S S S S S E   S S E E S S S E S E E
|-------------------------|---------------------------||
|-------------------------|--------------------------o||
|-------------------------|---------------------------||
|-------------------------|---------------------------||
|-0-0-0-0-0-0-0-0-0-0-0-0-|-0-0-0-0-0-0-0-0-0-0-0----o||
|-------------------------|---------------------------||


  2.
        \5         \1/         \5
   E.  +S    +E    E    +Q    +Q
|--------------------------------------------|
|--------------------------------------------|
|-<5>-(<5>)-(<5>)-<5>--(<5>)-(<5>)-----------|
|--------------------------------------------|
|--------------------------------------------|
|--------------------------------------------|
|
|  PM-----------------------------------------
|  S    S     E    E     S     S   S E S E E
|--------------------------------------------|
|--------------------------------------------|
|--------------------------------------------|
|--------------------------------------------|
|--0----0-----0----0-----0-----0---0-0-0-0-0-|
|--------------------------------------------|


  PM------------------------------------|
  S S E E E E E E E   S S E E E  E  E E E
|-------------------|------------------------|
|-------------------|------------------------|
|-------------------|------------------------|
|-------------------|------------------------|
|-0-0-0-0-0-0-0-0-0-|-0-0-0-0-0--0--0-0-0----|
|-------------------|------------------------|
|
|-|       PM  PM------|       PM ~~~
| E E E Q E E S S     E E E Q E  Q
|-------------------|------------------------|
|-------------------|-------3----------------|
|---9-9-4---4-------|---5-5-4----------------|
|---7-7-5---5-------|---7-7-5---[5]----------|
|-0-------0---0-0---|-0-------0--------------|
|-------------------|------------------------|


  PM----------------------------|
  S S E E E E E E  E       S  S  E     E     E    +H
|-----------------------|------------------------------------------------|
|-----------------------|------------------------------------------------|
|-----------------------|--------------2---------------------------------|
|-----------------------|--------------2-----5----(5)--------------------|
|-0-0-0-0-0-0-0-0--0----|--0--0--0-----0-----5----(5)--------------------|
|-----------------------|--------------------3----(3)--------------------|
|
| PM          PM
| E   E E Q   E E  S  S    S  S  S  S  S  S  S  S  S   S S  S  S S  S  S
|-----------------------|-------------10---------------------------------|
|-----------------10-12-|-13-10-12-13----13-12-10------------------------|
|-----9-9-9-----9-------|-------------------------12--10-9---------------|
|-----7-7-7-----7-------|----------------------------------12-10-9-------|
|-0-----------0---------|------------------------------------------12-10-|
|-----------------------|------------------------------------------------|


    PM|      PM  PM----|   PM   PM  PM
  E S S E Q  E E E     E E E Q  E E E
|--------------------|--------------------|
|--------------------|--------------------|
|-------9-4----4-----|---9---7----7-------|
|-------7-2----2-----|---7---5----5-------|
|---0-0------0---0---|-0---0----0---0-----|
|--------------------|--------------------|
|
| PM         PM  PM----|        PM  PM|
| E E   E Q  E E S S   E E E Q  E E S S
|--------------------|--------------------|
|--------------------|--------------------|
|---9---9-4----4-----|---9-9-4----4-------|
|---7---7-5----5-----|---7-7-5----5-------|
|-0----------0---0-0-|-0--------0---0-0---|
|--------------------|--------------------|


  PM  PM   PM   PM-----|            PM
  E E E Q  E E  E       E     E     E     E    +H
|--------------------|------------------------------------------------|
|--------------------|------------------------------------------------|
|---9---4----4-------|------------------------------------------------|
|---7---2----2-------|--------5-----------5----(5)--------------------|
|-0---0----0----0----|--0-----3-----0-----5----(5)--------------------|
|--------------------|--------------------3----(3)--------------------|
|
| PM       PM
| E E E Q  E E  S  S    S  S  S  S  S  S  S  S  S   S S  S  S S  S  S
|--------------------|-------------10---------------------------------|
|--------------10-12-|-13-10-12-13----13-12-10------------------------|
|---9-9-4----4-------|-------------------------12--10-9---------------|
|---7-7-5----5-------|----------------------------------12-10-9-------|
|-0--------0---------|------------------------------------------12-10-|
|--------------------|------------------------------------------------|


         PM----------------|            PM--------|     ~~~
    S  S S S S S S S S S S S  Q    S  S S S S S S S Q   Q
||-------------------------------|--------------------------|
||o------------------------------|---------------------[6]--|
||---------------------------10--|--------------------------|
||--5--7---------------------10--|-5--7-------------7-------|
||o------0-0-0-0-0-0-0-0-0-0--8--|------0-0-0-0-0-0-5-------|
||-------------------------------|--------------------------|
|
|        PM----------------|            PM--------|     ~~~
|   S  S S S S S S S S S S S  Q    S  S S S S S S S Q   Q
||-------------------------------|--------------------------|
||o------------------------------|--------------------------|
||-------------------------------|---------------------[9]--|
||--9-10----------------------6--|-9-10-------------7-------|
||o------0-0-0-0-0-0-0-0-0-0-----|------0-0-0-0-0-0-5-------|
||-------------------------------|--------------------------|


                                1.
       PM----------------|           PM--------|
  S  S S S S S S S S S S S Q    S  S S S S S S S  Q   Q
|-----------------------------|----------------------------||
|-----------------------------|---------------------------o||
|--------------------------7--|-------------------4---5----||
|-5--7---------------------5--|-5--7--------------2---3----||
|------0-0-0-0-0-0-0-0-0-0----|------0-0-0-0-0-0----------o||
|-----------------------------|----------------------------||
|
|      PM----------------|           PM--------|
| S  S S S S S S S S S S S Q    S  S S S S S S S  Q   Q
|-----------------------------|----------------------------||
|-----------------------------|---------------------------o||
|-----------------------------|----------------------------||
|-9-10---------------------9--|-9-10-----------------------||
|------0-0-0-0-0-0-0-0-0-0----|------0-0-0-0-0-0-10--12---o||
|-----------------------------|----------------------------||


  2.
  Q  Q   Q   Q       Q.            S  S  E    S  S  S  S  S  S
|---------------||---------------------------------------------|
|---------------||o---------------14-15-17---15-14-15-14-------|
|---------------||--16-----------------------------------16-14-|
|-5--7--10--10--||---------------------------------------------|
|-3--5---8--10--||o--------------------------------------------|
|---------------||---------------------------------------------|
|
| Q  Q   Q   Q       S  S S S S S  S  S  S S  S  S  S  S  S  S
|---------------||---------------------------------------------|
|---------------||o--------------------------------------------|
|---------------||---7--7-7-7-7-7--7--7--6-6--6--6--6--6--6--6-|
|-5--7--10--10--||---------------------------------------------|
|-3--5---8--10--||o--2--2-2-2-2-2--2--2------------------------|
|---------------||-----------------------2-2--2--2--2--2--2--2-|


   Q.            S  S  E    S  S  S  S  S  S
|--------------------------17-15-14------------|
|---------------14-15-17------------17-15-14---|
|-16-------------------------------------------|
|----------------------------------------------|
|----------------------------------------------|
|----------------------------------------------|
|
|  S  S S S S S  S  S  S S  S  S  S  S  S  S
|----------------------------------------------|
|----------------------------------------------|
|--7--7-7-7-7-7--7--7--6-6--6--6--6--6--6--6---|
|----------------------------------------------|
|--2--2-2-2-2-2--2--2--------------------------|
|----------------------2-2--2--2--2--2--2--2---|


   S  S  S  S  S  S  S  S  S  S  S  S  S  S  S  S
|-------14----17-15-14----------------15-14-------|
|-15-17----15----------17-14-15-17-14-------17-15-|
|-------------------------------------------------|
|-------------------------------------------------|
|-------------------------------------------------|
|-------------------------------------------------|
|
|  S  S  S  S  S  S  S  S  S  S  S  S  S  S  S  S
|-------------------------------------------------|
|--7--7--7--7--7--7--7--7--5--5--5--5--5--5--5--5-|
|--7--7--7--7--7--7--7--7--6--6--6--6--6--6--6--6-|
|-------------------------------------------------|
|--5--5--5--5--5--5--5--5-------------------------|
|--------------------------5--5--5--5--5--5--5--5-|


   S  S  S  S  S  S  S  S  S  S  S  S  S  S  S  S
|-------------14-15-14----14-------------------------||
|----14-15-17----------17----17-15-14-15-14---------o||
|-16----------------------------------------16-14----||
|----------------------------------------------------||
|---------------------------------------------------o||
|----------------------------------------------------||
|
|  S  S  S  S  S  S  S  S  S  S  S  S  S  S  S  S
|----------------------------------------------------||
|---------------------------------------------------o||
|--7--7--7--7--7--7--7--7--6--6--6--6--6--6--6--6----||
|----------------------------------------------------||
|--2--2--2--2--2--2--2--2---------------------------o||
|--------------------------2--2--2--2--2--2--2--2----||


                                 ~~~
   q   H.          H.            Q     W              W
|-19\------------|-------------------|--------------|--------------|
|----------------|-------------------|--------------|--------------|
|----------------|-------------------|--------------|--------------|
|----------------|--------------[7]--|--------------|--------------|
|----------------|-------------------|--------------|--------------|
|----------------|-------------------|--------------|--------------|
|
|                        PM|
|  q   Q.   Q.     q   E S S Q   Q     q  Q.   Q.     q  Q  Q  Q
|----------------|-------------------|--------------|--------------|
|----------------|-------------------|--------------|--------------|
|--4--------2----|-4-----------------|-4-------2----|-4------------|
|--4--------2----|-4---------5---7---|-4-------2----|-4-----5--7---|
|--2--------0----|-2---------5---7---|-2-------0----|-2-----5--7---|
|----------------|-------3-3-3---5---|--------------|-------3--5---|


  E  S  S  e  S  S  e  S  S  e  S  S
|---14-12-14-------------------------|
|------------15-14-15-12-11-12-15-14-|
|------------------------------------|
|------------------------------------|
|------------------------------------|
|------------------------------------|
|
|    PM-------------------------------
| E  S  S  E  S  S  E  S  S  E  S  S
|------------------------------------|
|------------------------------------|
|-4----------------------------------|
|-4----------------------------------|
|-2--2--2--2--2--2--2--2--2--2--2--2-|
|------------------------------------|


   e  S  S  e    S  S  S  S  S  S  S  S  S  S
|---------------------12-14-12----------------|
|-15-12-11-12---14-15----------15-14-12-11-14-|
|---------------------------------------------|
|---------------------------------------------|
|---------------------------------------------|
|---------------------------------------------|
|
|------------------|
|  E  S  S  S S  S  S  Q           Q
|---------------------------------------------|
|---------------------------------------------|
|---------------------------------------------|
|----------------------5-----------7----------|
|--2--2--2--2-2--2--2--5-----------7----------|
|----------------------3-----------5----------|


   E  S  S  e  S  S  e  S  S  e  S  S
|----14-12-14-------------------------|
|-12----------15-14-15-12-11-12-15-14-|
|-------------------------------------|
|-------------------------------------|
|-------------------------------------|
|-------------------------------------|
|
|     PM---------|      PM---------|
|  E  S  S  E  S  S  E  S  S  E  S  S
|-------------------------------------|
|-------------------------------------|
|--4-----------------7----------------|
|--4-----------------7----------------|
|--2--2--2--2--2--2--5--5--5--5--5--5-|
|-------------------------------------|


                                               2/4
   e  S  S  e    S  S  S  S  S  S  S  S  S  S    S  S  S  S  S  S  S  S
|---------------------12-14-12----------12-14-|-12----------14-12--------|
|-15-12-11-12---14-15----------15-14-12-------|----15-14-12-------15-14--|
|---------------------------------------------|--------------------------|
|---------------------------------------------|--------------------------|
|---------------------------------------------|--------------------------|
|---------------------------------------------|--------------------------|
|
|     PM-----------|         PM------|           PM------|         PM|
|  E  S  S  S S  S  S  E     S  S  S  S  E       S  S  S  S  E     S  S
|---------------------------------------------|--------------------------|
|---------------------------------------------|--------------------------|
|--9------------------11----------------11----|-------------11-----------|
|--9------------------11----------------11----|-------------11-----------|
|--7--7--7--7-7--7--7--9-----9--9--9--9--9----|--9--9--9--9--9-----9--9--|
|---------------------------------------------|--------------------------|


 4/4
   E  S  S  e  S  S  e  S  S  e  S  S
|----14-12-14-------------------------|
|-12----------15-14-15-12-11-12-15-14-|
|-------------------------------------|
|-------------------------------------|
|-------------------------------------|
|-------------------------------------|
|
|     PM-------------------------------
|  E  S  S  E  S  S  E  S  S  E  S  S
|-------------------------------------|
|-------------------------------------|
|--4----------------------------------|
|--4----------------------------------|
|--2--2--2--2--2--2--2--2--2--2--2--2-|
|-------------------------------------|


   e  S  S  e    S  S  S  S  S  S  S   S  S  S
|---------------------12-14-12-----------------|
|-15-12-11-12---14-15----------15-14--12-11-14-|
|----------------------------------------------|
|----------------------------------------------|
|----------------------------------------------|
|----------------------------------------------|
|
|------------------|               ~~~
|  E  S  S  S S  S  S  Q           Q
|----------------------------------------------|
|----------------------------------------------|
|----------------------------------------------|
|----------------------5----------[7]----------|
|--2--2--2--2-2--2--2--5-----------7-----------|
|----------------------3-----------5-----------|


   E  S  S  e  S  S  e  S  S  e  S  S
|----14-12-14-------------------------|
|-12----------15-14-15-12-11-12-15-14-|
|-------------------------------------|
|-------------------------------------|
|-------------------------------------|
|-------------------------------------|
|
|     PM---------|      PM---------|
|  E  S  S  E  S  S  E  S  S  E  S  S
|-------------------------------------|
|-------------------------------------|
|--4-----------------7----------------|
|--4-----------------7----------------|
|--2--2--2--2--2--2--5--5--5--5--5--5-|
|-------------------------------------|


                                               2/4
   e  S  S  e    S  S  S  S  S  S  S  S  S  S    S  S  S  S  S  S  S  S
|---------------------12-14-12----------------|-12-14-12----14-12--------|
|-15-12-11-12---14-15----------15-14-12-14-15-|----------15-------15-14--|
|---------------------------------------------|--------------------------|
|---------------------------------------------|--------------------------|
|---------------------------------------------|--------------------------|
|---------------------------------------------|--------------------------|
|
|     PM-----------|         PM------|           PM------|         PM|
|  E  S  S  S S  S  S  E     S  S  S  S  E       S  S  S  S  E     S  S
|---------------------------------------------|--------------------------|
|---------------------------------------------|--------------------------|
|--9------------------11----------------11----|-------------11-----------|
|--9------------------11----------------11----|-------------11-----------|
|--7--7--7--7-7--7--7--9-----9--9--9--9--9----|--9--9--9--9--9-----9--9--|
|---------------------------------------------|--------------------------|


 4/4
   S  S  S  S  S  S  S  S  S  S  S  S  S  S  S  S
|-15-14----------14-15-18-19-18-15-14-------------|
|-------17-15-17----------------------17-15-14----|
|----------------------------------------------16-|
|-------------------------------------------------|
|-------------------------------------------------|
|-------------------------------------------------|
|
|        PM------|         PM------|         PM|
|  E     S  S  S  S  E     S  S  S  S  E     S  S
|-------------------------------------------------|
|-------------------------------------------------|
|-12----------------11----------------11----------|
|-12----------------11----------------11----------|
|-10----10-10-10-10--9-----9--9--9--9--9-----9--9-|
|-------------------------------------------------|


   S  S    S  S  S  S  S  S  S  S  S  S  S  S  S  S
|-12-14---12----------------12-14-12----14-12--------|
|------------15-14-12-14-15----------15-------15-14--|
|----------------------------------------------------|
|----------------------------------------------------|
|----------------------------------------------------|
|----------------------------------------------------|
|
|  E  H..
|----------------------------------------------------|
|----------------------------------------------------|
|-11-------------------------------------------------|
|-11-------------------------------------------------|
|--9-------------------------------------------------|
|----------------------------------------------------|


   S  S  S  S  S  S  S  S  S  S  S  S  S  S  S  S
|-15-14----------14-15-18-19-18-15-14-------------|
|-------17-15-17----------------------17-15-14----|
|----------------------------------------------16-|
|-------------------------------------------------|
|-------------------------------------------------|
|-------------------------------------------------|
|
|  W
|-------------------------------------------------|
|-------------------------------------------------|
|-------------------------------------------------|
|-------------------------------------------------|
|-------------------------------------------------|
|-------------------------------------------------|


                         H.=H
                 PM----|
  Q  Q   Q  Q    e e e e H
|--------------|--------------|
|--------------|--------------|
|--------------|-7-5-4-2------|
|-8--9------8--|-7-5-4-2-5----|
|-------10-----|-5-3-2-0-5----|
|--------------|---------3----|
|
|                PM----|
| Q  Q   Q  Q    e e e e H
|--------------|--------------|
|--------------|--------------|
|-6--7---4--6--|-7-5-4-2------|
|-4--5---2--4--|-7-5-4-2-5----|
|--------------|-5-3-2-0-5----|
|--------------|---------3----|


               Q=126
 4/4          2/4        4/4
                                \1_________|    \1/   \1/   \1/
                                                |-----3-----|
  +W                H       S  +S    +S   +S   +E    +E    +E    H
|------------|----------|-/17-(17)--(17)-(17)-(17)--(17)--(17)--17------------|
|------------|----------|-----------------------------------------------------|
|------------|----------|-----------------------------------------------------|
|-(5)--------|----------|-----------------------------------------------------|
|-(5)--------|----------|-----------------------------------------------------|
|-(3)--------|----------|-----------------------------------------------------|
|
|                               PM------------------------|
| +W             H          E   S     S    S    S     S     S    E  E  E E
|------------|----------|-----------------------------------------------------|
|------------|----------|-----------------------------------------------------|
|------------|----------|-----------------------------------------------------|
|-(5)--------|----------|-----------------------------------------------------|
|-(5)--------|----------|---7------------------------------------8-12-10-8----|
|-(3)--------|--/x\-----|---5---5-----5----5----5-----5-----5----6-10--8-6----|


                                                |---3---|
   S  T  T  S  S  S  S  S  S  S  S  S  S  S  S  S  S    S
|-17-18-17----17-18-22-17-18-21-17-18-17------------------|
|----------20----------------------------20-20-17-18---17-|
|---------------------------------------------------------|
|---------------------------------------------------------|
|---------------------------------------------------------|
|---------------------------------------------------------|
|
|           PM---------------------------------------|
|  E        S  S  S  S  S  S  S  S  S  S  S  S  S    S
|---------------------------------------------------------|
|---------------------------------------------------------|
|---------------------------------------------------------|
|---------------------------------------------------------|
|--7--------------------------------------5--5--8----8----|
|--5--------5--5--5--5--5--5--6--6--6--6------------------|


   S  S  S  S  S  S  S  S  S  S  S  S  S  S  S  S
|--------------------------------------------------|
|--------------------------------------------------|
|-19-18-------18-------18-------18-------18--------|
|-------20-19-------------20-19-------------20-19--|
|----------------20-19-------------20-19-----------|
|--------------------------------------------------|
|
|        PM------------|
|  E     S  S  S  S  S  S  E     E     E     E
|--------------------------------------------------|
|--------------------------------------------------|
|--------------------------------------------------|
|--------------------------------------------------|
|--7-----------------------8----12----10-----8-----|
|--5-----5--5--5--5--5--5--6----10-----8-----6-----|


                                       |------3------|
   S  S  S  S  S  S  S  S  S  S  S  S  S     +S     +S      +E
|-------------------18-17-15-17-18-22-21b22r(21)---(21)b22-(21)---|
|-----------------------------------------------------------------|
|----------21-19-18-----------------------------------------------|
|-20-19-17--------------------------------------------------------|
|-----------------------------------------------------------------|
|-----------------------------------------------------------------|
|
|        PM-----------------------------------------------------|
|  E     S  S  S  S  S  S  S  S  S  S  S         S           S  S
|-----------------------------------------------------------------|
|-----------------------------------------------------------------|
|-----------------------------------------------------------------|
|-----------------------------------------------------------------|
|--7-----------------------------------5---------5-----------8--8-|
|--5-----5--5--5--5--5--5--6--6--6--6-----------------------------|


   |--3--|  |--3--|  |--3--|  |--3--|  |--3--|  |-3--|  |-3--|  |-3--|
   S  S  S  S  S  S  S  S  S  S  S  S  S  S  S  S S  S  S S  S  S S  S
|----------10-12-13-12-10-----------------------------------------------|
|-10-12-13----------------13-12-10-13-12-10-----------------------------|
|-------------------------------------------12-10-9-12-10-9-------------|
|-----------------------------------------------------------12-10-9-12--|
|-----------------------------------------------------------------------|
|-----------------------------------------------------------------------|
|
|  H                                   H
|-----------------------------------------------------------------------|
|-----------------------------------------------------------------------|
|-----------------------------------------------------------------------|
|-----------------------------------------------------------------------|
|--3-----------------------------------5--------------------------------|
|--1-----------------------------------3--------------------------------|


                                                   \1/    \1/    \1/
   |-3--|  |--3---|  |--3---|  |--3---|            |------3------|
   S S  S  S S    S  S S    S  S S    S  Q        +E     +E     +E
|----------------------------------------------------------------------|
|----------------------------------------------------------------------|
|---------------------------------------[9]-------(9)----(9)----(9)----|
|-10-9-----------------------------------------------------------------|
|------12-10-8---12-10-8-----------------------------------------------|
|--------------------------12-10-8---10--------------------------------|
|
|          PM--------------------------------------------------------|
|  E       S   S     S   S     S   S     S  S S S  S   S      S      S
|----------------------------------------------------------------------|
|----------------------------------------------------------------------|
|----------------------------------------------------------------------|
|----------------------------------------------------------------------|
|--7-------------------------------------------------------------------|
|--5-------5---5-----5---5-----5---5-----5--5-5-5--5---5------5------5-|


  |--3--|  |-3--|  |-3--|  |--3--|  |--3--|  |--3--|  |--3--|  |--3--|
  S  S  S  S  S S  S S  S  S  S  S  S  S  S  S  S  S  S  S  S  S  S  S
|---------------8-10-8----------------------------10-12-10-------------|
|------------10--------10----------------------12----------12----------|
|---------10--------------10----------------12----------------12-------|
|------10--------------------10----------12----------------------12----|
|-8-12--------------------------12-10-14----------------------------14-|
|----------------------------------------------------------------------|
|
| H                                 H
|----------------------------------------------------------------------|
|----------------------------------------------------------------------|
|----------------------------------------------------------------------|
|----------------------------------------------------------------------|
|-3---------------------------------5----------------------------------|
|-1---------------------------------3----------------------------------|


  |--3--| |---3---|  |---3---|  |---3---|  |--3--|               |--3--|  |--3--|
  S  S  S S  S    S  S  S    S  S  S    S  S  S  S  T   T  T  T  S  S  S  S  S  S
|------------------------------------------------------------20S24-20-------------|
|---------------------------------------------------------------------20----------|
|-----------------------------------------17-19-21-16--17-19-------------21-17----|
|------------------------------14-15---17--------------------------------------17-|
|---------8-10---12-14-15---17----------------------------------------------------|
|-8-10-12-------------------------------------------------------------------------|
|
|         PM-------------------------|
| E       S    S     S    S     S    S     e        Q.
|---------------------------------------------------------------------------------|
|---------------------------------------------------------------------------------|
|---------------------------------------------------------------------------------|
|---------------------------------------------------------------------------------|
|-7----------------------------------------7--------------------------------------|
|-5-------5----5-----5----5-----5----5-----5--------------------------------------|


    PM--------|                 PM-------------------------|
  E S S S S S S  E  E  E  E   E S S S S S S S S S S S S  S  S
|---------------------------|----------------------------------|
|---------------------------|----------------------------------|
|---------------------------|----------------------------------|
|---------------------------|----------------------------------|
|-9-------------10-14-12-10-|-9---------------------7-7-10-10--|
|-7-7-7-7-7-7-7--8-12-10--8-|-7-7-7-7-7-7-7-8-8-8-8------------|


    PM--------|                 PM-------------------------|
  E S S S S S S  E  E  E  E   E S S S S S S S S S S S S  S  S
|---------------------------|----------------------------------|
|---------------------------|----------------------------------|
|---------------------------|----------------------------------|
|---------------------------|----------------------------------|
|-9-------------10-14-12-10-|-9---------------------7-7-10-10--|
|-7-7-7-7-7-7-7--8-12-10--8-|-7-7-7-7-7-7-7-8-8-8-8------------|


                PM------------------------|
  H    H      E S S S S S S S S S S S S S S
|-----------|-------------------------------|
|-----------|-------------------------------|
|-----------|-------------------------------|
|-----------|-------------------------------|
|-5----7----|-9-----------------------------|
|-3----5----|-7-7-7-7-7-7-7-7-7-7-7-7-7-7-7-|


                PM------------|
                    |-3-| |-3-|
  H    H      E S S S S S S S S E +E     Q
|-----------|--------------------------------|
|-----------|--------------------------------|
|-----------|--------------------------------|
|-----------|--------------------------------|
|-5----7----|-9-----------------9-(9)\-/17\--|
|-3----5----|-7-7-7-7-7-7-7-7-7-7-(7)\-------|


   |--3---|  |--3--|  |--3--|  |--3--|  |--3--|  |--3--|  |--3--|  |--3--|
   S   S  S  S  S  S  S  S  S  S  S  S  S  S  S  S  S  S  S  S  S  S  S  S
|-18--17-15----------------------------------------------------------------|
|-----------18-17-15-18-17-15----------------------------------------------|
|-----------------------------17-15-14-17-15-14----------------------------|
|-----------------------------------------------17-15-14-17-15-14----------|
|-----------------------------------------------------------------17-15-13-|
|--------------------------------------------------------------------------|
|
|  Q.        E  H
|--------------------------------------------------------------------------|
|--------------------------------------------------------------------------|
|--------------------------------------------------------------------------|
|--7---------5--3----------------------------------------------------------|
|--5---------3--1----------------------------------------------------------|
|--------------------------------------------------------------------------|


   S   S  S  S   S  S  S  S  H
|-------------------------------|
|-------------------------------|
|-------------------------------|
|--------12-14--15-14-12----12--|
|-12--15-----------------15-----|
|-------------------------------|
|
|  E.        E.        E  H
|-------------------------------|
|-------------------------------|
|-------------------------------|
|--3---------5---------7--7-----|
|--1---------3---------5--5-----|
|-------------------------------|


                                        \1/           \1/
   E     S      E     S      E     +E   S    S  S. a  S.   S
|-15b17-15pb17-15b17-15pb17-15b18-(15)-15p==13h15p13S15p==13-|
|-16b18-16pb18-16b18-16pb18-16b19-(16)-----------------------|
|------------------------------------------------------------|
|------------------------------------------------------------|
|------------------------------------------------------------|
|------------------------------------------------------------|
|
|  Q.                        E      H
|------------------------------------------------------------|
|------------------------------------------------------------|
|------------------------------------------------------------|
|--7-------------------------5------3------------------------|
|--5-------------------------3------1------------------------|
|------------------------------------------------------------|


      \1/           \1/
                                     ~~~~~~~~~~~
                                     |--3--|
   S  a    S  S  S  a    S  S  S  S  E  E  E  Q
|-15p13S==15p13-15p13S==15p13-15p13-17-15-13-----|
|--------------------------------------------15--|
|------------------------------------------------|
|------------------------------------------------|
|------------------------------------------------|
|------------------------------------------------|
|
|  E.            E.            E     H
|------------------------------------------------|
|------------------------------------------------|
|------------------------------------------------|
|--3-------------5-------------7-----7-----------|
|--1-------------3-------------5-----5-----------|
|------------------------------------------------|


   |--3---|  |--3--|   |--3--|  |--3--|  |--3--|  |--3--|  |--3--|  |--3--|
   S   S  S  S  S  S   S  S  S  S  S  S  S  S  S  S  S  S  S  S  S  S  S  S
|--------------13-17-/22-17----------------------------13-15-13-------------|
|-----------15--------------18----------------------15----------15----------|
|--------14--------------------19-14-------------15----------------15-------|
|-----15-----------------------------15-------15----------------------15----|
|-17------------------------------------13-17----------------------------17-|
|---------------------------------------------------------------------------|
|
|  Q.                           E        H
|---------------------------------------------------------------------------|
|---------------------------------------------------------------------------|
|---------------------------------------------------------------------------|
|--7----------------------------5--------3----------------------------------|
|--5----------------------------3--------1----------------------------------|
|---------------------------------------------------------------------------|


   |--3---|  |---3----|  |--3--|  |--3--|  |-----5-----|  |--3--|  |--3--|
   S   S  S  S  S     S  S  S  S  S  S  S  S  S  S  S  S  S  S  S  S  S  S
|--------------------15-17-15----------------------------------------18-20-|
|--------------17-------------17-------------------------17-18-20h22-------|
|-----------17-------------------17-------------15-17-19-------------------|
|--------17-------------------------17----17-19----------------------------|
|-15--19-------------------------------19----------------------------------|
|--------------------------------------------------------------------------|
|
|  E.             E.              E        H
|--------------------------------------------------------------------------|
|--------------------------------------------------------------------------|
|--------------------------------------------------------------------------|
|--3--------------5---------------7--------7-------------------------------|
|--1--------------3---------------5--------5-------------------------------|
|--------------------------------------------------------------------------|


           |3-|
   E    E  S  E  S  E  S  S  E  S  S  S
|-22--/22-------------------------------|
|---------18-22----18----------------18-|
|---------------17----17----17----17----|
|------------------------19----19-------|
|---------------------------------------|
|---------------------------------------|
|
|  Q.         E  H
|---------------------------------------|
|---------------------------------------|
|---------------------------------------|
|--7----------9-10----------------------|
|--5----------7--8----------------------|
|---------------------------------------|


   |--3--|  |--3--|   |--3--|  |--3--|  |--3--|  |--3--|  |--3--|  |--3--|
   S  S  S  S  S  S   S  S  S  S  S  S  S  S  S  S  S  S  S  S  S  S  S  S
|----------15-----------------15-17-18-20-18-17----------------------------|
|-15-17-18----18-17--15-17-18-------------------20-18-17-15-18-17-15-------|
|--------------------------------------------------------------------18-17-|
|--------------------------------------------------------------------------|
|--------------------------------------------------------------------------|
|--------------------------------------------------------------------------|
|
|  H           E  Q.
|--------------------------------------------------------------------------|
|--------------------------------------------------------------------------|
|--------------------------------------------------------------------------|
|-12----------14-----------------------------------------------------------|
|-10----------12-----------------------------------------------------------|
|--------------------------------------------------------------------------|


          \1/   \1/   \4
   Q.    +E    +E    +E   +Q                    W             W
|------------------------------|--------------|-------------|--------------|
|------------------------------|--------------|-------------|--------------|
|-16----(16)--(16)--(16)-(16)--|--------------|-------------|--------------|
|------------------------------|--------------|-------------|--------------|
|------------------------------|--------------|-------------|--------------|
|------------------------------|--------------|-------------|--------------|
|
|  Q.     E     H                E. E. E H      Q.   E H      E. E. E H
|------------------------------|--------------|-------------|--------------|
|------------------------------|--------------|-------------|--------------|
|------------------------------|--------------|-------------|--------------|
|--9------7-----5--------------|-5--7--7-9----|-9----7-5----|-5--7--7-9----|
|--7------5-----3--------------|-3--5--5-7----|-7----5-3----|-3--5--5-7----|
|------------------------------|--------------|-------------|--------------|


  Q.   E H      E. E. E H   Q.   E H      H    E +Q.
|-------------|-----------|-------------|----------------|
|-------------|-----------|-------------|----------------|
|-------------|-----------|-------------|----------------|
|-9----7-5----|-5--7--7-9-|-9----4-5----|-7----9-(9)\----|
|-7----5-3----|-3--5--5-7-|-7----4-5----|-7----9-(9)\----|
|-------------|-----------|-7----2-3----|-5----7-(7)\----|


   |---3---|  |--3--|  |--3--|  |--3--|  |--3--|  |--3--|  |--3--|  |--3--|
   S  S    S  S  S  S  S  S  S  S  S  S  S  S  S  S  S  S  S  S  S  S  S  S
|-24-19------------19-20-17----------17-19-15----------15-17-14----------14-|
|---------20----20----------19----19----------17----17----------16----16----|
|------------21----------------20----------------16----------------17-------|
|---------------------------------------------------------------------------|
|---------------------------------------------------------------------------|
|---------------------------------------------------------------------------|
|
|  E  H..
|---------------------------------------------------------------------------|
|---------------------------------------------------------------------------|
|--9------------------------------------------------------------------------|
|--9------------------------------------------------------------------------|
|--7------------------------------------------------------------------------|
|---------------------------------------------------------------------------|


                                                           ~~
   |--3--|  |---3---|  |--3--|  |--3--|  |--3--|  |--3--|
   S  S  S  S    S  S  S  S  S  S  S  S  S  S  S  S  S  S  Q
|-15-12------------------------------12-15----------------19--|
|-------12------------------------12-------17----------17-----|
|----------12------------------12-------------16----16--------|
|---------------14----------14-------------------17-----------|
|------------------14----14-----------------------------------|
|---------------------12--------------------------------------|
|
|  E        H..
|-------------------------------------------------------------|
|-------------------------------------------------------------|
|--9----------------------------------------------------------|
|--9----------------------------------------------------------|
|--7----------------------------------------------------------|
|-------------------------------------------------------------|


   |--3--|  |--3---|  |--3--|  |--3--|  |--3--|  |--3--|  |--3--|  |--3--|
   S  S  S  S   S  S  S  S  S  S  S  S  S  S  S  S  S  S  S  S  S  S  S  S
|-24-19-----------19-20-17----------17-19-15----------15-17-14----------14-|
|-------20-----20----------19----19----------17----17----------16----16----|
|----------21-----------------20----------------16----------------17-------|
|--------------------------------------------------------------------------|
|--------------------------------------------------------------------------|
|--------------------------------------------------------------------------|
|
|  E        H.                                                        S  S
|--------------------------------------------------------------------------|
|--------------------------------------------------------------------------|
|--9-----------------------------------------------------------------------|
|--9------------------------------------------------------------------x--x-|
|--7------------------------------------------------------------------x--x-|
|--------------------------------------------------------------------------|


                                                           ~~
   |--3--|  |---3---|  |--3--|  |--3--|  |--3--|  |--3--|
   S  S  S  S    S  S  S  S  S  S  S  S  S  S  S  S  S  S  Q
|-15-12------------------------------12-15----------------19--|
|-------12------------------------12-------17----------17-----|
|----------12------------------12-------------16----16--------|
|---------------14----------14-------------------17-----------|
|------------------14----14-----------------------------------|
|---------------------12--------------------------------------|
|
|  E        H..
|-------------------------------------------------------------|
|-------------------------------------------------------------|
|-------------------------------------------------------------|
|--2----------------------------------------------------------|
|--2----------------------------------------------------------|
|--0----------------------------------------------------------|


     |---3---|  |---3---|  |---3---|  |---3---|  |---3---|  |---3---|  |---3---|  |---3---|
     S  S    S  S  S    S  S  S    S  S  S    S  S  S    S  S  S    S  S  S    S  S  S    S
||--24-19--------------19-20-17--------------17-19-15--------------15-17-14--------------14-|
||o---------20----20--------------19----19--------------17----17--------------16----16------|
||-------------21--------------------20--------------------16--------------------17---------|
||------------------------------------------------------------------------------------------|
||o-----------------------------------------------------------------------------------------|
||------------------------------------------------------------------------------------------|
|
|    S    S     S    S     S    S     S    S     S    S     S    S     S    S     S    S
||------------------------------------------------------------------------------------------|
||o-----------------------------------------------------------------------------------------|
||------------------------------------------------------------------------------------------|
||------------------------------------------------------------------------------------------|
||o--7----7-----7----7-----6----6-----6----6-----7----7-----7----7--------------------------|
||---------------------------------------------------------------------7----7-----7----7----|


                                                                      ~~~
   |---3---|  |---3---|  |---3---|  |---3---|  |---3---|  |---3---|
   S  S    S  S  S    S  S  S    S  S  S    S  S  S    S  S  S    S   Q
|-15-12--------------12-15-12--------------12-14-11--------------11-/23--------||
|---------13----13--------------12----12--------------12----12----------------o||
|------------12--------------------12--------------------11--------------------||
|------------------------------------------------------------------------------||
|-----------------------------------------------------------------------------o||
|------------------------------------------------------------------------------||
|
|  S    S     S    S     S    S     S    S     S    S     S    S      S S S S
|------------------------------------------------------------------------------||
|-----------------------------------------------------------------------------o||
|------------------------------------------------------------------------------||
|------------------------------------------------------------------------------||
|------------------------7----7-----7----7-----9----9-----9----9--------------o||
|--8----8-----8----8--------------------------------------------------7-7-7-7--||


                                                                     ~~~~~~~
   E  S  S  S  S  S  E     S  S  E  S  E   E   E.    +E.            +H
|----------15-------19----17-15-22-19----|----24b27r(24)b27r=======(24)b27----|
|----17-19----19-17-------------------20-|------------------------------------|
|-16-------------------------------------|------------------------------------|
|----------------------------------------|------------------------------------|
|----------------------------------------|------------------------------------|
|----------------------------------------|------------------------------------|
|
|                                                            \0.5/   \0.5/
|  E  S  E     S  E     E     S  E  S  E   Q.               +E      +H
|----------------------------------------|------------------------------------|
|----------------------------------------|------------------------------------|
|----------------------------------------|------------------------------------|
|--------------------------------7--7--7-|-9----------------(9)-----(9)-------|
|--7--x--9-----9--9----10-----x--5--5--5-|-7----------------(7)-----(7)-------|
|--5--x--7-----7--7-----8-----x----------|------------------------------------|


                                                         \1/   \1/
   S  S  S  S  S  S  S  S  S  S  S  e     S  E    Q.    +E    +H
|-24-19-------22-19-------------19-21b22-19----|----------------------|
|-------22-20-------20-19-20-22-------------22-|-20----(20)--(20)-----|
|----------------------------------------------|----------------------|
|----------------------------------------------|----------------------|
|----------------------------------------------|----------------------|
|----------------------------------------------|----------------------|
|
|  E     S  E     S  E     E     S  E     S  E    W
|----------------------------------------------|----------------------|
|----------------------------------------------|----------------------|
|----------------------------------------------|----------------------|
|--9-----x--5-----5--5--------------7-----7--7-|--5-------------------|
|--7-----x--3-----3--3-----5-----x--5-----5--5-|--3-------------------|
|--------------------------3-----x-------------|----------------------|


   |--3--|  |---3---|  |---3---|  |--3--|  |--3--|  |---3---|  |---3---|  |--3--|
   S  S  S  S  S    S  S  S    S  S  S  S  S  S  S  S  S    S  S  S    S  S  S  S
|------------------------------------------------------------------------17-19-20-|
|-------------------------------------------------------------17-19---20----------|
|--------------------------------16-17-19----------16-17---19---------------------|
|---------------------16-17---19----------16-17-19--------------------------------|
|----------15-17---19-------------------------------------------------------------|
|-15-17-19------------------------------------------------------------------------|
|
|  E        S    E          S     E        E        S    E          S     E
|---------------------------------------------------------------------------------|
|---------------------------------------------------------------------------------|
|---------------------------------------------------------------------------------|
|----------------5----------5-----5--------7--------x----5----------5-----5-------|
|--5--------x----3----------3-----3--------5--------x----3----------3-----3-------|
|--3--------x---------------------------------------------------------------------|


   |--3--|  |--3--|  |--3--|  |--3--|  |--3--|  |--3--|  |--3--|  |--3--|
   S  S  S  S  S  S  S  S  S  S  S  S  S  S  S  S  S  S  S  S  S  S  S  S
|-22-20-19----------------------------------------------------------------|
|----------22-20-19-17-20-19-17-------------------------------------------|
|-------------------------------19-17-16-19-17-16-------------------------|
|-------------------------------------------------19-17-16-19-17-16-------|
|-------------------------------------------------------------------19-17-|
|-------------------------------------------------------------------------|
|
|  W
|-------------------------------------------------------------------------|
|-------------------------------------------------------------------------|
|-------------------------------------------------------------------------|
|-------------------------------------------------------------------------|
|--5----------------------------------------------------------------------|
|--3----------------------------------------------------------------------|


   S  S S  S  S  S  S  S  S  S  S  S  S  S  S  S
|---------------------------------------17-22----|
|---------------------------17-20-17-19-------19-|
|------------------16-19-17----------------------|
|---------16-19-17-------------------------------|
|-15-19------------------------------------------|
|------------------------------------------------|
|
|  E  S E  S  E  E  S  E  S  E
|------------------------------------------------|
|------------------------------------------------|
|----------------7--x----------------------------|
|--5--x-7--7--7--5--x--7--7--7-------------------|
|--3--x-5--5--5--------5--5--5-------------------|
|------------------------------------------------|


   S  S  S  S  e  S  S  S  S  E   Q
|--------------------------------------|
|-20-20-20-20-20-20-20-20-20-20\-------|
|--------------------------------------|
|--------------------------------------|
|--------------------------------------|
|--------------------------------------|
|
|  S  S  S  S  e  S  S  S  S  E   Q
|--------------------------------------|
|--------------------------------------|
|--9--9--9--9--9--9--9--9--9--9\-------|
|--9--9--9--9--9--9--9--9--9--9\-------|
|--7--7--7--7--7--7--7--7--7--7\-------|
|--------------------------------------|

-----------------------------------------------------------------------------

Hellion

tune down half step

intro
e|-----------------------------------------------------------------------|
B|-----------------------------------------------------------------------|
G|--9------7------5------2------9------7------5------2----7--------------|
D|--7------5------3------2------7------5------3------2----5--------------|
A|-----------------------0---------------------------0-------------------|
E|-----------------------------------------------------------------------|

e|-----------------------------------------------------------------------|
B|-----------------------------------------------------------------------|
G|--9----9-7----7-5----5-2----7-9----9-7----7-5----5-2------2------------|
D|--7----7-5----5-3----3-2----5-7----7-5----5-3----3-2------2------------|
A|-----------------------0---------------------------0------0------5-----|
E|-----------------------------------------------------------------3-----|

verse
e|-----------------------------------------------------------------------|
B|-----------------------------------------------------------------------|
G|-----------------------------------------------------------------------|
D|--2-------------------------------2------------------------------------|
A|--0---0-0-0-0-0-0-0-0-0-0-0-0-5---0---0-0-0-0-0-0-0-0-0-0-0-0-5--------|
E|------------------------------3-------------------------------3--------|
        * * * * * * * * * * * *         * * * * * * * * * * * *
e|-----------------------------------------------------------------------|
B|-----------------------------------------------------------------------|
G|-----------------------------------------------------------------------|
D|--2-------------------------------7---5---7-------2--------------------|
A|--0---0-0-0-0-0-0-0-0-0-0-0-0-0-0-5---3---5---5---0--------------------|
E|----------------------------------------------3------------------------|
        * * * * * * * * * * * * * *
e|-----------------------------------------------------------------------|
B|-----------------------------------------------------------------------|
G|-----------------------------------------------------------------------|
D|--2-------------------------------2------------------------------------|
A|--0---0-0-0-0-0-0-0-0-0-0-0-0-5---0---0-0-0-0-0-0-0-0-0-0-0-0-5--------|
E|------------------------------3-------------------------------3--------|
        * * * * * * * * * * * *         * * * * * * * * * * * *
e|-----------------------------------------------------------------------|
B|-----------------------------------------------------------------------|
G|-----------------------------------------------------------------------|
D|--7---5---7------------------------------------------------------------|
A|--5---3---5---5---3------5------5--------------------------------------|
E|--------------3---1------3------3--------------------------------------|

chorus
e|-----------------------------------------------------------------------|
B|-----------------------------------------------------------------------|
G|--2--------------------------------------------------------------------|
D|--2------------3------------5---0-----0-2-0-----2----------------------|
A|--0------------3------------5-----2-3-------3-2-0------(5)-------------|
E|---------------1------------3--------------------------(3)-------------|

interlude
e|-----------------------------------------------------------------------|
B|-----------------------------------------------------------------------|
G|-----------------------------------------------------------------------|
D|--5------7------5------7------3------7------3--------------------------|
A|--5------7------5------7------3------7------3------5--5--5--5----------|
E|--3------5------3------5------1------5------1------3--3--3--3----------|

solo backing
e|-----------------------------------------------------------------------|
B|-----------------------------------------------------------------------|
G|-----------------------------------------------------------------------|
D|--2-------------------------------3------5---0-----0-2-0-----2---------|
A|--0---0-0-0-0-0-0-0-0-0-0-0-0-0-0-3------5-----2-3-------3-2-0---------|
E|----------------------------------1------3-----------------------------|
        * * * * * * * * * * * * * *
ending
e|-----------------------------------------------------------------------|
B|-----------------------------------------------------------------------|
G|-----------------------------------------------------------------------|
D|--0-----0-2-0-----2------0-----0-2-0-----2--2--2--0-----0-2-0-----2----|
A|----2-3-------3-2-0--------2-3-------3-2-0--0--0----2-3-------3-2-0----|
E|-----------------------------------------------------------------------|
comments
print report bad tab
1 comment total.
0 reply
Filthy666 wrote on January 23 2007, 10:48 pm

wheres the tab legend?...other then that this is a really good tab. thanks for finally a perfect COB tab!!

cheers!...

I want to post or [tab]
guest
You may want to rate the tab now too:
select rating
Please do not post tabs as comments. Select "correction" instead!