Oops, an error
Loading. Please wait.

Follow The Reaper Tab

ver1
ver1

Album

Solo

Whole song

More versions @911Tabs.com
17,986 views 46 this week
3 commentsread comments
1 2 3 4 5
accurate
x 6
Autoscroll
+/-
esc
set tempo
stop
Contributor
WARNING: You are trying to view
                                    content from Ultimate-Guitar.com
                                    in an unauthorized application,
                                    which is prohibited.

                                    Please use an official Ultimate
                                    Guitar Tabs application for iPhone,
                                    iPad or Android to access legitimate
                                    chords, guitar, bass, and drum tabs
                                    from Ultimate-Guitar.com database.

                                    Type "ultimate guitar tabs" in Apple
                                    App Store's or Android Market's
                                    search to find the application.
Children of Bodom
Follow the Reaper
Follow the Reaper
Tabbed By Kevin Cruz

Tune down one whole step
Guitar 1                                 1.
D:-------------------|-----------------|-----------------------------------|
A:-------------------|-----------------|-----------------------------------|
F:-------------------|-----------------|-----------------------------------|
G:-9---9h10-9---9----|-9--9h10-9p7-----|-9---9h10-9---9----9---9h10-5-7-10-|
C:-7-7-7----7-7-7h10-|-7-7-7---7---7-7-|-7-7-7----7-7-7h10-7-7-7----3-5-8--|
D:-------------------|-----------------|-----------------------------------|
     .        .          .         .       .        .        .
                                         2.
                                       |-------------------|---------------|
                                       |-------------------|---------------|
                                       |-------------------|---------------|
                                       |-9---9h10-9---9--7-|--9p7-5--7p5-9-|
                                       |-7-7-7----7-7-7--5-|--5---3--3---7-|
                                       |-------------------|---------------|
                                           .        .

                                       1.
D:-----------------|------------------|-------------------|----------------|
A:-----------------|------------------|-------------------|----------8-----|
F:-----------------|------------------|-------------------|--------6---6---|
G:---9h10-9---9----|-9---9h10-9p7-----|-9---9h10-9---9----|-9---------8s11-|
C:-7-7----7-7-7h10-|-7-7-7----7---7-7-|-7-7-7----7-7-7h10-|-7-7-7----------|
D:-----------------|------------------|-------------------|----------------|
   .        .          .          . .     .        .          . .
                               2.
                             |-------------------|-------------|-----------|
                             |-------------------|-------------|-----------|
                             |-------------------|-------------|-----4-7-9~|
                             |-9---9h10-9---9--4-|-2---2-----4-|-2---5-4-9~|
                             |-7-7-7----7-7-7----|---5----5-3--|---5-------|
                             |-------------------|-------------|-----------|
                                 .        .

D:----------------|------------|-----------|
A:----------------|------------|---8-------|
F:-10~------------|------------|-9---6---9-|
G:-10~---10--7--9-|------------|-------8---|
C:-------8---5--7-|-Dive\Raise-|-----------|
D:----------------|-0\---------|-----------|

D:-----|----------------|----------|----------|
A:-----|----------------|----------|----------|
F:-----|----------------|----------|----------|
G:--9--|10---10---7-----|-5~-4~----|-------4~-|
C:--7--|8----8----5---5-|-------7~-|-5~-7~----|
D:-----|----------------|----------|----------|
                      .

D:-----------------|---------|--------------------------------|
A:-----------------|---------|--------------------------------|
F:-----------------|---------|--------------------------------|
G:-9----/11s12\11--|-\7s5/9--|------------------------------9-|
C:-7----/9-s10\9---|-\5s3/7--|------------------------8-8-8-7-|
D:-----------------|---------|-0-000-0-0-000-0-0-000--6-6-6---|
                               . ... . . ... . . ...

D:---------|-------------|-----------------------------------|
A:---------|-------------|-----------------------------------|
F:---------|-------------|-----------------------------------|
G:-\7s5/7--|--/12s11\9---|-----------------------4--4--4--5--|
C:-\5s3/5--|--/10s9-\7---|-----------------------------------|
D:---------|-------------|-0-000-0-0-000-0-0-000-------------|
                           . ... . . ... . . ...

D:-----------------|------------------------|-------------------------------|
A:-----------------|------------------------|-------------------------------|
F:------------4----|------------------------|-------------------------------|
G:-5-5-5-5-7-----7-|-7--7--7--7--7--5--4--5-|-----------------------------5-|
C:-----------------|------------------------|-----------------------8-8-8---|
D:-----------------|------------------------|-0-000-0-0-000-0-0-000-6-6-6---|
                                              . ... . . ... . . ...

D:---------------|-----------------|------------------------|---------------|
A:---------------|-----------------|------------9-----------|---------------|
F:---------------|-----------------|------8-----------8-----|---------------|
G:-5-5-5-5-4---4-|-4-4-4-4-4-5-4---|---7-----7-----7-----7--|---------------|
C:-----------7---|---------------7-|-0----------------------|---------2-5-4-|
D:---------------|-----------------|------------------------|-000-000-0-3-2-|
                                     . .     .     .     .    ... ... . . .

Chorus
D:-----------------|-----------------|-------------------------|------------|
A:-----------------|-----------------|-------------------------|------------|
F:-9-9-9-9-7-7-5-7-|-9-9-7-7-7-7-7-7-|---------4---5---4-----4-|-5--7--5--4~|
G:-7-7-7-7-5-5-5-5-|-7-7-7-7-5-5-5-5-|-x----7-------------7----|------------|
C:-----------------|-----------------|---7---------------------|------------|
D:-----------------|-----------------|-------------------------|------------|

D:-----------------|-----------------|---------------------|----------------|
A:-----------------|---------8-------|---------------------|----------------|
F:-9-9-9-9-4-4-5-5-|-7-7-7-7-----7---|-------4--5--4-----4-|-5-7s9-7---10-9-|
G:-7-7-7-7-2-2-3-3-|-5-5-5-5---5---5-|----7-----------7----|---------7------|
C:-----------------|-----------------|-7-------------------|----------------|
D:-----------------|-----------------|---------------------|----------------|
                                                                     .

D:------------------------|-----------------------|
A:------------------------|-----------------------|
F:-7-----9--7-------7-----|-----------------------|
G:-------------10------10-|-9--7-\6---------------|
C:----10----------8-------|---------8--7--5-------|
D:------------------------|------------------8--7-|
      .           .                 .  .  .  .  .

D:----------------7-|--7-------------|---------------7~|-7-----------------|
A:-/9-9-7---7-9-----|----9-7-9-7---7-|-9-9-7---7-9-----|---9-7-9-7h9p7---7-|
F:--------9-----9---|------------9---|-------9-----9---|---------------9---|
G:------------------|----------------|-----------------|-------------------|
C:------------------|----------------|-----------------|-------------------|
D:------------------|----------------|-----------------|-------------------|

D:----------------|-----------------|-----------------|----------|
A:-9-7---------7~-|-9-7-----------7-|-----------------|----------|
F:-----9-8~--9----|-----9-6~--8-9---|-9-8-6---6-8-6~--|---/18\---|
G:----------------|-----------------|-------9---------|----------|
C:----------------|-----------------|-----------------|----------|
D:----------------|-----------------|-----------------|----------|

                   ---PLAY 4 TIMES-------------------------------------------|
D:----------------------7~-|--7----------------------------------------------|
A:-9--9--7-----7--9--7-----|-----9--7--9--7-----7----------------------------|
F:----------9--------------|-----------------9-------------------------------|
G:-------------------------|-------------------------------------------------|
C:-------------------------|-------------------------------------------------|
D:-------------------------|-------------------------------------------------|
                   ---PLAY 3 TIMES-------------------------------------------|              4.
D:----------------------10-|-10-------------------|--------------------------|
A:-12-12-10----10-12-------|----12-10-12-10----10-|-17-----------------------|
F:----------12-------12----|----------------12----|----16--------------------|
G:-------------------------|----------------------|-------17-16-14-14--------|
C:-------------------------|----------------------|-------------------16-13--|
D:-------------------------|----------------------|--------------------------|

Bridge                                  1.
D:------------------|-----------------||---------13-------|-13------------|
A:---------15-------|-15--------------||---------12-------|-12------------|
F:-7-------13-------|-13--------9--7--||-7----------------|---------------|
G:-7-0-0-0----0-0-0-|----0-0-0-10--8--||-7-0-0-0----0-0-0-|----0-0-0-7--5-|
C:------------------|-----------------||------------------|---------------|
D:------------------|-----------------||------------------|---------------|
     . . .    . . .      . . .             . . .    . . .      . . .

                                        2.
                                     D:-------------|------|
                                     A:-------------|------|
                                     F:--14---7-----|--9---|
                                     G:--12---8-----|--6---|
                                     C:-------------|------|
                                     D:-------------|------|

                         1.                       2.
D:------------------13-||-----------------------||-------13-17-13-15----|
A:--------15-----------||---------15-13---------||-----15------------17-|
F:---12-14-----14-15---||---12-14------15-14-12-||---14-----------------|
G:-12--------12--------||-12--------------------||-12-------------------|
C:---------------------||-----------------------||----------------------|
D:---------------------||-----------------------||----------------------|

                     1.                    2.
D:---------------8-||--------------------||-------8-12-8-10----|
A:------10-----10--||-------10-8---------||-----10----------12-|
F:---7-9-----9-----||---7-9-------10-9-7-||---9----------------|
G:-7-------7-------||-7------------------||-7------------------|
C:-----------------||--------------------||--------------------|
D:-----------------||--------------------||--------------------|
   . . .   . . .      . . .                 . .

REPEAT CHORUS
REPEAT 2ND PART OF CHORUS 2x

INTERLUDE
D:-17-------------------19-|-20-17-17-19-19-15-15-17-|
A:----17-17-20-20----------|-------------------------|
F:----------------19-19----|-------------------------|
G:-------------------------|-------------------------|
C:-------------------------|-------------------------|
D:-------------------------|-------------------------|

D:-17p12------12-15p12------12-|-15p12------12-13p12-----|
A:------13--13--------13--13---|------13--13--------13---|
F:--------14------------14-----|--------14------------12-|
G:-----------------------------|-------------------------|
C:-----------------------------|-------------------------|
D:-----------------------------|-------------------------|

D:-20--22--24--22-20\19--|-24-22-20-22--20\19-|
A:-----------------------|--------------------|
F:-----------------------|--------------------|
G:-----------------------|--------------------|
C:-----------------------|--------------------|
D:-----------------------|--------------------|

D:-----------------------------------17-|-----------|
A:-------------------------13-15-17-----|-----------|
F:-----------------12-14-16-------------|-----------|
G:---------12-14-15---------------------|-----------|
C:-12-14-15-----------------------------|-/x\--/x\--|
D:--------------------------------------|-----------|

Keyboard solo

|-------------------------------|
|-----------???solo???----------|
|-------------------------------|
|-------------------------------|
comments
print report bad tab
3 comments total.
0 reply
OminousX wrote on September 26 2004, 12:00 am

Well, this was a better tabbing then any other ive seen for this song.

0 reply
klaasvangilberg wrote on June 12 2007, 02:30 pm

isn't it:
D|
A|
F|
C|
G|
D|

0 reply
vblaqk wrote on June 22 2014, 02:22 pm

tuning should be DGCFAD from bottom to top...

I want to post or [tab]
guest
You may want to rate the tab now too:
select rating
Please do not post tabs as comments. Select "correction" instead!