Oops, an error
Loading. Please wait.

Follow The Reaper Tab

ver2
ver2

Album

Solo

Whole song

Interactive

More versions @911Tabs.com
21,084 views 30 this week
7 commentsread comments
1 2 3 4 5
excellent!
x 8
Autoscroll
+/-
esc
set tempo
stop
Contributor
Difficulty
advanced
Hey! There's an official Ultimate Guitar app which is ideal
for learning songs when you're away from computer. Get the app
WARNING: You are trying to view
                                    content from Ultimate-Guitar.com
                                    in an unauthorized application,
                                    which is prohibited.

                                    Please use an official Ultimate
                                    Guitar Tabs application for iPhone,
                                    iPad or Android to access legitimate
                                    chords, guitar, bass, and drum tabs
                                    from Ultimate-Guitar.com database.

                                    Type "ultimate guitar tabs" in Apple
                                    App Store's or Android Market's
                                    search to find the application.
                                FOLLOW THE REAPER
                        As recorded by CHILDREN OF BODOM
                     (From the 2001 Album FOLLOW THE REAPER)

Words and Music by Alexi Laiho
Arranged by Alexi Laiho
Transcribed by DoomMaker (DoomMaker@Chello.hu)

         Bm/D                 Am/C                D/F#IX                Gsus4
      x 5 9 x x x          x 3 7 x x x         x 9 12 x x x          x x 5 5 x x

          F/A                D/F#IV                E/Ab                 Asus4
     x x 7 10 x x          x x 4 7 x x          x x 6 9 x x          x x 7 7 x x

Gtr I (D G C F A D) - 'Alexi'
Gtr II (D G C F A D) - 'Alex'
Gtr III (D G C F A D) - 'Keyboard'

 Intro
  Fast Rock Q=194
  E5                        C5   D5  E5                                 C5D5F5
 4/4
  Gtr I
    PM       PM         PM         PM        PM       PM         PM
                                                                        |-3--|
  E E E  E E E E  E   E E E  E E E E E    E  E E  E E E E  E   E E E  E Q Q  Q
|-------------------|------------------|---------------------|-----------------|
|-------------------|------------------|---------------------|-----------------|
|-------------------|------------------|---------------------|-----------------|
|-9---9h10-9---9----|-9---9h10-9p7-----|--9----9h10-9---9----|-9---9h10-5-7-10-|
|-7-7-7----7-7-7h10-|-7-7-7----7---7-7-|--7--7-7----7-7-7h10-|-7-7-7----3-5--8-|
|-------------------|------------------|---------------------|-----------------|
|
| Gtr II
|                                                                       |-3--|
| Q   Q    H          Q   E  E E E E E   +E  E Q    H          H        Q Q  Q
|-------------------|------------------|---------------------|-----------------|
|-------------------|------------------|---------------------|-----------------|
|-9-----------------|--------5---7---9-|-(9)-----------------|-----------------|
|-9-----------------|--------5---7---9-|-(9)-----------------|----------5-7-10-|
|-7-----------------|--------3---5---7-|-(7)-----------------|----------3-5--8-|
|-0-----------------|------------------|---------------------|-----------------|


  E5                        C5   D5  E5
    PM       PM         PM         PM
  E E E  E E E E  E   E E E  E E E E E
|-------------------|------------------|
|-------------------|------------------|
|-------------------|------------------|
|-9---9h10-9---9----|-9---9h10-9p7-----|
|-7-7-7----7-7-7h10-|-7-7-7----7---7-7-|
|-------------------|------------------|
|
| Q   Q    H          Q   E  E E E E E
|-------------------|------------------|
|-------------------|------------------|
|-9-----------------|--------5---7---9-|
|-9-----------------|--------5---7---9-|
|-7-----------------|--------3---5---7-|
|-0-----------------|------------------|


                   D5        Bm/D  G5    Am/CE5
      PM       PM
   E  E E  E E E E  E    +E   E  E E +E  E E E
|---------------------|------------------------|
|---------------------|------------------------|
|---------------------|------------------------|
|--9----9h10-9---9--7-|--(7)--9p=7-------7p5-9-|
|--7--7-7----7-7-7--5-|--(5)--5----5-(5)-3---7-|
|---------------------|------------3-(3)-------|
|
| +E  E H        E  E    +E   E  E E +E  Q   E
|---------------------|------------------------|
|------------------10-|-(10)-12p10-8-(8)-------|
|-(9)--------------11-|-(11)-11----9-(9)-------|
|-(9)-----------------|------------------------|
|-(7)-----------------|----------------------2-|
|---------------------|----------------------0-|


                                                                     N.C.
      PM                  PM         PM|     PM                  PM|
  +E  E E  E E E E  E   E E E  E E E E E   E E E  E E E E  E   E E E E E E E E
|---------------------|------------------|-------------------|-----------------|
|---------------------|------------------|-------------------|---------8-------|
|---------------------|------------------|-------------------|-------6---6---8-|
|-(9)---9h10-9---9----|-9---9h10-9p7-----|-9---9h10-9---9----|-9-----------8---|
|-(7)-7-7----7-7-7h10-|-7-7-7----7---7-7-|-7-7-7----7-7-7h10-|-7-7-7-----------|
|---------------------|------------------|-------------------|-----------------|
|
|     PM-----------------------------------------------------------|
| +E  E E  E E E E  E   E E E  E E E E E   E E E  E E E E  E   E E E E E E E E
|---------------------|------------------|-------------------|-----------------|
|---------------------|------------------|-------------------|---------5-------|
|---------------------|------------------|-------------------|-------4---3-----|
|---------------------|------------------|-------------------|-------------5-2-|
|-(2)-----------------|------------------|-------------------|-----------------|
|-(0)-0-0--0-0-0-0--0-|-0-0-0--0-0-0-0-0-|-0-0-0--0-0-0-0--0-|-0-0-0-----------|


  E5
    PM                  PM         PM|
  E E E  E E E E  E   E E E  E E E E E
|-------------------|------------------|
|-------------------|------------------|
|-------------------|------------------|
|-9---9h10-9---9----|-9---9h10-9p7-----|
|-7-7-7----7-7-7h10-|-7-7-7----7---7-7-|
|-------------------|------------------|
|
|   PM----------------------------------
| E E E  E E E E  E   E E E  E E E E E
|-------------------|------------------|
|-------------------|------------------|
|-------------------|------------------|
|-9-----------------|------------------|
|-7-----------------|------------------|
|---0-0--0-0-0-0--0-|-0-0-0--0-0-0-0-0-|


                 D5          C5        D5
    PM                   PM|
  E E E  E E E E E   +E  E E E +E  E E E
|------------------|---------------------|
|------------------|---------------------|
|------------------|---------------------|
|-9---9h10-9---9-4-|-(4)-2---2-(2)-----4-|
|-7-7-7----7-7-7---|-------5-------5-3---|
|------------------|---------------------|
|
|--------------|
| E E E  E E E E E   +Q.     E +Q.     E
|------------------|---------------------|
|------------------|---------------------|
|----------------7-|-(7)-----5-(5)-----7-|
|----------------7-|-(7)-----5-(5)-----7-|
|----------------5-|-(5)-----3-(3)-----5-|
|-0-0-0--0-0-0-0---|---------------------|


          G5   D/F#IE5
  +E  E E  E E  E E E   +E  E Q  H
|---------------------|---------------|
|---------------------|---------------|
|----------4----7---9-|-(9)-----------|
|-(4)-2----5----4---9-|-(9)-----------|
|-------5-------------|---------------|
|---------------------|---------------|
|
| +Q.      E E  E E E   +E  E Q  H
|---------------------|---------------|
|---------------------|---------------|
|-(7)-----------------|---------------|
|-(7)-----12---12---9-|-(9)-----------|
|-(5)-----10----9---7-|-(7)-----------|
|---------------------|---------------|


  F5         D5  E5
                 \3___________________|
   Q  E  E E E E E     +H       +Q   +Q
|--------------------|--------------------|
|--------------------|--------------------|
|-10-----------------|--------------------|
|-10----10---7---9---|-(9)------(9)--(9)--|
|--------8---5---7---|-(7)------(7)--(7)--|
|----------------0---|-(0)------(0)--(0)--|
|
|  Q  E  E E E E E     +E  E Q   H
|--------------------|--------------------|
|--------------------|--------------------|
|--------------------|--------------------|
|-10----10---7---9---|-(9)----------------|
|--8-----8---5---7---|-(7)----------------|
|--------------------|--------------------|


           N.C.        E5              F5             D5    N.C.
   /    |
  +Q   +E  E E E E E   E E Q  H      E  E  +E  E  E E E E   Q.   E +Q   Q
|--------------------|-------------|----------------------|----------------|
|------------8-------|-------------|----------------------|-8----7-(7)--5--|
|----------9---6---9-|-------------|----------------------|----------------|
|-(9)--(9)-------8---|-9-----------|---10-(10)---10---7---|----------------|
|-(7)--(7)-----------|-7-----------|----8--(8)----8---5---|----------------|
|-(0)--(0)-----------|-------------|----------------------|----------------|
|
|  Q    E  E E E E E   E E Q  H      E  E  +E  E  E E E E   Q.   E +Q   Q
|--------------------|-------------|----------------------|----------------|
|------------5-------|-------------|----------------------|----------------|
|----------4---3---6-|-------------|----------------------|----------------|
|----------------5---|-9-----------|---10-(10)---10---7---|----------------|
|--------------------|-7-----------|----8--(8)----8---5---|-7----5-(5)--3--|
|--------------------|-------------|----------------------|----------------|


                    Verse
                     E5       F5 G5 F5
  +E  E +Q   Q  Q    H    +E   E  E  E
|------------------|-------------------|
|-(5)--------5--7--|-------------------|
|-----7-(7)--------|-------------------|
|------------------|-9----(9)-11h12p11-|
|------------------|-7----(7)--9h10p=9-|
|------------------|-------------------|
|
| +E  E +Q   Q  Q    H    +E   E  E  E
|------------------|-------------------|
|------------------|-------------------|
|------------------|-------------------|
|------------------|-9----(9)-11h12p11-|
|-(3)-2-(2)--3--5--|-7----(7)--9h10p=9-|
|------------------|-------------------|


               E5D5E5
                           PM--------------|
   +H      +E  E E E   +E  E S S E E E S S E
|--------------------|-----------------------|
|--------------------|-----------------------|
|--------------------|-----------------------|
|-(11)----(11)-9p7h9-|-(9)-------------------|
|--(9)-----(9)-7p5h7-|-(7)-------------------|
|--------------------|-----0-0-0-0-0-0-0-0-0-|
|
|                          PM--------------|
|  +H      +E  E E E   +E  E S S E E E S S E
|--------------------|-----------------------|
|--------------------|-----------------------|
|--------------------|-----------------------|
|-(11)----(11)-9-7-9-|-(9)-------------------|
|--(9)-----(9)-7-5-7-|-(7)-------------------|
|--------------------|-----0-0-0-0-0-0-0-0-0-|


            Bb5   E5             D5C5D5
  PM------|
  E E E S S E E E E   +H     +E  E E E
|-------------------|------------------|
|-------------------|------------------|
|-------------------|------------------|
|-----------------9-|-(9)----(9)-7-5-7-|
|-----------8-8-8-7-|-(7)----(7)-5-3-5-|
|-0-0-0-0-0-6-6-6---|------------------|
|
| PM------|
| E E E S S E E E E   +H     +E  E E E
|-------------------|------------------|
|-------------------|------------------|
|-------------------|------------------|
|-----------------9-|-(9)----(9)-7-5-7-|
|-----------8-8-8-7-|-(7)----(7)-5-3-5-|
|-0-0-0-0-0-6-6-6---|------------------|


             G5 F5 E5
                           PM--------------|
  +H     +E   E  E E   +E  E S S E E E S S E
|--------------------|------------------------|
|--------------------|------------------------|
|--------------------|------------------------|
|-(7)----(7)-12-11-9-|-(9)--------------------|
|-(5)----(5)-10--9-7-|-(7)--------------------|
|--------------------|-----0-0-0-0-0-0-0-0-0--|
|
|                          PM--------------|
| +H     +E   E  E E   +E  E S S E E E S S E
|--------------------|------------------------|
|--------------------|------------------------|
|--------------------|------------------------|
|-(7)----(7)--9--7-5-|-(5)--------------------|
|-(5)----(5)-10--9-7-|-(7)--------------------|
|--------------------|-----0-0-0-0-0-0-0-0-0--|


            D5    E5      N.C.
  PM------|
  E E E S S E E E E   +E  E E E E E E E
|-------------------|-------------------|
|-------------------|-------------------|
|-------------------|---------------4---|
|-----------4-4-4-5-|-(5)-5-5-5-5-7---7-|
|-------------------|-------------------|
|-0-0-0-0-0---------|-------------------|
|
| PM------|
| E E E S S E E E E   +E  E E E E E E E
|-------------------|-------------------|
|-------------------|-------------------|
|-------------------|---------------4---|
|-----------7-7-7-9-|-(9)-5-5-5-5-7---7-|
|-----------5-5-5-7-|-(7)---------------|
|-0-0-0-0-0---------|-------------------|


                        E5
                        PM--------------|
  E E E E E E E E   +E  E S S E E E S S E
|-----------------|------------------------|
|-----------------|------------------------|
|-----------------|------------------------|
|-7-7-7-7-7-5-4-5-|-(5)--------------------|
|-----------------|------------------------|
|-----------------|-----0-0-0-0-0-0-0-0-0--|
|
| E E E E E E E E   +E  E S S E E E S S E
|-----------------|------------------------|
|-----------------|------------------------|
|-----------------|------------------------|
|-7-7-7-7-7-5-4-5-|-(5)--------------------|
|-----------------|------------------------|
|-----------------|-----0-0-0-0-0-0-0-0-0--|


            Bb5   N.C.
  PM------|                                                   PM|   PM  PM  PM
  E E S S E E E E E   +E  E E E E E E E   +E  E E E E E E E   E E E E E E E E
|-------------------|-------------------|-------------------|------------------|
|-------------------|-------------------|-------------------|------------------|
|-------------------|-------------------|-------------------|---------9--------|
|-----------------5-|-(5)-5-5-5-5-4---4-|-(4)-4-4-4-4-5-4---|-----8-------8----|
|-----------8-8-8---|---------------7---|-----------------7-|---7---7---7---7--|
|-0-0-0-0-0-6-6-6---|-------------------|-------------------|-0----------------|
|
| PM------|                                                   PM|   PM  PM  PM
| E E S S E E E E E    E  E E E E E E E    E  E E E E E E E   E E E E E E E E
|-------------------|-------------------|-------------------|------------------|
|-------------------|-------------------|-------------------|------------------|
|-------------------|-------------------|-------------------|-----9------------|
|-----------------5-|--5--5-5-5-5-4---4-|--4--4-4-4-4-5-4---|---------8---5----|
|-----------8-8-8---|---------------7---|-----------------7-|------------------|
|-0-0-0-0-0-6-6-6---|-------------------|-------------------|-0-0---0---0---0--|


                     Chorus
  E5            G5F#5 A5      G5  GsG54 A5  AsusG5        A5      F/A
  PM--------|
              |-3-|
  S S E S S E Q Q Q   E E E E E E E E   E E E E E E E E   E E E E  E  E  E  E
|-------------------|-----------------|-----------------|----------------------|
|-------------------|-----------------|-----------------|----------------------|
|-------------------|-9-9-9-9-7-7-5-7-|-9-9-7-7-7-7-7-7-|-------4--5--4-----4--|
|-------------------|-7-7-7-7-5-5-5-5-|-7-7-7-7S5-5-5-5-|-x---7----------7-----|
|-------------------|-----------------|-----------------|---7------------------|
|-0-0-0-0-0-0-0-3-2-|-----------------|-----------------|----------------------|
|
| PM--------|
|             |-3-|
| S S E S S E Q Q Q   E E E E E E E E   E E E E E E E E   E E E E  E  E  E  E
|-------------------|-----------------|-----------------|----------------------|
|-------------------|-----------------|-----------------|----------------------|
|-------------------|-9-9-9-9-7-7-5-7-|-9-9-7-7-7-7-7-7-|-9-9-9-9-10-10-10-10--|
|-------------------|-7-7-7-7-5-5-5-5-|-7-7-7-7-5-5-5-5-|-7-7-7-7--7--7--7--7--|
|-------------2-5-4-|-----------------|-----------------|----------------------|
|-0-0-0-0-0-0-0-3-2-|-----------------|-----------------|----------------------|


  A5      G5        A5      E5  F5    G5                A5      F5
                                                        PM
  Q   E E H         E E E E E E E E   E E E E E E E E   E E E E E E E E
|-----------------|-----------------|-----------------|-----------------|
|-----------------|-----------------|---------8-------|-----------------|
|-5---7-5-4-------|-9-9-9-9-4-4-5-5-|-7-7-7-7-----7---|-------4-5-4---4-|
|-----------------|-7-7-7-7-2-2-3-3-|-5-5-5-5---5---5-|-7---7-------7---|
|-----------------|-----------------|-----------------|---7-------------|
|-----------------|-----------------|-----------------|-----------------|
|
| E E E E E E E E   E E E E E E E E   E E E E E E E E   H       H
|-----------------|-----------------|-----------------|-----------------|
|-----------------|-----------------|-----------------|-----------------|
|-9-9-9-9-7-7-7-7-|-9-9-9-9-4-4-5-5-|-7-7-7-7-7-7-7-7-|-9-------5-------|
|-7-7-7-7-5-5-5-5-|-7-7-7-7-2-2-3-3-|-5-5-5-5-5-5-5-5-|-7-------3-------|
|-----------------|-----------------|-----------------|-----------------|
|-----------------|-----------------|-----------------|-----------------|


                                                          Interlude
  C5     D5         G5       C5          D5      E5          C#5       B5  E5
                       PM       PM             PM------|
  Q  E E E E  E E   E  E E E  E E E  E   E E E E E E E E   a E E E E E E E E
|-----------------|--------------------|-----------------|-----------------7--|
|-----------------|--------------------|-----------------|-7S9-9-7---7-9------|
|-5--7-9-7---10-9-|-7----9-7------7----|-----------------|---------9-----9----|
|----------7------|----------10-----10-|-9-7-6-----------|--------------------|
|-----------------|---10--------8------|-------8-7-5-----|--------------------|
|-----------------|--------------------|-------------8-7-|--------------------|
|
| H      H          H         H          H       H           Q   Q   E E E E
|-----------------|--------------------|-----------------|--------------------|
|-----------------|--------------------|-----------------|--------------------|
|-----------------|-----------5--------|-7-------9-------|-------------4------|
|-5------7--------|-5---------5--------|-7-------9-------|---6---------4---2--|
|-3------5--------|-5---------3--------|-5-------7-------|---4---------2---2--|
|-----------------|-3------------------|-----------------|-----------------0--|


                B5  C#5                   B5  E5
  +E    E E E E E E E    E    E  E  E  E  E E E
|-(7)---7-------------|-----------------------7-|
|---------9-7-9-7---7-|--9----9--7-----7--9-----|
|-----------------9---|-------------9-------9---|
|---------------------|-------------------------|
|---------------------|-------------------------|
|---------------------|-------------------------|
|
|                                ~~~~~~~~~
| +S  S E Q   E E E E   +S  S E  Q    +E  E E E
|---------------------|-------------------------|
|---------------------|-------------------------|
|---------------4---6-|-(6)-----[6]---(6)-------|
|-(2)-----------4---6-|-(6)---------------9---2-|
|-(2)-----------2---4-|-(4)---------------9---2-|
|-(0)-----------------|-------------------7---0-|


                          C#5    B5
              |-3-|
  +E  E E E E S S S E E   E  E E E +E  E Q
|-(7)-7-----------------|-------------------|
|-------9-7-9-7-9-7---7-|-9--7-----------7--|
|-------------------9---|------9-8-(8)-9----|
|-----------------------|-------------------|
|-----------------------|-------------------|
|-----------------------|-------------------|
|
|  Q    Q   Q       Q     Q.     E +H
|-----------------------|-------------------|
|-----------------------|-------------------|
|-----------------------|-6------4-(4)------|
|-----------------------|-6------4-(4)------|
|-----------------------|-4------2-(2)------|
|-------0S==9S======0---|-------------------|


  C#5    G#5           A5      B5        C#5
  E  E E E +E  E E E   E E  E  E  E   E  Q
|--------------------|----------------------|
|-9--7-------------7-|----------------------|
|------9-6-(6)-8-9---|-9-8--6-----6---8--6--|
|--------------------|---------9------------|
|--------------------|----------------------|
|--------------------|----------------------|
|
| Q.     E +H          Q    E  E +E   E  Q
|--------------------|----------------------|
|--------------------|----------------------|
|-6------------------|-2---(2)-4-(4)-(4)-6--|
|-6------6-(6)-------|-2---(2)-4-(4)-(4)-6--|
|-4------6-(6)-------|-0----0--2-(2)--2--4--|
|--------4-(4)-------|----------------------|


                   N.C.
           ~~~
  +H       H       E E E E E  E E E
|----------------|----------------7-|
|----------------|-9-9-7---7--9-7---|
|-(6)-----[6]----|-------9----------|
|----------------|------------------|
|----------------|------------------|
|----------------|------------------|
|
| +Q   Q   Q  Q    E E E E E  E E E
|----------------|------------------|
|----------------|-----9-----12-----|
|-(6)--6S=18S=6--|-6-6---6-8----8-9-|
|-(6)------------|------------------|
|-(4)------------|------------------|
|----------------|------------------|


  +E  E  E E E E  E E   E E E E E  E E E
|-(7)-7---------------|----------------7-|
|--------9-7-9-7----7-|-9-9-7---7--9-7---|
|-----------------9---|-------9----------|
|---------------------|------------------|
|---------------------|------------------|
|---------------------|------------------|
|
| +E  E  E E E E  E E   E E E E E  E E E
|---------------------|------------------|
|-------12-------12---|-----9-----12-----|
|-(9)-9----9-8-9----8-|-6-6---6-8----8-9-|
|---------------------|------------------|
|---------------------|------------------|
|---------------------|------------------|


  +E  E  E E E E  E E   E E E E E  E E E
|-(7)-7---------------|----------------7-|
|--------9-7-9-7----7-|-9-9-7---7--9-7---|
|-----------------9---|-------9----------|
|---------------------|------------------|
|---------------------|------------------|
|---------------------|------------------|
|
| +E  E  E E E E  E E   E E E E E  E E E
|---------------------|------------------|
|-------12-------12---|-----9-----10-----|
|-(9)-9----9-8-9----8-|-6-6---6-8----8-9-|
|---------------------|------------------|
|---------------------|------------------|
|---------------------|------------------|


  +E  E  E E E E  E E   E E E E E  E E E
|-(7)-7---------------|----------------7-|
|--------9-7-9-7----7-|-9-9-7---7--9-7---|
|-----------------9---|-------9----------|
|---------------------|------------------|
|---------------------|------------------|
|---------------------|------------------|
|
| +E  E  E E E E  E E   E E E E E  E E E
|---------------------|------------------|
|-------12-------12---|-----9-----12-----|
|-(9)-9----9-8-9----8-|-6-6---6-8----8-9-|
|---------------------|------------------|
|---------------------|------------------|
|---------------------|------------------|


  +E  E  E E E E  E E    E  E  E  E  E  E  E  E
|-(7)-7---------------|----------------------10-|
|--------9-7-9-7----7-|-12-12-10----10-12-------|
|-----------------9---|----------12-------12----|
|---------------------|-------------------------|
|---------------------|-------------------------|
|---------------------|-------------------------|
|
| +E  E  E E E E  E E    E  E  E  E  E  E  E  E
|---------------------|-------------------------|
|-------12-------12---|-------12-------15-------|
|-(9)-9----9-8-9----8-|--9--9-----9-11----12-12-|
|---------------------|-------------------------|
|---------------------|-------------------------|
|---------------------|-------------------------|


   +E   E  E  E  E  E  E  E    E  E  E  E  E  E  E  E
|-(10)-10-------------------|----------------------10-|
|---------12-10-12-10----10-|-12-12-10----10-12-------|
|---------------------12----|----------12-------12----|
|---------------------------|-------------------------|
|---------------------------|-------------------------|
|---------------------------|-------------------------|
|
|  +E   E  E  E  E  E  E  E    E  E  E  E  E  E  E  E
|---------------------------|-------------------------|
|---------15----------15----|-------12-------15-------|
|-(12)-12----12-11-11----11-|--9--9-----9-11----12-12-|
|---------------------------|-------------------------|
|---------------------------|-------------------------|
|---------------------------|-------------------------|


   +E   E  E  E  E  E  E  E    E  E  E  E  E  E  E  E
|-(10)-10-------------------|----------------------10-|
|---------12-10-12-10----10-|-12-12-10----10-12-------|
|---------------------12----|----------12-------12----|
|---------------------------|-------------------------|
|---------------------------|-------------------------|
|---------------------------|-------------------------|
|
|  +E   E  E  E  E  E  E  E    E  E  E  E  E  E  E  E
|---------------------------|-------------------------|
|---------15----------15----|-------12-------15-------|
|-(12)-12----12-11-11----11-|--9--9-----9-11----12-12-|
|---------------------------|-------------------------|
|---------------------------|-------------------------|
|---------------------------|-------------------------|


   +E   E  E  E  E  E  E  E    E  E  E  E  E  E  E  E
|-(10)-10-------------------|-12----------------------|
|---------12-10-12-10----10-|-------------------------|
|---------------------12----|-----9-12--------6-------|
|---------------------------|-----------9--5-----8--5-|
|---------------------------|-------------------------|
|---------------------------|-------------------------|
|
|  +E   E  E  E  E  E  E  E    E  E  E  E  E  E  E  E
|---------------------------|-------------------------|
|---------15----------15-19-|-17----------------------|
|-(12)-12----12-11-11-------|----16-------------------|
|---------------------------|-------17-16-14-14-------|
|---------------------------|-------------------16-13-|
|---------------------------|-------------------------|


               Verse
  Bb5           E5       F#5G5 F#5
  E E Q  H      H    +E   E  E  E
|-------------|-------------------|
|-------------|-------------------|
|-6-----------|-------------------|
|-------------|-9----(9)-11h12p11-|
|-------------|-7----(7)--9h10p=9-|
|-------------|-------------------|
|
| E E Q  H      H    +E   E  E  E
|-------------|-------------------|
|-------------|-------------------|
|-------------|-------------------|
|-------------|-9----(9)-11h12p11-|
|-8-----------|-7----(7)--9h10p=9-|
|-6-----------|-------------------|


               E5D5E5
                           PM-----------------
   +H      +E  E E E   +E  E S S E E E S S E
|--------------------|-----------------------|
|--------------------|-----------------------|
|--------------------|-----------------------|
|-(11)----(11)-9-7-9-|-(9)-------------------|
|--(9)-----(9)-7-5-7-|-(7)-------------------|
|--------------------|-----0-0-0-0-0-0-0-0-0-|
|
|                          PM-----------------
|  +H      +E  E E E   +E  E S S E E E S S E
|--------------------|-----------------------|
|--------------------|-----------------------|
|--------------------|-----------------------|
|-(11)----(11)-9-7-9-|-(9)-------------------|
|--(9)-----(9)-7-5-7-|-(7)-------------------|
|--------------------|-----0-0-0-0-0-0-0-0-0-|


            Bb5   E5             D5C5D5
 ---------|
  E E E S S E E E E   +H     +E  E E E
|-------------------|-------------------|
|-------------------|-------------------|
|-------------------|-------------------|
|-----------------9-|-(9)----(9)-7-5-7--|
|-----------8-8-8-7-|-(7)----(7)-5-3-5--|
|-0-0-0-0-0-6-6-6---|-------------------|
|
|---------|
| E E E S S E E E E   +H     +E  E E E
|-------------------|-------------------|
|-------------------|-------------------|
|-------------------|-------------------|
|-----------------9-|-(9)----(9)-7-5-7--|
|-----------8-8-8-7-|-(7)----(7)-5-3-5--|
|-0-0-0-0-0-6-6-6---|-------------------|


             G5 F#5E5
                           PM-----------------
  +H     +E   E  E E   +E  E S S E E E S S E
|--------------------|-----------------------|
|--------------------|-----------------------|
|--------------------|-----------------------|
|-(7)----(7)-12-11-9-|-(9)-------------------|
|-(5)----(5)-10--9-7-|-(7)-------------------|
|--------------------|-----0-0-0-0-0-0-0-0-0-|
|
|                          PM-----------------
| +H     +E   E  E E   +E  E S S E E E S S E
|--------------------|-----------------------|
|--------------------|-----------------------|
|--------------------|-----------------------|
|-(7)----(7)--9--7-5-|-(5)-------------------|
|-(5)----(5)-10--9-7-|-(7)-------------------|
|--------------------|-----0-0-0-0-0-0-0-0-0-|


            D5    E5      N.C.
 ---------|
  E E E S S E E E E   +E  E E E E E E E
|-------------------|--------------------|
|-------------------|--------------------|
|-------------------|---------------4----|
|-----------4-4-4-5-|-(5)-5-5-5-5-7---7--|
|-------------------|--------------------|
|-0-0-0-0-0---------|--------------------|
|
|---------|
| E E E S S E E E E   +E  E E E E E E E
|-------------------|--------------------|
|-------------------|--------------------|
|-------------------|---------------4----|
|-----------7-7-7-9-|-(9)-5-5-5-5-7---7--|
|-----------5-5-5-7-|-(7)----------------|
|-0-0-0-0-0---------|--------------------|


                        E5
                        PM-----------------
  E E E E E E E E   +E  E S S E E E S S E
|-----------------|-----------------------|
|-----------------|-----------------------|
|-----------------|-----------------------|
|-7-7-7-7-7-5-4-5-|-(5)-------------------|
|-----------------|-----------------------|
|-----------------|-----0-0-0-0-0-0-0-0-0-|
|
|                       PM-----------------
| E E E E E E E E   +E  E S S E E E S S E
|-----------------|-----------------------|
|-----------------|-----------------------|
|-----------------|-----------------------|
|-7-7-7-7-7-5-4-5-|-(5)-------------------|
|-----------------|-----------------------|
|-----------------|-----0-0-0-0-0-0-0-0-0-|


            Bb5   N.C.
 ---------|
  E E S S E E E E E   +E  E E E E E E E
|-------------------|--------------------|
|-------------------|--------------------|
|-------------------|--------------------|
|-----------------5-|-(5)-5-5-5-5-4---4--|
|-----------8-8-8---|---------------7----|
|-0-0-0-0-0-6-6-6---|--------------------|
|
|---------|
| E E S S E E E E E   +E  E E E E E E E
|-------------------|--------------------|
|-------------------|--------------------|
|-------------------|--------------------|
|-----------------5-|-(5)-5-5-5-5-4---4--|
|-----------8-8-8---|---------------7----|
|-0-0-0-0-0-6-6-6---|--------------------|


                                                         Interlude
                                                          Q=193
                                      E5            G5F#5 N.C.
  Gtr I
                    PM|   PM  PM  PM------------|           PM--|    PM--|
                                                  |-3-|
  E E E E E E E E   E E E E E E E E   S S E S S E Q Q Q   E E E E  E E E E
|-----------------|-----------------|-------------------|---------10--------|
|-----------------|-----------------|-------------------|----------9--------|
|-----------------|---------9-------|-------------------|-7-----------------|
|-4-4-4-4-4-5-4---|-----8-------8---|-------------------|-7-0-0-0----0-0-0--|
|---------------7-|---7---7---7---7-|-------------------|-------------------|
|-----------------|-0---------------|-0-0-0-0-0-0-0-3-2-|-------------------|
|
| Gtr II
|                   PM|   PM  PM  PM------------|           PM--|    PM--|
|                                                 |-3-|
| E E E E E E E E   E E E E E E E E   S S E S S E Q Q Q   E E E E  E E E E
|-----------------|-----------------|-------------------|-------------------|
|-----------------|-----------------|-------------------|-------------------|
|-----------------|-----9-----------|-------------------|-7-------10--------|
|-4-4-4-4-4-5-4---|---------8---5---|-------------------|-0-0-0-0----0-0-0--|
|---------------7-|-----------------|-------------2-5-4-|-------------------|
|-----------------|-0-0---0---0---0-|-0-0-0-0-0-0-0-3-2-|-------------------|


     PM--|            PM--|    PM--|      PM--|           PM--|    PM--|
   E E E E  Q  Q    E E E E  E E E E    E E E E Q  Q    E E E E  E E E E
|-10--------------|---------13-------|-12-------------|---------10-------|
|--9--------------|---------10-------|--9-------------|----------9-------|
|-----------9--7--|-7----------------|----------------|-7----------------|
|----0-0-0-10--8--|-7-0-0-0----0-0-0-|----0-0-0-7--5--|-7-0-0-0----0-0-0-|
|-----------------|------------------|----------------|------------------|
|-----------------|------------------|----------------|------------------|
|
|    PM--|            PM--|    PM--|      PM--|           PM--|    PM--|
|  E E E E  Q  Q    E E E E  E E E E    E E E E Q  Q    E E E E  E E E E
|-----------------|------------------|----------------|------------------|
|-----------------|------------------|----------------|------------------|
|--7--------5-----|-7----------------|----------------|-7-------10-------|
|----0-0-0-----8--|---0-0-0--8-0-0-0-|--6-0-0-0-7--5--|-0-0-0-0----0-0-0-|
|-----------------|------------------|----------5--3--|------------------|
|-----------------|------------------|----------------|------------------|


                    D5    Bb     E/Ab       N.C.
     PM--|
   E E E E  Q  Q     H    H      W           E  E  E  E  E  E  E  E
|-10--------------|------------|----------|----------------------13-|
|--9--------------|-10---------|----------|----------15-------------|
|-----------9--7--|--7----7----|-9--------|----12-14-------12-14----|
|----0-0-0-10--8--|-------8----|-6--------|-12----------12----------|
|-----------------|------------|----------|-------------------------|
|-----------------|------------|----------|-------------------------|
|
|    PM--|                                      PM---|      PM---|
|  E E E E  Q  Q     H    H      W           E  E  E  E  E  E  E  E
|-----------------|------------|----------|-------------------------|
|-----------------|------------|----------|-------------------------|
|--7--------5-----|--7---------|----------|--7----------10----------|
|----0-0-0-----8--|-------8----|-6--------|-----0--0--0-----0--0--0-|
|-----------------|------------|----------|-------------------------|
|-----------------|------------|----------|-------------------------|


              C5    Bb5     N.C.
   E  E  E  E  E  E  E  E    E  E  E  E  E  E  E  E
|-------------------------|----------------------13-|
|----------15-13----------|----------15-------------|
|----12-14-------15-14-12-|----12-14-------12-14----|
|-12----------------------|-12----------12----------|
|-------------------------|-------------------------|
|-------------------------|-------------------------|
|
|     PM---|                    PM---|      PM---|
|  E  E  E  E  Q     Q       E  E  E  E  E  E  E  E
|-------------------------|-------------------------|
|-------------------------|-------------------------|
|--7----------------------|--7----------------------|
|-----0--0--0--5-----3----|-----0--0--0--8--0--0--0-|
|--------------3-----1----|-------------------------|
|-------------------------|-------------------------|


              D5    C5      N.C.
   E  E  E  E  E  E  E  E    E  E  E  E  E  E  E  E
|----------13-17-13-15----|----------------------13-|
|-------15-------------17-|----------15-------------|
|----14-------------------|----12-14-------12-14----|
|-12----------------------|-12----------12----------|
|-------------------------|-------------------------|
|-------------------------|-------------------------|
|
|     PM---|                    PM---|      PM---|
|  E  E  E  E  Q     Q       E  E  E  E  E  E  E  E
|-------------------------|-------------------------|
|-------------------------|-------------------------|
|-------------------------|--7----------10----------|
|-10--0--0--0--7-----5----|-----0--0--0-----0--0--0-|
|--------------5-----3----|-------------------------|
|-------------------------|-------------------------|


              C5    Bb5     N.C.
   E  E  E  E  E  E  E  E    E  E  E  E  E  E  E  E
|-------------------------|----------------------13-|
|----------15-13----------|----------15-------------|
|----12-14-------15-14-12-|----12-14-------12-14----|
|-12----------------------|-12----------12----------|
|-------------------------|-------------------------|
|-------------------------|-------------------------|
|
|     PM---|                    PM---|      PM---|
|  E  E  E  E  Q     Q       E  E  E  E  E  E  E  E
|-------------------------|-------------------------|
|-------------------------|-------------------------|
|--7----------------------|--7----------------------|
|-----0--0--0--5-----3----|-----0--0--0--8--0--0--0-|
|--------------3-----1----|-------------------------|
|-------------------------|-------------------------|


              D5    C5      A5       G5
                            PM--|    PM--|
   E  E  E  E  E  E  E  E   E E E  E E E E E
|----------13-17-13-15----|----------------8-|
|-------15-------------17-|-------10---------|
|----14-------------------|---7-9------7-9---|
|-12----------------------|-7--------7-------|
|-------------------------|------------------|
|-------------------------|------------------|
|
|     PM---|
|  E  E  E  E  Q     Q      H        H
|-------------------------|------------------|
|-------------------------|------------------|
|-------------------------|-2----------------|
|-10--0--0--0--7-----5----|-2--------5-------|
|--------------5-----3----|-0--------5-------|
|-------------------------|----------3-------|


  F5                  A5       E5  F5
  PM--|               PM--|    PM--|
  E E E  E E  E E E   E E E  E E E E E
|-------------------|----------------8-|
|-------10-8--------|-------10---------|
|---7-9------10-9-7-|---7-9------7-9---|
|-7-----------------|-7--------7-------|
|-------------------|------------------|
|-------------------|------------------|
|
| W                   H        Q   Q
|-------------------|------------------|
|-------------------|------------------|
|-------------------|-2----------------|
|-3-----------------|-2--------2---3---|
|-3-----------------|-0--------2---3---|
|-1-----------------|----------0---1---|


  G5                    F5       G5
  PM--|                 PM--|    PM--|
  E E  E E  E E  E  E   E E E  E E E E E
|--------8-12-8-10----|----------------8-|
|-----10-----------12-|-------10---------|
|---9-----------------|---7-9------7-9---|
|-7-------------------|-7--------7-------|
|---------------------|------------------|
|---------------------|------------------|
|
| W                     H        H
|---------------------|------------------|
|---------------------|------------------|
|---------------------|------------------|
|-5-------------------|-3--------5-------|
|-5-------------------|-3--------5-------|
|-3-------------------|-1--------3-------|


                                                              Chorus
  A5                  F5       C5  D5    E5       C5   D5      A5      G5
  PM--|               PM--|    PM--|     PM--|
  E E E  E E  E E E   E E E  E E E E E   E E  E E  E E  E  E   E E E E E E E E
|-------------------|----------------8-|--------8-12-8-10----|-----------------|
|-------10-8--------|-------10---------|-----10-----------12-|-----------------|
|---7-9------10-9-7-|---7-9------7-9---|---9-----------------|-9-9-9-9-7-7-5-7-|
|-7-----------------|-7--------7-------|-7-------------------|-7-7-7-7-5-5-5-5-|
|-------------------|------------------|---------------------|-----------------|
|-------------------|------------------|---------------------|-----------------|
|
| W                   H        Q   Q     H         Q    Q      E E E E E E E E
|-------------------|------------------|---------------------|-----------------|
|-------------------|------------------|---------------------|-----------------|
|-2-----------------|----------5---7---|-9-------------------|-9-9-9-9-7-7-7-7-|
|-2-----------------|-3--------5---7---|-9---------5----7----|-7-7-7-7-5-5-5-5-|
|-0-----------------|-3--------3---5---|-7---------3----5----|-----------------|
|-------------------|-1----------------|---------------------|-----------------|


  A5  AsusG5        A5      F/A           A5      G5          A5      E5  F5
  E E E E E E E E   E E E E  E  E  E  E   E E E E  H          E E E E E E E E
|-----------------|---------------------|-------------------|-----------------|
|-----------------|---------------------|-----8-------------|-----------------|
|-9-9-7-7-7-7-7-7-|-------4--5--4--5--7-|-9-x---9-[7]-------|-9-9-9-9-4-4-5-5-|
|-7-7-7-7S5-5-5-5-|-x---7---------------|-------------------|-7-7-7-7-2-2-3-3-|
|-----------------|---7-----------------|-------------------|-----------------|
|-----------------|---------------------|-------------------|-----------------|
|
| E E E E E E E E   E E E E  E  E  E  E   E E E E  E  E E E   E E E E E E E E
|-----------------|---------------------|-------------------|-----------------|
|-----------------|---------------------|-------------------|-----------------|
|-9-9-7-7-7-7-7-7-|-9-9-9-9-10-10-10-10-|-9-9-9-9--7--7-7-7-|-9-9-9-9-4-4-5-5-|
|-7-7-7-7-5-5-5-5-|-7-7-7-7--7--7--7--7-|-7-7-7-7--5--5-5-5-|-7-7-7-7-2-2-3-3-|
|-----------------|---------------------|-------------------|-----------------|
|-----------------|---------------------|-------------------|-----------------|


  G5                A5      F5        C5      D5         G5       C5
                    PM                                      PM       PM
  E E E E E E E E   E E E E E E E E   E E E E E E  E E   E  E E E  E E E  E
|-----------------|-----------------|------------------|--------------------|
|---------8-------|-----------------|------------------|--------------------|
|-7-7-7-7-----7---|-------4-5-4---4-|-5-5-7-9-7---10-9-|-7----9-7------7----|
|-5-5-5-5---5---5-|-7---7-------7---|-----------7------|----------10-----10-|
|-----------------|---7-------------|------------------|---10--------8------|
|-----------------|-----------------|------------------|--------------------|
|
| E E E E E E E E   H       H         H       H          H         H
|-----------------|-----------------|------------------|--------------------|
|-----------------|-----------------|------------------|--------------------|
|-7-7-7-7-7-7-7-7-|-9-------5-------|------------------|-----------5--------|
|-5-5-5-5-5-5-5-5-|-7-------3-------|-5-------7--------|-5---------5--------|
|-----------------|-----------------|-3-------5--------|-5---------3--------|
|-----------------|-----------------|------------------|-3------------------|


  D5      E5         G5       C5
        PM--|           PM       PM
  E E E E E E  E E   E  E E E  E E E  E
|------------------|--------------------|
|------------------|--------------------|
|-------------10-9-|-7----9-7------7----|
|-9-7-6------------|----------10-----10-|
|-------8-7-5------|---10--------8------|
|------------------|--------------------|
|
| H       H          H         H
|------------------|--------------------|
|------------------|--------------------|
|-7-------9--------|-----------5--------|
|-7-------9--------|-5---------5--------|
|-5-------7--------|-5---------3--------|
|------------------|-3------------------|


                   Guitar Solo
  D5      E5        A5             G5    C5
        PM------|
  E E E E E E E E    E  E  E  E  E  E  E  E
|-----------------|-17-------------------19-|
|-----------------|----17-17-20-20----------|
|-----------------|----------------19-19----|
|-9-7-6-----------|-------------------------|
|-------8-7-5-----|-------------------------|
|-------------8-7-|-------------------------|
|
| H       H          Q     Q     E  E  E  E
|-----------------|-------------------------|
|-----------------|-------------------------|
|-7-------9-------|-------------------------|
|-7-------9-------|-----------------------5-|
|-5-------7-------|--7--------------5-----3-|
|-----------------|--5--------------3-------|


                      G5    A5                                G5         C5
                                  |----3----|  |--3---|  |---3---|  |---3---|
   E      E  E   E  E  E  E  E    E      E  E  E   E  E  E  E    E  E  E    E
|-20-----17-17--19-19-15-15-17-|-17-----12-----------12-15-12--------------12-|
|------------------------------|-----------13-----13------------13----13------|
|------------------------------|--------------14-------------------12---------|
|------------------------------|----------------------------------------------|
|------------------------------|----------------------------------------------|
|------------------------------|----------------------------------------------|
|
| +S  E.     Q.        E  E  E   +S  E.        Q.             E     E    E
|------------------------------|----------------------------------------------|
|------------------------------|----------------------------------------------|
|------------------------------|----------------------------------------------|
|-(5)--------------------------|-----------------------------------------5----|
|-(3)------------------5-----7-|-(7)--------------------------5----------3----|
|----------------------3-----5-|-(5)--------------------------3---------------|


                                 G5
   |----3----|  |--3--|  |--3--|
   E      E  E  E  E  E  E  E  E  Q
|-15-----12----------12-13-12--------|
|-----------13----13----------13-----|
|--------------14----------------12--|
|------------------------------------|
|------------------------------------|
|------------------------------------|
|
| +S  E.        H                 Q
|------------------------------------|
|------------------------------------|
|------------------------------------|
|-(5)--------------------------------|
|-(3)-----------------------------5--|
|---------------------------------3--|


  A5       G5               A5       E5
   E  E  E  E  +E   E  Q     E  E  E  E  +E   E  Q
|-20-22-24-22-(22)-20-19--|-24-22-20-22-(22)-20-19--|
|-------------------------|-------------------------|
|-------------------------|-------------------------|
|-------------------------|-------------------------|
|-------------------------|-------------------------|
|-------------------------|-------------------------|
|
|  Q     E  E  +Q      Q     Q     E  E  +Q      Q
|-------------------------|-------------------------|
|-------------------------|-------------------------|
|-------------------------|-------------------------|
|-------------------------|-------------------------|
|--7--------5--(5)--------|--7--------2--(2)--------|
|--5--------3--(3)--------|--5--------0--(0)--------|


  F5             G5               A5
                                              ~~~
   |--3--|  |---3---|  |---3----|  |--3--|
   E  E  E  E  E    E  E   E    E  E  E  E    W
|------------------------------------------|-17-------------|
|---------------------------------13-15-17-|----------------|
|---------------------12--14---16----------|----------------|
|----------12-14---15----------------------|----------------|
|-12-14-15---------------------------------|----------------|
|------------------------------------------|----------------|
|
|  Q        E    E    +E     E     Q         +Q   Q   Q  Q
|------------------------------------------|----------------|
|------------------------------------------|----------------|
|------------------------------------------|----------------|
|------------------------------------------|----------------|
|--3-------------5----(5)----------7-------|-(7)------------|
|--1-------------3----(3)----------5-------|-(5)--5S=17S=5--|


 Keyboard Solo
  C5                             B5          A5
  Gtrs I, II
   Q           Q.                 E     E     E
|--------------------------------------------------|
|--------------------------------------------------|
|--------------------------------------------------|
|--6------------------------------4-----------2----|
|--4------------------------------2-----------0----|
|--------------------------------------------------|
|
| Gtr III
|  S  S  S  S  S   S  S  S  S  S  S  S  S  S  S  S
|-24-22-20-19-24--22-20-19-22-20-19-17-24-22-20-19-|
|--------------------------------------------------|
|--------------------------------------------------|
|--------------------------------------------------|
|--------------------------------------------------|
|--------------------------------------------------|


                                   B5          C#5
  +S   E.        Q.                 E     E     E
|----------------------------------------------------|
|----------------------------------------------------|
|----------------------------------------------------|
|-(2)-------------------------------4-----------6----|
|-(0)-------------------------------2-----------4----|
|----------------------------------------------------|
|
|  S   S   S  S  S   S  S  S  S  S  S  S  S  S  S  S
|-23--22--21-20-24--23-22-20-26-25-24-22-25-23-22-20-|
|----------------------------------------------------|
|----------------------------------------------------|
|----------------------------------------------------|
|----------------------------------------------------|
|----------------------------------------------------|


                                   B5          G5
  +S   E.        Q.                 E     E     E
|----------------------------------------------------|
|----------------------------------------------------|
|----------------------------------------------------|
|-(6)-------------------------------4----------------|
|-(4)-------------------------------2-----------5----|
|-----------------------------------------------3----|
|
|  S   S   S  S  S   S  S  S  S  S  S  S  S  S  S  S
|-24--23--22-20-19--24-23-22-21-20-21-25-29-27-26-25-|
|----------------------------------------------------|
|----------------------------------------------------|
|----------------------------------------------------|
|----------------------------------------------------|
|----------------------------------------------------|


                                   B5         C#5                            B5         A5
  +S   E.        Q.                 E     E   E     +S  E.     Q.             E    E     E
|-------------------------------------------------|-------------------------------------------|
|-------------------------------------------------|-------------------------------------------|
|-------------------------------------------------|-------------------------------------------|
|-----------------------------------4---------6---|-(6)-----------------------4----------2----|
|-(5)-------------------------------2---------4---|-(4)-----------------------2----------0----|
|-(3)---------------------------------------------|-------------------------------------------|
|
|  S   S   S  S  S   S  S  S  S  S  S  S  S S S S    S  S  S S S  S S S S  S  S S  S  S  S  S
|-24--22--20-17-----------------------------------|-------------------------------------------|
|---------------17--16-15-14----------------------|-------------------------------------------|
|----------------------------15-14-13-12-10-9-7-6-|--4--3--6-6-8--9-7-8-9-10-11-9-12-13-14-15-|
|-------------------------------------------------|-------------------------------------------|
|-------------------------------------------------|-------------------------------------------|
|-------------------------------------------------|-------------------------------------------|


                                   B5          C#5
  +S   E.        Q.                 E     E     E
|---------------------------------------------------------|
|---------------------------------------------------------|
|---------------------------------------------------------|
|-(2)-------------------------------4-----------6---------|
|-(0)-------------------------------2-----------4---------|
|---------------------------------------------------------|
|
|  S   S   S  S  S   S  S  S  S  S  S  S  S  S  S     +S
|---------------------------------------------------------|
|---------------10--11-12-14-12-13-14-15------------------|
|-13--16--17-18--------------------------20-21-18b20r(18)-|
|---------------------------------------------------------|
|---------------------------------------------------------|
|---------------------------------------------------------|


               E5   A5
  +S  E.  Q.    E E  E    +H        H
|----------------------|------------------|
|----------------------|------------------|
|----------------------|-----------[2]----|
|-(6)-----------9----2-|--(2)-------------|
|-(4)-----------7----0-|--(0)-------------|
|----------------------|------------------|
|
|                                   ~~~
|  Q      Q.    Q    E    +Q    Q   H
|--------------21---23-|-(23)--24--26-----|
|--------21------------|------------------|
|-18-------------------|------------------|
|----------------------|------------------|
|----------------------|------------------|
|----------------------|------------------|


 Guitar Solo
  E5                  D5 C5                              E5
  Gtr I
   H          Q        E  E       +Q     Q    S  S  S  S  S  S  S  S
|------------------------------|----------------------------------17-|
|-15---------15----------15b17-|-(15)---17------------15-17-19-20----|
|-14b16------14b16rp==12-------|-------------14-16-17----------------|
|------------------------------|-------------------------------------|
|------------------------------|-------------------------------------|
|------------------------------|-------------------------------------|
|
| Gtr II
|  Q     E E  E     E  E  E       +E  E  E E  E     E     E     E
|------------------------------|-------------------------------------|
|------------------------------|-------------------------------------|
|--9-----9-9--9-----9--7--5----|--(5)-5--5-5--5-----5-----7-----7----|
|--9-----9-9--9-----9--7--5----|--(5)-5--5-5--5-----5-----7-----7----|
|--7-----7-7--7-----7--5--3----|--(3)-3--3-3--3-----3-----5-----5----|
|------------------------------|-------------------------------------|


  E5        C5    D5                             G     F     E     D
   Q   E  E  E  E  E  E    +E   S  S  S  S  S  S  S  S  S  S  S  S  S  S
|-19--19-19----------17-|-(17)-20-19-17-20-19-17-------------------------|
|-----------20-17-20----|------------------------20-19-17-20-19-17-------|
|-----------------------|------------------------------------------19-17-|
|-----------------------|------------------------------------------------|
|-----------------------|------------------------------------------------|
|-----------------------|------------------------------------------------|
|
|  Q   E  E  E  E  E  E    +E   E     E     E     E     E     E     E
|-----------------------|------------------------------------------------|
|-----------------------|------------------------------------------------|
|--9---9--9--5--5--x--7-|--(7)--7-----7-----7----------------------------|
|--9---9--9--5--5--x--7-|--(7)--7-----7-----7----------------------------|
|--7---7--7--3--3--x--5-|--(5)--5-----5-----5----10-----9-----7-----5----|
|-----------------------|------------------------------------------------|


  E5                D5 C5                                        D5
   E  E  E  E  E  E  E  E    S   S  S  S  S  S  S  S  S  S  S  S  S  S  S  S
|-------19-------22-24-19-|-22--19----19-22-19-22-19----19-22-19-22-19-19-19-|
|----17----15-17----------|--------23----------------23----------------------|
|-16----------------------|--------------------------------------------------|
|-------------------------|--------------------------------------------------|
|-------------------------|--------------------------------------------------|
|-------------------------|--------------------------------------------------|
|
|  Q     E  E  E  E  E  E   +E      E     E     E     E     E     E     E
|-------------------------|--------------------------------------------------|
|-------------------------|--------------------------------------------------|
|--9-----9--9--9--9--7--5-|-(5)-----5-----5-----5-----5-----5-----7-----7----|
|--9-----9--9--9--9--7--5-|-(5)-----5-----5-----5-----5-----5-----7-----7----|
|--7-----7--7--7--7--5--3-|-(3)-----3-----3-----3-----3-----3-----5-----5----|
|-------------------------|--------------------------------------------------|


  E5                            G5    D5
   S  S  S  S  S  S  S  S  S  S  S  S  S  S  S  S
|-22-18-19-22-19-18-------------------------------|
|-------------------20-19-17-19-20-19-17----------|
|----------------------------------------19-17-16-|
|-------------------------------------------------|
|-------------------------------------------------|
|-------------------------------------------------|
|
|  E     E     E     E     E     E     E     E
|-------------------------------------------------|
|-------------------------------------------------|
|--9-----9-----9-----9-----9----12-----x-----7----|
|--9-----9-----9-----9-----9----12-----x-----7----|
|--7-----7-----7-----7-----7----10-----x-----5----|
|-------------------------------------------------|


   S   S  S  S  S  S  S  S  S  S  S  S  S  S  S  S
|--------------------------------------------------|
|--------------------------------------------17-19-|
|-17--19-17-16-17-16----------------16-17-19-------|
|--------------------19-17-16-17-19----------------|
|--------------------------------------------------|
|--------------------------------------------------|
|
| +E      E     E     E     E     E     E     E
|--------------------------------------------------|
|--------------------------------------------------|
|-(7)-----7-----7-----7-----7-----7-----7-----7----|
|-(7)-----7-----7-----7-----7-----7-----7-----7----|
|-(5)-----5-----5-----5-----5-----5-----5-----5----|
|--------------------------------------------------|


  E5       D5              E5                    B5
                            |------3-------|
   Q.       E     +H        E     +E      +E   E  E  +E   E  E  E
|--0---------------------|----------------------------------------|
|-22b24r===24b27-(24)----|-------------------------------------12-|
|------------------------|-14b16r(14)b16-(14)-14---------12-14----|
|------------------------|-----------------------14-(14)----------|
|------------------------|----------------------------------------|
|------------------------|----------------------------------------|
|
|  Q     E  E     +H        Q                  E  E  +H
|------------------------|----------------------------------------|
|------------------------|----------------------------------------|
|------------------------|----------------------------------------|
|--9--------7-----(7)----|--9---------------------4--(4)----------|
|--7--------5-----(5)----|--7---------------------2--(2)----------|
|------------------------|----------------------------------------|


  C5        D5           E5
                          ~~~~~~~~~~~~~~~~~~~
   Q      E  Q         E  Q     +Q    H.
|------------------------17--|-(17)--15pb19r====|
|-----------15b17r===========|==================|
|-14b16r=12-----------16-----|------------------|
|----------------------------|------------------|
|----------------------------|------------------|
|----------------------------|------------------|
|
|  Q      E  E    +E   E  Q     +W
|----------------------------|------------------|
|----------------------------|------------------|
|----------------------------|------------------|
|--5---------7----(7)-----9--|--(9)-------------|
|--3---------5----(5)-----7--|--(7)-------------|
|----------------------------|------------------|


 Interlude
  N.C.
   E  E  E  E  E  E  E  E    +E   E  E  E  E  E  E  E
|----------------------10-|-(10)-10-------------------|
|-12-12-10----10-12-------|---------12-10-12-10----10-|
|----------12-------12----|---------------------12----|
|-------------------------|---------------------------|
|-------------------------|---------------------------|
|-------------------------|---------------------------|
|
|  E  E  E  E  E  E  E  E    +E   E  E  E  E  E  E  E
|-------------------------|---------------------------|
|-------12-------15-------|---------15----------15----|
|--9--9-----9-11----12-12-|-(12)-12----12-11-11----11-|
|-------------------------|---------------------------|
|-------------------------|---------------------------|
|-------------------------|---------------------------|


   E  E  E  E  E  E  E  E    +E   E  E  E  E  E  E  E
|----------------------10-|-(10)-10-------------------|
|-12-12-10----10-12-------|---------12-10-12-10----10-|
|----------12-------12----|---------------------12----|
|-------------------------|---------------------------|
|-------------------------|---------------------------|
|-------------------------|---------------------------|
|
|  E  E  E  E  E  E  E  E    +E   E  E  E  E  E  E  E
|-------------------------|---------------------------|
|-------12-------15-------|---------15----------15----|
|--9--9-----9-11----12-12-|-(12)-12----12-11-11----11-|
|-------------------------|---------------------------|
|-------------------------|---------------------------|
|-------------------------|---------------------------|


   E  E  E  E  E  E  E  E    +E   E  E  E  E  E  E  E
|----------------------10-|-(10)-10-------------------|
|-12-12-10----10-12-------|---------12-10-12-10----10-|
|----------12-------12----|---------------------12----|
|-------------------------|---------------------------|
|-------------------------|---------------------------|
|-------------------------|---------------------------|
|
|  E  E  E  E  E  E  E  E    +E   E  E  E  E  E  E  E
|-------------------------|---------------------------|
|-------12-------15-------|---------15----------15----|
|--9--9-----9-11----12-12-|-(12)-12----12-11-11----11-|
|-------------------------|---------------------------|
|-------------------------|---------------------------|
|-------------------------|---------------------------|


   E  E  E  E  E  E  E  E    +E   E  E  E  E  E  E  E
|----------------------10-|-(10)-10-------------------|
|-12-12-10----10-12-------|---------12-10-12-10----10-|
|----------12-------12----|---------------------12----|
|-------------------------|---------------------------|
|-------------------------|---------------------------|
|-------------------------|---------------------------|
|
|  E  E  E  E  E  E  E  E    +E   E  E  E  E  E  E  E
|-------------------------|---------------------------|
|-------12-------15-------|---------15----------15----|
|--9--9-----9-11----12-12-|-(12)-12----12-11-11----11-|
|-------------------------|---------------------------|
|-------------------------|---------------------------|
|-------------------------|---------------------------|


 Outro
   E  E  E  E  E  E  E  E    +E   E  E  E  E  E  E  E
|----------------------13-|-(13)-13-------------------|
|-15-15-13----13-15-13----|---------15-13-15-13----13-|
|----------15-------------|---------------------15----|
|-------------------------|---------------------------|
|-------------------------|---------------------------|
|-------------------------|---------------------------|
|
|  E  E  E  E  E  E  E  E    +E   E  E  E  E  E  E  E
|-------------------------|---------------------------|
|-------15-------18-------|---------18----------18----|
|-12-12----12-14----14-15-|-(15)-15----15-14-14----14-|
|-------------------------|---------------------------|
|-------------------------|---------------------------|
|-------------------------|---------------------------|


   E  E  E  E  E  E  E  E    +E   E  E  E  E  E  E  E
|----------------------13-|-(13)-13-------------------|
|-15-15-13----13-15-13----|---------15-13-15-13----13-|
|----------15-------------|---------------------15----|
|-------------------------|---------------------------|
|-------------------------|---------------------------|
|-------------------------|---------------------------|
|
|  E  E  E  E  E  E  E  E    +E   E  E  E  E  E  E  E
|-------------------------|---------------------------|
|-------15-------18-------|---------18----------18----|
|-12-12----12-14----14-15-|-(15)-15----15-14-14----14-|
|-------------------------|---------------------------|
|-------------------------|---------------------------|
|-------------------------|---------------------------|


   E  E  E  E  E  E  E  E    +E   E  E  E  E  E  E  E
|----------------------13-|-(13)-13-------------------|
|-15-15-13----13-15-13----|---------15-13-15-13----13-|
|----------15-------------|---------------------15----|
|-------------------------|---------------------------|
|-------------------------|---------------------------|
|-------------------------|---------------------------|
|
|  E  E  E  E  E  E  E  E    +E   E  E  E  E  E  E  E
|-------------------------|---------------------------|
|-------15-------18-------|---------18----------18----|
|-12-12----12-14----14-15-|-(15)-15----15-14-14----14-|
|-------------------------|---------------------------|
|-------------------------|---------------------------|
|-------------------------|---------------------------|


                             ~~~
   E  E  E  E  E  E  E  E    Q   Q  H
|-------------------------|--------------*|
|-15-11-------------------|--------------*|
|-------12-------12-------|--------------*|
|----------14-11----14-11-|-14\----------*|
|-------------------------|--------------*|
|-------------------------|--------------*|
|
|                            ~~~
|  E  E  E  E  E  E  E  E    Q   Q  H
|-------------------------|--------------*|
|-20----------------------|--------------*|
|----19-------------------|--------------*|
|-------20-17----20-17----|-17\----------*|
|-------------19-------19-|--------------*|
|-------------------------|--------------*|


Duration Legend
---------------
W - whole; H - half; Q - quarter; E - 8th; S - 16th; T - 32nd; X - 64th; a - acciaccatura
+ - note tied to previous; . - note dotted; .. - note double dotted
Uncapitalized letters represent notes that are staccato (1/2 duration)
Irregular groupings are notated above the duration line
Duration letters will always appear directly above the note/fret number it represents the
duration for.  Duration letters with no fret number below them represent rests.  Multi-
bar rests are notated in the form Wxn, where n is the number of bars to rest for.  Low
melody durations appear below the staff

Tablature Legend
----------------
 h   - hammer-on
 p   - pull-off
 b   - bend
 pb  - pre-bend
 r   - bend release (if no number after the r, then release immediately)
 /\  - slide into or out of (from/to "nowhere")
 s   - legato slide
 S   - shift slide
  - natural harmonic
[n]  - artificial harmonic
n(n) - tapped harmonic
 ~   - vibrato
 tr  - trill
 T   - tap
 TP  - trem. picking
 PM  - palm muting
\n/  - tremolo bar dip; n = amount to dip
 \n  - tremolo bar down
 n/  - tremolo bar up
/n\  - tremolo bar inverted dip
 =   - hold bend; also acts as connecting device for hammers/pulls
 <>  - volume swell (louder/softer)
 x   - on rhythm slash represents muted slash
 o   - on rhythm slash represents single note slash

Misc Legend
-----------
 |  - bar
||  - double bar
||o - repeat start
o|| - repeat end
*|  - double bar (ending)
 :  - bar (freetime)
 $  - Segno
 &  - Coda
Tempo markers -  = BPM(8/16=s8/s16), where s8 = swing 8ths, s16 = swing 16ths
comments
print report bad tab
7 comments total. Showing first comments.
0 reply
Empo wrote on March 9 2007, 09:32 am

Pretty good tab!! Keep going!!

0 reply
drshock wrote on May 31 2007, 07:15 am

shit, how long did it take u to compose this tab?

0 reply
metallicax6 wrote on August 21 2007, 12:37 am

WHO the HELL would give this 4*?!?!? It's DEFINETLY 5*.
COBHC!!!
|..| -_- |..|
Keep it metal. \m/

I want to post or [tab]
guest
You may want to rate the tab now too:
select rating
Please do not post tabs as comments. Select "correction" instead!