Oops, an error
Loading. Please wait.

Four Seasons - Summer 3 Tab

ver1
ver1

Whole song

Interactive

More versions @911Tabs.com
1,395 views 9 this week
no commentswrite comment
1 2 3 4 5
please rate
Autoscroll
+/-
esc
set tempo
stop
Contributor
Tuning
C G C F A D
Hey! There's an official Ultimate Guitar app which is ideal
for learning songs when you're away from computer. Get the app
WARNING: You are trying to view
                                    content from Ultimate-Guitar.com
                                    in an unauthorized application,
                                    which is prohibited.

                                    Please use an official Ultimate
                                    Guitar Tabs application for iPhone,
                                    iPad or Android to access legitimate
                                    chords, guitar, bass, and drum tabs
                                    from Ultimate-Guitar.com database.

                                    Type "ultimate guitar tabs" in Apple
                                    App Store's or Android Market's
                                    search to find the application.
   Vivaldi Four Seasons-Summer 3(Children Of Bodom version)             


                                                               Children Of Bodom
Roope



      S S S S S S S S S S S S     S S S S S S S S S S S S  
D||---------------------------|---------------------------|
A||---------------------------|---------------------------|
F||--12-0-0-0-0-0-0-0-0-0-0-0-|--10-0-0-0-0-0-0-0-0-0-0-0-|
C||---------------------------|---------------------------|
G||---------------------------|---------------------------|
C||---------------------------|---------------------------|


  S S S S S S S S S S S S    S S S S S S S S Q       E  E  E   
--------------------------|-----------------------|-----------|
--------------------------|-----------------------|-----------|
--8-0-0-0-0-0-0-0-0-0-0-0-|--7-0-0-0-0-0-0-0-0----|-----------|
--------------------------|-----------------------|-----------|
--------------------------|-----------------------|-----------|
--------------------------|-----------------------|-----------|


   S S S S S S S S S S S S     S S S S S S S S S S S S  
---------------------------|---------------------------|
---------------------------|---------------------------|
---------------------------|---------------------------|
--12-0-0-0-0-0-0-0-0-0-0-0-|--10-0-0-0-0-0-0-0-0-0-0-0-|
---------------------------|---------------------------|
---------------------------|---------------------------|


  S S S S S S S S S S S S    S S S S S S S S Q       E  E  E   
--------------------------|-----------------------|-----------|
--------------------------|-----------------------|-----------|
--------------------------|-----------------------|-----------|
--8-0-0-0-0-0-0-0-0-0-0-0-|--7-0-0-0-0-0-0-0-0----|-----------|
--------------------------|-----------------------|-----------|
--------------------------|-----------------------|-----------|


  S  S S S  S S S S S S S S    S S S S S S S S S S S S  
----10-8-6------------------|--------------------------|
-----------10-8-7-----------|--------------------------|
------------------9-7-5-----|--------------------------|
------------------------8-7-|--5-5-5-5-5-5-5-5-5-5-5-5-|
----------------------------|--------------------------|
----------------------------|--------------------------|


  S  S  S  S  S  S  S  S  S  S  S  S     S  S  S  S  S  S  S  S  S  S  S  S  
----15-13-11-------------------------|--------------------------------------|
-------------15-13-11----------------|--------------------------------------|
----------------------14-12-10-------|--------------------------------------|
--5----------------------------13-12-|--10-10-10-10-10-10-10-10-10-10-10-10-|
-------------------------------------|--------------------------------------|
-------------------------------------|--------------------------------------|


   S  S  S  S  S  S  S  S  S  S  S  S     S  S  S  S  S  S  S  S  S  S  S  S  
-----18-17-15-------------------------|--------------------------------------|
--------------18-16-15----------------|--------------------------------------|
-----------------------17-15-14-------|--------------------------------------|
--10----------------------------17-15-|--13-13-13-13-13-13-13-13-13-13-13-13-|
--------------------------------------|--------------------------------------|
--------------------------------------|--------------------------------------|


   S  S  S  S  S  S  S  S  S  S  S  S     S  S  S  S  S  S  S  S  S  S  S  S  
-----22-20-18-------------------------|--------------------------------------|
--------------22-20-19----------------|--------------------------------------|
-----------------------21-19-17-------|--------------------------------------|
--13----------------------------20-19-|--17-17-17-17-17-17-17-17-17-17-17-17-|
--------------------------------------|--------------------------------------|
--------------------------------------|--------------------------------------|


   S  S  S  S  S  S  S  S  S  S  S  S     S  S  S  S  S  S  S  S  S  S  S  S  
-----22-20-18-------------------------|--------------------------------------|
--------------22-20-19----------------|--------------------------------------|
-----------------------21-19-17-------|--------------------------------------|
--17----------------------------20-19-|--17-17-17-17-17-17-17-17-17-17-17-17-|
--------------------------------------|--------------------------------------|
--------------------------------------|--------------------------------------|


   S  S  S  S  S  S  S  S  S  S  S  S    S  S  S  S  S  S  S  S  E  E   
--------------------------------------|--------------------------------|
--------------------------------------|--------------------------------|
--19----------19----------19----------|----------------------17-19-----|
-----17-17-17----17-17-17----17-17-17-|-------------17-19-20-----------|
--------------------------------------|----17-19-21--------------------|
--------------------------------------|--------------------------------|


  S  S  S  S  S  S  S  S  E  E     S  S  S  S  S  S  S  S  E  E   
--------------------------------|-------------------15-17-18-----|
--------------------------------|-------------17-19--------------|
----------------------17-19-----|----15-17-19--------------------|
-------------17-19-20-----------|--------------------------------|
----17-19-21--------------------|--------------------------------|
--------------------------------|--------------------------------|


  S  S  S  S  S  S  S  S  E  E     S  S  S  S  S  S  S  S  E  E   
----------------------20-22-----|----------------------20-22-----|
-------------20-22-23-----------|-------------20-22-23-----------|
----19-21-23--------------------|----19-21-23--------------------|
--------------------------------|--------------------------------|
--------------------------------|--------------------------------|
--------------------------------|--------------------------------|


  S  S  S  S  S  S  S  S  E  E     S  S  S  S  S  S  S  S  E  E   
--------------------------------|-------------------15-17-18-----|
--------------------------------|-------------17-19--------------|
----------------------17-19-----|----15-17-19--------------------|
-------------17-19-20-----------|--------------------------------|
----17-19-21--------------------|--------------------------------|
--------------------------------|--------------------------------|


  S  S  S  S  S  S  S  S  E  E      S  S  S  S  S  S  S  S  S  S  S  S  
----------------------20-22-----|--18-------18-18-------18-18-------18-|
-------------20-22-23-----------|-----20-20-------20-20-------20-20----|
----19-21-23--------------------|--------------------------------------|
--------------------------------|--------------------------------------|
--------------------------------|--------------------------------------|
--------------------------------|--------------------------------------|


  S S S S S S S S S S S S    S S S S S S S S S S S S  
--------6-------6-------6-|--------3-------3-------3-|
------8-------8-------8---|------3-------3-------3---|
----7-------7-------7-----|----3-------3-------3-----|
--8-------8-------8-------|--5-------5-------5-------|
--------------------------|--------------------------|
--------------------------|--------------------------|


  S S S S S S S S S S S S    S S S S S S S S S S S S  
----3---3---3---3---3---3-|----3---3---3---3---3---3-|
--3---3---3---3---3---3---|--4---4---4---4---4---4---|
--------------------------|--------------------------|
--------------------------|--------------------------|
--------------------------|--------------------------|
--------------------------|--------------------------|


  S S S S S S S S S S S S    S S S S S S S S S S S S  
----5---5---5---5---5---5-|----5---5---5---5---5---5-|
--5---5---5---5---5---5---|--6---6---6---6---6---6---|
--------------------------|--------------------------|
--------------------------|--------------------------|
--------------------------|--------------------------|
--------------------------|--------------------------|


  S S S S S S S S S S S S    S S S S S S S S S S S S    Q    Q    Q          
----5---5---5---5---5---5-|----5---5---5---5---5---5-|-----------------|----|
--5---5---5---5---5---5---|--5---5---5---5---5---5---|--3--------------|----|
--------------------------|--------------------------|-----------------|----|
--------------------------|--------------------------|-----------------|----|
--------------------------|--------------------------|-----------------|----|
--------------------------|--------------------------|-----------------|----|


  Q.      S  S  S  S  S  S     S  S S S  S  S S S  S  S S S  
---------------------------|--17--------15------------------|
---------------14-14-17-17-|-----10--------10-----18-10-----|
---------14-14-------------|--------7---------7---------7---|
---------------------------|--------------------------------|
---------------------------|--------------------------------|
---------------------------|--------------------------------|


   S  S S S  S  S S S  S  S S S     S  S S S  S  S S S  S  S S S  
----------------------15--------|--17--------15------------------|
--17-10-----18-10--------10-----|-----10--------10-----18-10-----|
--------7---------7---------7---|--------7---------7---------7---|
--------------------------------|--------------------------------|
--------------------------------|--------------------------------|
--------------------------------|--------------------------------|


   Q.      S  S  S  S  S  S     S  S S S  S  S S S  S  S S S  
----------------------17-17-|--22--------20--------18--------|
--17------------18-18-------|-----10--------10--------10-----|
--14------19-19-------------|--------7---------7---------7---|
--12------------------------|--------------------------------|
----------------------------|--------------------------------|
----------------------------|--------------------------------|


   S  S S S  S  S S S  S  S S S     S  S S S  S  S S S  S  S  S S  
--17--------19--------21--------|--22--------20--------18---------|
-----10--------10--------10-----|-----10--------10--------10------|
--------7---------7---------7---|--------7---------7--------------|
--------------------------------|----------------------------12---|
--------------------------------|---------------------------------|
--------------------------------|---------------------------------|


   Q.      S  S  S  S  S  S     S  S  S  S  S  S  S  S  S  S  S  S  
--17------17-17-15-15-13-13-|--------------------------------------|
----------------------------|--17-17-15-15-13-13-------------------|
--14------------------------|--------------------15-15-14-14-12-12-|
--12------------------------|--------------------------------------|
----------------------------|--------------------------------------|
----------------------------|--------------------------------------|


   S  S  S  S  S  S  S  S  S  S  S  S     S  S  S  S  S  S  S  S  S  S  S  S  
--------------------------------------|--------------------------------------|
--------------------------------------|--------------------------------------|
--------------------------------------|--14-14-13-13-14-14-13-13-14-14-------|
--15-15-14-14-12-12-------------------|--------------------------------15-15-|
--------------------15-15-13-13-12-12-|--------------------------------------|
--------------------------------------|--------------------------------------|


   S  S  S  S  S  S  S  S  S  S  S  S     E   E   E   E   E   E   
--------------------------------------|--------------------------|
--------------------------------------|--------------------------|
--12-12-------------------------------|--------------------------|
--------14-14-15-15-12-12-14-14-11-11-|--12--11--12--11--12--11--|
--------------------------------------|--------------------------|
--------------------------------------|--------------------------|


   E   E   E   E   E   E      E  E  E   E   E   E      E  E  E   E   E   E   
--------------------------|--13------------13--17--|--18------------15--18--|
--------------------------|--15--------15----------|--15--------15----------|
--------------------------|------------------------|------------------------|
--12--11--12--11--12--11--|------------------------|------------------------|
--------------------------|------------------------|------------------------|
--------------------------|------------------------|------------------------|


   E  E  E   E   E   E      E  E  E   E   E   E      E  E  E   E   E   E   
--18----------------18--|--17----------------17--|--17----------------17--|
---x------------20------|--18------------18------|--15--------15--18------|
--17--------17----------|--17--------17----------|--15--------------------|
------------------------|------------------------|------------------------|
------------------------|------------------------|------------------------|
------------------------|------------------------|------------------------|


   E  E  E   E   E   E      E  E  E   E   E   E      E  E  E   E   E   E   
--15----------------15--|--15----------------15--|--13----------------13--|
--16------------16------|--16------------16------|--12------------12------|
--15--------15----------|--17--------13----------|--12--------12----------|
------------------------|------------------------|------------------------|
------------------------|------------------------|------------------------|
------------------------|------------------------|------------------------|


   E  E  E   E   E   E      E  E  E   S  S  E  E   
--13----------------13--|--11-----------10-11-----|
--12------------12------|--13--------13-----------|
--12--------12----------|--12---------------------|
------------------------|-------------------------|
------------------------|-------------------------|
------------------------|-------------------------|


  S S  S  S  S  S S  S  E  E     S S  S  S  S  S S  S  E  E   
------------------8-10-11-----|------------------8-10-11-----|
------------10-12-------------|------------10-12-------------|
----8-10-12-------------------|----8-10-12-------------------|
------------------------------|------------------------------|
------------------------------|------------------------------|
------------------------------|------------------------------|


   S  S  S  S  S  S  S  S  S  S  S  S     S  S  S  S  S  S  S  S  S  S  S  S  
--------------------------------------|--------------------------------------|
-----13-11-13----13-11-13----13-11-13-|-----13-11-13----13-11-13----13-11-13-|
--12----------12----------12----------|--13----------13----------13----------|
--------------------------------------|--------------------------------------|
--------------------------------------|--------------------------------------|
--------------------------------------|--------------------------------------|


   S  S  S  S  S  S  S  S  S  S  S  S     S  S  S  S  S  S  S  S  S  S  S  S  
--------------------------------------|--------------------------------------|
--13-13-13-13-13-13-13-13-13-12-10-12-|--13----------------------------------|
--------------------------------------|--------------------------------------|
--------------------------------------|-----10-10-10-10-10-10-10-10-10-10-10-|
--------------------------------------|--------------------------------------|
--------------------------------------|--------------------------------------|


   S  S  S  S  S  S  S  S  S  S  S  S     S  S  S  S  S  S  S  S  S  S  S  S  
--------------------------------------|--------------------------------------|
--11----------------------------------|--------------------------------------|
--------------------------------------|--13----------------------------------|
-----10-10-10-10-10-10-10-10-10-10-10-|-----10-10-10-10-10-10-10-10-10-10-10-|
--------------------------------------|--------------------------------------|
--------------------------------------|--------------------------------------|


   S  S  S  S  S  S  S  S  Q        S  S  S  S  S  S  S  S  S  S  S  S  
--------------------------------|--------------------------------------|
--------------------------------|--16-13-16-13-16-13-16-13-16-13-16-13-|
--12----------------------------|--------------------------------------|
-----10-10-10-10-10-10-10-10----|--------------------------------------|
--------------------------------|--------------------------------------|
--------------------------------|--------------------------------------|


   S  S  S  S  S  S  S  S  S  S  S  S     S  S  S  S  S  S  S  S  S  S  S  S  
--------------------------------------|--------------------------------------|
--15-12-15-12-15-12-15-12-15-12-15-12-|--16-13-16-13-16-13-16-13-16-13-16-13-|
--------------------------------------|--------------------------------------|
--------------------------------------|--------------------------------------|
--------------------------------------|--------------------------------------|
--------------------------------------|--------------------------------------|


   S  S  S  S  S  S  S  S  S  S  S  S     S  S  S  S  S  S  S  S  S  S  S  S  
--------------------------------------|--------------------------------------|
--15-11-15-11-15-11-15-11-15-11-15-11-|--16-11-16-11-16-11-16-11-16-11-16-11-|
--------------------------------------|--------------------------------------|
--------------------------------------|--------------------------------------|
--------------------------------------|--------------------------------------|
--------------------------------------|--------------------------------------|


  S S S S S S S S S  S  S  S     S S S S  S S S S  S S S S  
--1-3-3-4-4-6-6-8-8-10-10-11-|--11-6-----11-6-----11-6-----|
-----------------------------|-------8-4------8-4------8-4-|
-----------------------------|-----------------------------|
-----------------------------|-----------------------------|
-----------------------------|-----------------------------|
-----------------------------|-----------------------------|


  S S S  S  S  S S  S  S  S  S  S     S S  S S  S S  S S  S S  S S  
-----------------8-10-10-11-11-13-|--13-8------13-8------13-8------|
--8-9-9-11-11-13------------------|-------10-6------10-6------10-6-|
----------------------------------|--------------------------------|
----------------------------------|--------------------------------|
----------------------------------|--------------------------------|
----------------------------------|--------------------------------|


   S  S  S  S  S  S  S  S  S  S  S  S     S  S  S S  S  S  S S  S  S  S S  
--------------------------11-13-13-15-|--15-10------15-10------15-10------|
--------------13-15-15-16-------------|--------12-8-------12-8-------12-8-|
--14-15-15-17-------------------------|-----------------------------------|
--------------------------------------|-----------------------------------|
--------------------------------------|-----------------------------------|
--------------------------------------|-----------------------------------|


   S  S  S  S  S  S  S  S  S  S  S  S     S  S  S  S  S  S  S  S  S  S  S  S  
--11----------------------------------|--------------------------------------|
--------------------------------------|--------------------------------------|
--------------------------------------|--------------------------------------|
--------------------------------------|--18----------18----------18----------|
-----15-15-15-15-15-15-15-15-15-15-15-|-----15-15-15----15-15-15----15-15-15-|
--------------------------------------|--------------------------------------|


   S  S  S  S  S  S  S  S  S  S  S  S     S  S  S  S  S  S  S  S  S  S  S  S  
--------------------------------------|--------------------------------------|
--------------------------------------|--------------------------------------|
--------------------------------------|--------------------------------------|
--------------------------------------|--17----------17----------17----------|
--14-14-14-14-14-14-14-14-14-14-14-14-|-----13-13-13----13-13-13----13-13-13-|
--------------------------------------|--------------------------------------|


   S  S  S  S  S  S  S  S  S  S  S  S     S  S  S  S  S  S  S  S  S  S  S  S  
--------------------------------------|--------------------------------------|
--------------------------------------|--------------------------------------|
--------------------------------------|--------------------------------------|
--------------------------------------|--15----------15----------15----------|
--12-12-12-12-12-12-12-12-12-12-12-12-|-----11-11-11----11-11-11----11-11-11-|
--------------------------------------|--------------------------------------|


   S  S  S  S  S  S  S  S  S  S  S  S     S  S  S  S  S  S  S  S  S  S  S  S  
--------------------------------------|--------------------------------------|
--------------------------------------|--------------------------------------|
--------------------------------------|--20----------20----------20----------|
--17-17-17-17-17-17-17-17-17-17-17-17-|-----16-16-16----16-16-16----16-16-16-|
--------------------------------------|--------------------------------------|
--------------------------------------|--------------------------------------|


   S  S  S  S  S  S  S  S  S  S  S  S     S  S  S  S  S  S  S  S  S  S  S  S  
--------------------------------------|--------------------------------------|
--------------------------------------|--------------------------------------|
--------------------------------------|--19----------19----------19----------|
--15-15-15-15-15-15-15-15-15-15-15-15-|-----14-14-14----14-14-14----14-14-14-|
--------------------------------------|--------------------------------------|
--------------------------------------|--------------------------------------|


   S  S  S  S  S  S  S  S  S  S  S  S     S  S  S  S  S  S  S  S  S  S  S  S  
--------------------------------------|--------------------------------------|
--------------------------------------|--------------------------------------|
--------------------------------------|--17----------17----------17----------|
--13-13-13-13-13-13-13-13-13-13-13-13-|-----12-12-12----12-12-12----12-12-12-|
--------------------------------------|--------------------------------------|
--------------------------------------|--------------------------------------|


   S  S  S  S  S  S  S  S  S  S  S  S     S  S  S  S  S  S  S  S  S  S  S  S  
--------------------------------------|--------------------------------------|
--------------------------------------|--------------------------------------|
--------------------------14----------|--15----------17----------19----------|
--12-12-12-12-16-12-12-12----12-12-12-|-----12-12-12----12-12-12----12-12-12-|
--------------------------------------|--------------------------------------|
--------------------------------------|--------------------------------------|


   S  S  S  S  S  S  S  S  S  S  S  S     S  S  S  S  S  S  S  S  S  S  S  S  
--------------------------18----------|--17----------18----------20----------|
--16----------19----------20----------|--------------------------------------|
--------------------------------------|--------------------------------------|
-----12-12-12----12-12-12----12-12-12-|-----12-12-12----12-12-12----12-12-12-|
--------------------------------------|--------------------------------------|
--------------------------------------|--------------------------------------|


   S  S S S  S S S S S S S S    S S S S S S S S S S S S  
--22-10-8-6------------------|--------------------------|
------------10-8-7-----------|--------------------------|
-------------------9-7-5-----|--------------------------|
-------------------------8-7-|--5-5-5-5-5-5-5-5-5-5-5-5-|
-----------------------------|--------------------------|
-----------------------------|--------------------------|


  S  S  S  S  S  S  S  S  S  S  S  S     S  S  S  S  S  S  S  S  S  S  S  S  
----15-13-11-------------------------|--------------------------------------|
-------------15-13-11----------------|--------------------------------------|
----------------------14-12-10-------|--------------------------------------|
--5----------------------------13-12-|--10-10-10-10-10-10-10-10-10-10-10-10-|
-------------------------------------|--------------------------------------|
-------------------------------------|--------------------------------------|


   S  S  S  S  S  S  S  S  S  S  S  S     S  S  S  S  S  S  S  S  S  S  S  S  
-----18-17-15-------------------------|--------------------------------------|
--------------18-16-15----------------|--------------------------------------|
-----------------------17-15-14-------|--------------------------------------|
--10----------------------------17-15-|--13-13-13-13-13-13-13-13-13-13-13-13-|
--------------------------------------|--------------------------------------|
--------------------------------------|--------------------------------------|


   S  S  S  S  S  S  S  S  S  S  S  S     S  S  S  S  S  S  S  S  S  S  S  S  
-----22-20-18-------------------------|--------------------------------------|
--------------22-20-19----------------|--------------------------------------|
-----------------------21-19-17-------|--------------------------------------|
--13----------------------------20-19-|--17-17-17-17-17-17-17-17-17-17-17-17-|
--------------------------------------|--------------------------------------|
--------------------------------------|--------------------------------------|


   S  S  S  S  S  S  S  S  S  S  S  S     S  S  S  S  S  S  S  S  S  S  S  S  
--------------------------------------|--------------------------------------|
--------------------------19----------|--20----------18----------------------|
--------------21----------------------|--------------------------20----------|
--17-17-17-17----17-17-17----17-17-17-|-----17-17-17----17-17-17----17-17-17-|
--------------------------------------|--------------------------------------|
--------------------------------------|--------------------------------------|


   S  S  S  S  S  S  S  S  S  S  S  S     S  S  S  S  S  S  S  S  S  S  S  S  
--------------------------------------|--------------------------------------|
--------------------------19----------|--20----------18----------------------|
--19----------21----------------------|--------------------------20----------|
-----17-17-17----17-17-17----17-17-17-|-----17-17-17----17-17-17----17-17-17-|
--------------------------------------|--------------------------------------|
--------------------------------------|--------------------------------------|


   S  S  S  S  S  S  S  S  S  S  S  S     S  S  S  S  S  S  S  S  S  S  S  S  
-----------------------14-15-17-18-17-|--15----------------------------------|
--------------13-15-17----------------|-----18-16----------------------------|
--19-12-14-15-------------------------|-----------19-17-15-------------------|
--------------------------------------|--------------------19-17-15----------|
--------------------------------------|-----------------------------18-17-15-|
--------------------------------------|--------------------------------------|


   S  S  S  S  S  S  S  S  S  S  S  S     S  S  S  S  S  S  S  S  S  S  S  S  
--------------------------------------|--------------------------------------|
--------------------------------------|-----------------------------------13-|
--------------------------------------|-----------------12----14-12-15-14----|
--------------------------------------|--12-13-12-15-13----15----------------|
--13----13----13----13----13----13----|--------------------------------------|
-----17----17----17----17----17----17-|--------------------------------------|


   S  S  S  S  S  S  S  S  S  S  S  S     S  S  S  S  S  S  S  S  S  S  S  S  
-----------------13----15-13-17-15-18-|--17----------------------------------|
-----15-13-16-15----16----------------|-----------------------------------13-|
--15----------------------------------|-----------------12----14-12-15-14----|
--------------------------------------|-----13-12-15-13----15----------------|
--------------------------------------|--------------------------------------|
--------------------------------------|--------------------------------------|


   S  S  S  S  S  S  S  S  S  S  S  S         S S S S S S S S S S S S  
-----------------13----15-13-17-15-18-|----|--------------------------|
-----15-13-16-15----16----------------|----|--------------------------|
--15----------------------------------|----|--3-3-3-3-3-3-3-3-3-3-3-3-|
--------------------------------------|----|--------------------------|
--------------------------------------|----|--------------------------|
--------------------------------------|----|--------------------------|


  S S S S S S S S S S S S    S S S S S S S S S S S S  
--3-3-3-3-3-3-3-3-3-3-3-3-|--2-2-2-2-2-2-2-2-2-2-2-2-|
--------------------------|--------------------------|
--------------------------|--------------------------|
--------------------------|--------------------------|
--------------------------|--------------------------|
--------------------------|--------------------------|


  S S S S S S S S S S S S    S S S S S S S S S S S S  
--------------------------|--3-3-3-3-3-3-3-3-3-3-3-3-|
--------------------------|--------------------------|
--3-3-3-3-3-3-3-3-3-3-3-3-|--------------------------|
--------------------------|--------------------------|
--------------------------|--------------------------|
--------------------------|--------------------------|


  S S S S S S S S S S S S    S S S S S S S S  S  S  S  S  
--2-2-2-2-2-2-2-2-2-2-2-2-|--3-3-3-3-6-6-6-6-10-10-10-10-|
--------------------------|------------------------------|
--------------------------|------------------------------|
--------------------------|------------------------------|
--------------------------|------------------------------|
--------------------------|------------------------------|


   S  S  S  S  S  S  S  S  S  S  S  S     S  S  S  S  S  S  S  S  S  S  S  S  
--15-15-15-15-18-18-18-18-22-22-22-22-|--------------------------------------|
--------------------------------------|--20-20-20-20-------------------------|
--------------------------------------|--------------19-19-19-19-------------|
--------------------------------------|--------------------------20-20-20-20-|
--------------------------------------|--------------------------------------|
--------------------------------------|--------------------------------------|


   S  S  S  S  H            
--------------------------||
--------------18br--------||
--------------------------||
--17-17-17-17-------------||
--------------------------||
--------------------------||




Duration Legend
---------------
W - whole
H - half
Q - quarter
E - 8th
S - 16th
T - 32nd
X - 64th
. - note dotted
|-n-|  - n-tuplets


Tablature Legend
----------------
L - tied note
x - dead note
g - grace note
(n) - ghost note
> - accentuded note
NH - natural harmonic
AH - artificial harmonic
TH - tapped harmonic
SH - semi harmonic
PH - pitch harmonic
h - hammer on
p - pull off
b - bend
br - bendRelease
pb - preBend
pbr - preBendRelease
brb - bendReleaseBend
\n/ - tremolo bar dip
\n - tremolo bar dive
-/n - tremolo bar Release up
/n\ - tremolo bar inverted dip
/n - tremolo bar return
-\n - tremolo bar Release down
S - shift slide
s - legato slide
/ -  slide into from below or out of upwards
\ -  slide into from above or out of downwards
~ - vibrato
W - wide vibrato
tr - trill
TP - tremolo picking
T - tapping
S - slap
P - pop
< - fade in
^ - brush up
v - brush down
comments
We did not receive enough feedback on this tab! Please rate:
print report bad tab
1 2 3 4 5
I want to post or [tab]
guest
You may want to rate the tab now too:
select rating
Please do not post tabs as comments. Select "correction" instead!