Oops, an error
Loading. Please wait.

Four Seasons - Summer Presto Tab

9,168 views 9 this week
1 commentread comment
1 2 3 4 5
excellent!
x 2
add to favorites launch autoscroll
font size
0
reset
Autoscroll
+/-
esc
set tempo
stop
Contributor
WARNING: You are trying to view
                                    content from Ultimate-Guitar.com
                                    in an unauthorized application,
                                    which is prohibited.

                                    Please use an official Ultimate
                                    Guitar Tabs application for iPhone,
                                    iPad or Android to access legitimate
                                    chords, guitar, bass, and drum tabs
                                    from Ultimate-Guitar.com database.

                                    Type "ultimate guitar tabs" in Apple
                                    App Store's or Android Market's
                                    search to find the application.
tab difficulty is intermediate to advanced,tuning is standard or half step 
you think sounds best

i found the tab for this in UG for a guitar that has at least 23 frets..since mine 
i changed some stuff and now
it sounds pretty close to the original but you'll need only 21 frets..
with 20b i mean prebend on the 20 up to 22 and release straight away
the[20b] is a prebend on the 20 up to the 23(or slight bend with pinch harmonic) and fast release
keep the rythm in your head and practice the runs:)
...so hope it helps...heres alexi's bit :

                            Vivaldi's Summer (Presto)


Alexi Laiho

D||---------------------------|---------------------------|
A||---------------------------|---------------------------|
F||--12-0-0-0-0-0-0-0-0-0-0-0-|--10-0-0-0-0-0-0-0-0-0-0-0-|
C||---------------------------|---------------------------|
G||---------------------------|---------------------------|
D||---------------------------|---------------------------|

--------------------------|-----------------------|--------|
--------------------------|-----------------------|--------|
--8-0-0-0-0-0-0-0-0-0-0-0-|--7-0-0-0-0-0-0-0-0----|--------|
--------------------------|-----------------------|--------|
--------------------------|-----------------------|--------|
--------------------------|-----------------------|--------|

---------------------------|---------------------------|
---------------------------|---------------------------|
---------------------------|---------------------------|
--12-0-0-0-0-0-0-0-0-0-0-0-|--10-0-0-0-0-0-0-0-0-0-0-0-|
---------------------------|---------------------------|
---------------------------|---------------------------|

--------------------------|-----------------------|--------------|
--------------------------|-----------------------|--------------|
--------------------------|-----------------------|--------------|
--8-0-0-0-0-0-0-0-0-0-0-0-|--7-0-0-0-0-0-0-0-0----|--------------|
--------------------------|-----------------------|--------------|
--------------------------|-----------------------|--------------|

--------------|--10-8-6--------------------|--------------------------|
--------------|---------10-8-7-------------|--------------------------|
--------------|----------------9-7-5-------|--------------------------|
--------------|----------------------8-7-5-|--5-5-5-5-5-5-5-5-5-5-5-5-|
--------------|----------------------------|--------------------------|
--------------|----------------------------|--------------------------|

--15-13-11----------------------------|---------------------------------------|
-----------15-13-11-------------------|---------------------------------------|
--------------------14-12-10----------|---------------------------------------|
-----------------------------13-12-10-|--10-10-10-10-10-10-10-10-10-10-10-10--|
--------------------------------------|---------------------------------------|
--------------------------------------|---------------------------------------|

--18-17-15----------------------------|--------------------------------------|
-----------18-16-15-------------------|--------------------------------------|
--------------------17-15-14----------|--------------------------------------|
-----------------------------17-15-13-|--13-13-13-13-13-13-13-13-13-13-13-13-|
--------------------------------------|--------------------------------------|
--------------------------------------|--------------------------------------|

--20b-20-18----------------------------|--------------------------------------|
-----------20b-20-19-------------------|--------------------------------------|
--------------------21-19-17-----------|--------------------------------------|
-----------------------------20-19-17--|--17-17-17-17-17-17-17-17-17-17-17-17-|
---------------------------------------|--------------------------------------|
---------------------------------------|--------------------------------------|

--20b-20-18----------------------------|--------------------------------------|
-----------20b-20-19-------------------|--------------------------------------|
--------------------21-19-17-----------|--19----------19----------19----------|
-----------------------------20-19-17--|-----17-17-17----17-17-17----17-17-17-|
---------------------------------------|--------------------------------------|
--------------------------------------|---------------------------------------|

---------------------------------|----------------------------------|
--------------------------19-----|----------------------------19----|
--------------------19-21--------|----------------------19-21-------|
-----------19-20-20b-------------|------------19-20-20b-------------|
--19-21-20b----------------------|--19-21-20b-----------------------|
---------------------------------|----------------------------------|

--------------------------------|------------------------------------|
-----------------------19-20----|-----------------19-20-20b-[20b]----|
--------------17-19-20----------|-----------19-21--------------------|
-----17-19-20-------------------|-----20-20b-------------------------|
--21----------------------------|--21--------------------------------|
--------------------------------|------------------------------------|

------------------------------------|---------------------------------|
-----------------19-20-20b-[20b]----|--------------------------19-----|
-----------19-21--------------------|--------------------19-21--------|
-----20-20b-------------------------|-----------19-20-20b-------------|
--21--------------------------------|--19-21-20b----------------------|
------------------------------------|---------------------------------|

--------------------------------|------------------------------------|
-----------------------19-20----|-----------------19-20-20b-[20b]----|
--------------17-19-20----------|-----------19-21--------------------|
-----17-19-20-------------------|-----20-20b-------------------------|
--21----------------------------|--21--------------------------------|
--------------------------------|------------------------------------|

-----------18----------18-15/---|------6-10-----6-10-----6-10-|
--------15----------15----------|----8--------8--------8------|
-----12----------12-------------|--7--------7--------7--------|
--12----------12----------------|-----------------------------|
--------------------------------|-----------------------------|
--------------------------------|-----------------------------|

------3-6-----3-6------|--------------------------------------|
----3-------3----------|--------------------------------------|
--3-------3-------3/---|--------------------------------------|
-----------------------|--17h12-17h12-17h12-17h12-17h12-17h12-|
-----------------------|--------------------------------------|
-----------------------|--------------------------------------|

--------------------------------------|--------------------------------------|
--------------------------------------|--------------------------------------|
--------------------------------------|--------------------------------------|
--17h13-17h13-17h13-17h13-17h13-17h13-|--19h14-19h14-19h14-19h14-19h14-19h14-|
--------------------------------------|--------------------------------------|
--------------------------------------|--------------------------------------|

--------------------------------------|---------------------------------------|
--------------------------------------|---------------------------------------|
--------------------------------------|---------------------------------------|
-19h15-19h15-19h15-19h15-19h15-19h15-|-19h14-19h14-19h14-19h14-19h14-19h14----|
--------------------------------------|---------------------------------------|
--------------------------------------|---------------------------------------|

--------------------------------------|--------------------------------------|
--------------------------------------|--------------------------------------|
--------------------------------------|-----------------14-16-18-19-14-16-18-|
--19h14-19h14-19h14-19h14-19h14-19h14-|--15-12-14-15-17----------------------|
--------------------------------------|--------------------------------------|
--------------------------------------|--------------------------------------|

---------------------------15-17-19-21-|--20b------------|
--15-17-18-20-20b-15-17-18-------------|-----------------|
---------------------------------------|-----------------|
---------------------------------------|-----------------|
---------------------------------------|-----------------|
---------------------------------------|-----------------|

--------------------------|--------------------------|
--------------------------|--------------------------|
--------------------------|--------------------------|
--0-0-0-0-0-0-0-0-0-0-0-0-|--0-0-0-0-0-0-0-0-2-0-0-0-|
--------------------------|--------------------------|
--------------------------|--------------------------|

--------------------------|---------------|--------------------------|
--------------------------|---------------|--------------------------|
--------------------------|--2~-----------|--------------------------|
--3-0-0-0-2-0-0-0-0-0-0-0-|--0------------|--0-0-0-0-0-0-0-0-0-0-0-0-|
--------------------------|---------------|--------------------------|
--------------------------|---------------|--------------------------|

--------------------------|--------------------------|---------------|
--------------------------|--------------------------|---------------|
--------------------------|--------------------------|---------------|
--0-0-0-0-0-0-0-0-0-0-0-0-|--0-0-0-0-0-0-0-0-0-0-0-0-|--7~-----------|
--------------------------|--------------------------|---------------|
--------------------------|--------------------------|---------------|

--------------|---------------------|--------------------------|
--------------|---------------------|--------------------------|
--------------|---------------------|--------------------------|
--------------|------x--x-x-x-x-x-x-|--0-0-0-0-0-0-0-0-0-0-0-0-|
--------------|---------------------|--------------------------|
--------------|---------------------|--------------------------|

--------------------------|--------------------|--------------------|
--------------------------|--------------------|--------------------|
--------------------------|--7-----7-----7-----|--7-----7-----7-----|
--0-0-0-0-0-0-0-0-0-0-0-0-|-----7-----7-----7--|-----7-----7-----7--|
--------------------------|--------------------|--------------------|
--------------------------|--------------------|--------------------|

--------------------------------|--------------------------------|
--------------------------------|--------------------------------|
-----19-17-15-------------------|--------------------------------|
--------------19-17-15----------|-----17-15-13-------------------|
--17-------------------19-17----|--------------17-15-13----------|
--------------------------------|--15-------------------17-15----|

--------------------------------|--------------------------------|
--------------------------------|--------------------------------|
-----17-15-14-------------------|--------------------------------|
--------------17-15-13----------|-----15-13-12-------------------|
--15-------------------17-15----|--------------15-13-12----------|
--------------------------------|--13-------------------15-13----|

--------------------------------|--------------------------------|
--------------------------------|--------------------------------|
-----15-13-12-------------------|--------------------------------|
--------------15-13-12----------|-----13-12-10-------------------|
--13-------------------15-13----|--------------13-12-10----------|
--------------------------------|--11-------------------13-11----|

--------------------------------|--------------------------------|
--------------------------------|--------------------------------|
-----13-12-10-------------------|-----16-14-12-------------------|
--------------13-11-10----------|--------------15-13-12----------|
--11-------------------13-11----|--14-------------------15-14----|
--------------------------------|--------------------------------|

--------------------------------|--------------------------------|
--------------------------------|--------------------------------|
--------------------------------|-----17-15-13-------------------|
-----17-15-13-------------------|--------------17-15-13----------|
--------------17-15-13----------|--15-------------------17-15----|
--15-------------------16-15----|--------------------------------|

--------------------------------|--------------------------------|
--------------------------------|--------------------------------|
-----17-15-13-------------------|-----17-15-13-------------------|
--------------17-15-13----------|--------------17-15-13----------|
--15-------------------17-15----|--15-------------------17-15----|
--------------------------------|--------------------------------|

--------------------------------------|--------------------------------------|
--------------------------------------|--------------------------------------|
-----17----17----17----17----17----17-|-----17----17----17----17----17----17-|
--13----15----13----15----13----15----|--15----18----15----18----15----18----|
--------------------------------------|--------------------------------------|
--------------------------------------|--------------------------------------|

--------------------------------------|--------------------------------------|
--------------------------------------|--------------------------------------|
--------------------------------------|--17----------------------------------|
--------------------------------------|--------------------------------------|
--------------------------15-15-15-15-|-----15-15-15-15-15-15-15-15-15-15-15-|
--15-15-15-15-19-19-19-19-------------|--------------------------------------|

--------------------------------------|--------------------------------------|
--------------------------------------|--------------------------------------|
--15----------------------------------|--------------------------------------|
--------------------------------------|--18----------------------------------|
-----15-15-15-15-15-15-15-15-15-15-15-|-----15-15-15-15-15-15-15-15-15-15-15-|
--------------------------------------|--------------------------------------|

--------------------------------|--------------------------|----------------|
--------------------------------|--------------------------|----------------|
--------------------------------|------17h16h17--x--x------|----------------|
--17----------------------------|--------------------------|----------------|
-----15-15-15-15-15-15-15-15----|--15------------------15--|----------------|
--------------------------------|--------------------------|--15------------|

--------------------------|----------------|--------------------------|
--------------------------|----------------|--------------------------|
------17h16h17--x--x------|----------------|------20h19h20--x--x------|
--------------------------|----------------|--------------------------|
--15------------------15--|--13------------|--18------------------18--|
--------------------------|----------------|--------------------------|

----------------|--------------------------|----------------|
----------------|--------------------------|----------------|
----------------|------12h11h12--x--x------|----------------|
--17------------|--------------------------|----------------|
----------------|--10------------------10--|--11------------|
----------------|--------------------------|----------------|

--------------------------|----------------|--------------------------|
--------------------------|----------------|--------------------------|
------14h13h14--x--x------|----------------|------16h15h16--x--x------|
--------------------------|----------------|--------------------------|
--12------------------12--|--13------------|--14------------------14--|
--------------------------|----------------|--------------------------|

--------------------------------------|--------------------------------------|
--------------------------------------|--------------------------------------|
--17----------------------------------|--------------------------------------|
--------------------------------------|--18----------18----------18----------|
-----15-15-15-15-15-15-15-15-15-15-15-|-----15-15-15----15-15-15----15-15-15-|
--------------------------------------|--------------------------------------|

--------------------------------------|--------------------------------------|
--------------------------------------|--------------------------------------|
--------------------------------------|--------------------------------------|
--------------------------------------|--17----------17----------17----------|
--14-14-14-14-14-14-14-14-14-14-14-14-|-----13-13-13----13-13-13----13-13-13-|
--------------------------------------|--------------------------------------|

--------------------------------------|--------------------------------------|
--------------------------------------|--------------------------------------|
--------------------------------------|--------------------------------------|
--------------------------------------|--15----------15----------15----------|
--12-12-12-12-12-12-12-12-12-12-12-12-|-----11-11-11----11-11-11----11-11-11-|
--------------------------------------|--------------------------------------|

--------------------------------------|-----------------------------|
--------------------------------------|-----------------------------|
--------------------------------------|-----------------------------|
--------------------------------------|--13-------13-------13-------|
--10-10-10-10-10-10-10-10-10-10-10-10-|-----9-9-9----9-9-9----9-9-9-|
--------------------------------------|-----------------------------|

--------------------------|-----------------------------|
--------------------------|-----------------------------|
--------------------------|-----------------------------|
--------------------------|--12-------12-------12-------|
--8-8-8-8-8-8-8-8-8-8-8-8-|-----7-7-7----7-7-7----7-7-7-|
--------------------------|-----------------------------|

--------------------------|-----------------------------|
--------------------------|-----------------------------|
--------------------------|-----------------------------|
--------------------------|--10-------10-------10-------|
--6-6-6-6-6-6-6-6-6-6-6-6-|-----5-5-5----5-5-5----5-5-5-|
--------------------------|-----------------------------|

--------------------------|--------------------------|
--------------------------|--------------------------|
--------------------------|--------------------------|
--------------------------|----------7-------7-------|
--5-5-5-5-9-5-5-5-5-5-5-5-|--9-5-5-5---5-5-5---5-5-5-|
--------------------------|--------------------------|

--------------------------|--10-------8-------10-------|
--------------------------|----------------------------|
--8---------------7-------|----------------------------|
----------7---------------|----------------------------|
----5-5-5---5-5-5---5-5-5-|-----5-5-5---5-5-5----5-5-5-|
--------------------------|----------------------------|

--------------------------|------------------10-8-6----|
--------------------------|-------------------------10-|
--------------------------|----------------------------|
--------------------------|----------------------------|
--5-5-5-5-5-5-5-5-5-5-5-5-|--5-5-5-5-5-5-5-5-----------|
--------------------------|----------------------------|

--------------------------|------------------15-13-11----|
--8-7---------------------|---------------------------15-|
------9-7-5---------------|------------------------------|
------------8-7-5-5-5-5-5-|--5-5-5-5-5-5-5-5-------------|
--------------------------|------------------------------|
--------------------------|------------------------------|

--------------------------------------|--------------------------18-17-15-----|
--13-11-------------------------------|-----------------------------------18--|
--------14-12-10----------------------|---------------------------------------|
-----------------13-12-10-10-10-10-10-|--10-10-10-10-10-10-10-10--------------|
--------------------------------------|---------------------------------------|
--------------------------------------|---------------------------------------|

--------------------------------------|--------------------------20b-20-18----|
--16-15-------------------------------|-----------------------------------20--|b
--------17-15-14----------------------|---------------------------------------|
-----------------17-15-13-13-13-13-13-|--13-13-13-13-13-13-13-13--------------|
--------------------------------------|---------------------------------------|
--------------------------------------|---------------------------------------|

--------------------------------------|--------------------------------------|
--20-19-------------------------------|--------------------------------------|
--------21-19-17----------------------|--------------------------------------|
-----------------20-19-17-17-17-17-17-|--17-17-17-17-17-17-17-17-17-17-17-17-|
--------------------------------------|--------------------------------------|
--------------------------------------|--------------------------------------|

--------------------------------------|--------------------------------------|
--------------------------------------|--------------------------------------|
--------------------------------------|--------------------------------------|
--17-17-17-17-17-17-17-17-17-17-17-17-|--17-17-17-17-17-17-17-17-17-17-17-17-|
--------------------------------------|--------------------------------------|
--------------------------------------|--------------------------------------|

--------------------------------|--------------------15-17-18-17-15----|
--------------------------------|-----------15-16-18----------------18-|
--------------------------------|--12-14-15----------------------------|
--17-17-17-17-17-17-17-17-17----|--------------------------------------|
--------------------------------|--------------------------------------|
--------------------------------|--------------------------------------|

--------------------------------------|--------------------------------------|
--16-15-------------------------------|--------------------------------------|
--------17-15-14----------------------|--------------------------------------|
-----------------17-15----------------|--------------------------------------|
-----------------------18-17-15-------|--------------------------------------|
--------------------------------18-17-|--18h15-18h15-18h15-18h15-18h15-18h15-|

----------------|--------------|--------------|--------------|
----------------|--------------|--------------|--------------|
----------------|--------------|--------------|--------------|
----------------|--------------|--------------|--------------|
--17/-----------|--------------|--------------|--------------|
----------------|--------------|--------------|--------------|

--------------------------|--------------------------|
--------------------------|--------------------------|
--7-7-7-7-7-7-7-7-7-7-7-7-|--7-3-----7-3-----7-3-----|
--------------------------|------5-0-----5-0-----5-0-|
--------------------------|--------------------------|
--------------------------|--------------------------|

--------------------------|--------------------------|
--------------------------|--------------------------|
--------------------------|--------------------------|
--7-7-7-7-7-7-7-7-7-7-7-7-|--7-7-7-7-7-7-7-7-7-7-7-7-|
--------------------------|--------------------------|
--------------------------|--------------------------|

--------------------------|--------------------------|
--------------------------|--------------------------|
--7-3-----7-3-----7-3-----|--------------------------|
------5-0-----5-0-----5-0-|--7-7-7-7-7-7-7-7-7-7-7-7-|
--------------------------|--------------------------|
--------------------------|--------------------------|

--------------------------|--------------------------|
--------------------------|------------------8-8-8-8-|
--------------------------|----------7-7-7-7---------|
--7-7-7-7-7-7-7-7-7-7-7-7-|--8-8-8-8-----------------|
--------------------------|--------------------------|
--------------------------|--------------------------|

--6-6-6-6-10-10-10-10-15-15-15-15-|--18-18-18-18-------------------------|
----------------------------------|--------------20-20-20-20-15-15-15-15-|
----------------------------------|--------------------------------------|
----------------------------------|--------------------------------------|
----------------------------------|--------------------------------------|
----------------------------------|--------------------------------------|

------------------------||
--------------15r-------||
--15-15-15-15-18r-------||
------------------------||
------------------------||
------------------------||
comments
We did not receive enough feedback on this tab! Please rate:
1 2 3 4 5
1 comment total.
0 reply
DIV ON! wrote on December 8 2009, 11:47 am

awesome thanks 4 tabbing this cause b4 u did it was only on Guitar Pro

I want to post or [tab]
guest
You may want to rate the tab now too:
select rating
Please do not post tabs as comments. Select "correction" instead!