Oops, an error
Loading. Please wait.

Four Seasons Tab

ver1
ver1

Whole song

Interactive

More versions @911Tabs.com
75,303 views 75 this week
3 commentsread comments
1 2 3 4 5
excellent!
x 15
Autoscroll
+/-
esc
set tempo
stop
Contributor
Difficulty
advanced
Hey! There's an official Ultimate Guitar app which is ideal
for learning songs when you're away from computer. Get the app
WARNING: You are trying to view
                                    content from Ultimate-Guitar.com
                                    in an unauthorized application,
                                    which is prohibited.

                                    Please use an official Ultimate
                                    Guitar Tabs application for iPhone,
                                    iPad or Android to access legitimate
                                    chords, guitar, bass, and drum tabs
                                    from Ultimate-Guitar.com database.

                                    Type "ultimate guitar tabs" in Apple
                                    App Store's or Android Market's
                                    search to find the application.
I did not write this tab, i just found it on the internet and thought that most users 
benefit from finding it easily, i know i will.

Summer Presto (Storm section)

                            Vivaldi's Summer (Presto)


Alexi Laiho

D||---------------------------|---------------------------|
A||---------------------------|---------------------------|
F||--12-0-0-0-0-0-0-0-0-0-0-0-|--10-0-0-0-0-0-0-0-0-0-0-0-|
C||---------------------------|---------------------------|
G||---------------------------|---------------------------|
D||---------------------------|---------------------------|

--------------------------|-----------------------|--------|
--------------------------|-----------------------|--------|
--8-0-0-0-0-0-0-0-0-0-0-0-|--7-0-0-0-0-0-0-0-0----|--------|
--------------------------|-----------------------|--------|
--------------------------|-----------------------|--------|
--------------------------|-----------------------|--------|

---------------------------|---------------------------|
---------------------------|---------------------------|
---------------------------|---------------------------|
--12-0-0-0-0-0-0-0-0-0-0-0-|--10-0-0-0-0-0-0-0-0-0-0-0-|
---------------------------|---------------------------|
---------------------------|---------------------------|

--------------------------|-----------------------|--------------|
--------------------------|-----------------------|--------------|
--------------------------|-----------------------|--------------|
--8-0-0-0-0-0-0-0-0-0-0-0-|--7-0-0-0-0-0-0-0-0----|--------------|
--------------------------|-----------------------|--------------|
--------------------------|-----------------------|--------------|

--------------|--10-8-6--------------------|--------------------------|
--------------|---------10-8-7-------------|--------------------------|
--------------|----------------9-7-5-------|--------------------------|
--------------|----------------------8-7-5-|--5-5-5-5-5-5-5-5-5-5-5-5-|
--------------|----------------------------|--------------------------|
--------------|----------------------------|--------------------------|

--15-13-11----------------------------|--------------------------------------|
-----------15-13-11-------------------|--------------------------------------|
--------------------14-12-10----------|--------------------------------------|
-----------------------------13-12-10-|--10-10-10-10-10-10-10-10-10-10-10-10-|
--------------------------------------|--------------------------------------|
--------------------------------------|--------------------------------------|

--18-17-15----------------------------|--------------------------------------|
-----------18-16-15-------------------|--------------------------------------|
--------------------17-15-14----------|--------------------------------------|
-----------------------------17-15-13-|--13-13-13-13-13-13-13-13-13-13-13-13-|
--------------------------------------|--------------------------------------|
--------------------------------------|--------------------------------------|

--22-20-18----------------------------|--------------------------------------|
-----------22-20-19-------------------|--------------------------------------|
--------------------21-19-17----------|--------------------------------------|
-----------------------------20-19-17-|--17-17-17-17-17-17-17-17-17-17-17-17-|
--------------------------------------|--------------------------------------|
--------------------------------------|--------------------------------------|

--22-20-18----------------------------|--------------------------------------|
-----------22-20-19-------------------|--------------------------------------|
--------------------21-19-17----------|--19----------19----------19----------|
-----------------------------20-19-17-|-----17-17-17----17-17-17----17-17-17-|
--------------------------------------|--------------------------------------|
--------------------------------------|--------------------------------------|

--------------------------------|--------------------------------|
--------------------------19----|--------------------------19----|
--------------------19-21-------|--------------------19-21-------|
-----------19-20-22-------------|-----------19-20-22-------------|
--19-21-22----------------------|--19-21-22----------------------|
--------------------------------|--------------------------------|

--------------------------------|--------------------------------|
-----------------------19-20----|-----------------19-20-22-23----|
--------------17-19-20----------|-----------19-21----------------|
-----17-19-20-------------------|-----20-22----------------------|
--21----------------------------|--21----------------------------|
--------------------------------|--------------------------------|

--------------------------------|--------------------------------|
-----------------19-20-22-23----|--------------------------19----|
-----------19-21----------------|--------------------19-21-------|
-----20-22----------------------|-----------19-20-22-------------|
--21----------------------------|--19-21-22----------------------|
--------------------------------|--------------------------------|

--------------------------------|--------------------------------|
-----------------------19-20----|-----------------19-20-22-23----|
--------------17-19-20----------|-----------19-21----------------|
-----17-19-20-------------------|-----20-22----------------------|
--21----------------------------|--21----------------------------|
--------------------------------|--------------------------------|

-----------18----------18-15/---|------6-10-----6-10-----6-10-|
--------15----------15----------|----8--------8--------8------|
-----12----------12-------------|--7--------7--------7--------|
--12----------12----------------|-----------------------------|
--------------------------------|-----------------------------|
--------------------------------|-----------------------------|

------3-6-----3-6------|--------------------------------------|
----3-------3----------|--------------------------------------|
--3-------3-------3/---|--------------------------------------|
-----------------------|--17h12-17h12-17h12-17h12-17h12-17h12-|
-----------------------|--------------------------------------|
-----------------------|--------------------------------------|

--------------------------------------|--------------------------------------|
--------------------------------------|--------------------------------------|
--------------------------------------|--------------------------------------|
--17h13-17h13-17h13-17h13-17h13-17h13-|--19h14-19h14-19h14-19h14-19h14-19h14-|
--------------------------------------|--------------------------------------|
--------------------------------------|--------------------------------------|

--------------------------------------|--------------------------------------|
--------------------------------------|--------------------------------------|
--------------------------------------|--------------------------------------|
--19h15-19h15-19h15-19h15-19h15-19h15-|--19h14-19h14-19h14-19h14-19h14-19h14-|
--------------------------------------|--------------------------------------|
--------------------------------------|--------------------------------------|

--------------------------------------|--------------------------------------|
--------------------------------------|--------------------------------------|
--------------------------------------|-----------------14-16-18-19-14-16-18-|
--19h14-19h14-19h14-19h14-19h14-19h14-|--15-12-14-15-17----------------------|
--------------------------------------|--------------------------------------|
--------------------------------------|--------------------------------------|

--------------------------15-17-19-21-|--22------------|
--15-17-18-20-22-15-17-18-------------|----------------|
--------------------------------------|----------------|
--------------------------------------|----------------|
--------------------------------------|----------------|
--------------------------------------|----------------|

--------------------------|--------------------------|
--------------------------|--------------------------|
--------------------------|--------------------------|
--0-0-0-0-0-0-0-0-0-0-0-0-|--0-0-0-0-0-0-0-0-2-0-0-0-|
--------------------------|--------------------------|
--------------------------|--------------------------|

--------------------------|---------------|--------------------------|
--------------------------|---------------|--------------------------|
--------------------------|--2~-----------|--------------------------|
--3-0-0-0-2-0-0-0-0-0-0-0-|--0------------|--0-0-0-0-0-0-0-0-0-0-0-0-|
--------------------------|---------------|--------------------------|
--------------------------|---------------|--------------------------|

--------------------------|--------------------------|---------------|
--------------------------|--------------------------|---------------|
--------------------------|--------------------------|---------------|
--0-0-0-0-0-0-0-0-0-0-0-0-|--0-0-0-0-0-0-0-0-0-0-0-0-|--7~-----------|
--------------------------|--------------------------|---------------|
--------------------------|--------------------------|---------------|

--------------|---------------------|--------------------------|
--------------|---------------------|--------------------------|
--------------|---------------------|--------------------------|
--------------|------x--x-x-x-x-x-x-|--0-0-0-0-0-0-0-0-0-0-0-0-|
--------------|---------------------|--------------------------|
--------------|---------------------|--------------------------|

--------------------------|--------------------|--------------------|
--------------------------|--------------------|--------------------|
--------------------------|--7-----7-----7-----|--7-----7-----7-----|
--0-0-0-0-0-0-0-0-0-0-0-0-|-----7-----7-----7--|-----7-----7-----7--|
--------------------------|--------------------|--------------------|
--------------------------|--------------------|--------------------|

--------------------------------|--------------------------------|
--------------------------------|--------------------------------|
-----19-17-15-------------------|--------------------------------|
--------------19-17-15----------|-----17-15-13-------------------|
--17-------------------19-17----|--------------17-15-13----------|
--------------------------------|--15-------------------17-15----|

--------------------------------|--------------------------------|
--------------------------------|--------------------------------|
-----17-15-14-------------------|--------------------------------|
--------------17-15-13----------|-----15-13-12-------------------|
--15-------------------17-15----|--------------15-13-12----------|
--------------------------------|--13-------------------15-13----|

--------------------------------|--------------------------------|
--------------------------------|--------------------------------|
-----15-13-12-------------------|--------------------------------|
--------------15-13-12----------|-----13-12-10-------------------|
--13-------------------15-13----|--------------13-12-10----------|
--------------------------------|--11-------------------13-11----|

--------------------------------|--------------------------------|
--------------------------------|--------------------------------|
-----13-12-10-------------------|-----16-14-12-------------------|
--------------13-11-10----------|--------------15-13-12----------|
--11-------------------13-11----|--14-------------------15-14----|
--------------------------------|--------------------------------|

--------------------------------|--------------------------------|
--------------------------------|--------------------------------|
--------------------------------|-----17-15-13-------------------|
-----17-15-13-------------------|--------------17-15-13----------|
--------------17-15-13----------|--15-------------------17-15----|
--15-------------------16-15----|--------------------------------|

--------------------------------|--------------------------------|
--------------------------------|--------------------------------|
-----17-15-13-------------------|-----17-15-13-------------------|
--------------17-15-13----------|--------------17-15-13----------|
--15-------------------17-15----|--15-------------------17-15----|
--------------------------------|--------------------------------|

--------------------------------------|--------------------------------------|
--------------------------------------|--------------------------------------|
-----17----17----17----17----17----17-|-----17----17----17----17----17----17-|
--13----15----13----15----13----15----|--15----18----15----18----15----18----|
--------------------------------------|--------------------------------------|
--------------------------------------|--------------------------------------|

--------------------------------------|--------------------------------------|
--------------------------------------|--------------------------------------|
--------------------------------------|--17----------------------------------|
--------------------------------------|--------------------------------------|
--------------------------15-15-15-15-|-----15-15-15-15-15-15-15-15-15-15-15-|
--15-15-15-15-19-19-19-19-------------|--------------------------------------|

--------------------------------------|--------------------------------------|
--------------------------------------|--------------------------------------|
--15----------------------------------|--------------------------------------|
--------------------------------------|--18----------------------------------|
-----15-15-15-15-15-15-15-15-15-15-15-|-----15-15-15-15-15-15-15-15-15-15-15-|
--------------------------------------|--------------------------------------|

--------------------------------|--------------------------|----------------|
--------------------------------|--------------------------|----------------|
--------------------------------|------17h16h17--x--x------|----------------|
--17----------------------------|--------------------------|----------------|
-----15-15-15-15-15-15-15-15----|--15------------------15--|----------------|
--------------------------------|--------------------------|--15------------|

--------------------------|----------------|--------------------------|
--------------------------|----------------|--------------------------|
------17h16h17--x--x------|----------------|------20h19h20--x--x------|
--------------------------|----------------|--------------------------|
--15------------------15--|--13------------|--18------------------18--|
--------------------------|----------------|--------------------------|

----------------|--------------------------|----------------|
----------------|--------------------------|----------------|
----------------|------12h11h12--x--x------|----------------|
--17------------|--------------------------|----------------|
----------------|--10------------------10--|--11------------|
----------------|--------------------------|----------------|

--------------------------|----------------|--------------------------|
--------------------------|----------------|--------------------------|
------14h13h14--x--x------|----------------|------16h15h16--x--x------|
--------------------------|----------------|--------------------------|
--12------------------12--|--13------------|--14------------------14--|
--------------------------|----------------|--------------------------|

--------------------------------------|--------------------------------------|
--------------------------------------|--------------------------------------|
--17----------------------------------|--------------------------------------|
--------------------------------------|--18----------18----------18----------|
-----15-15-15-15-15-15-15-15-15-15-15-|-----15-15-15----15-15-15----15-15-15-|
--------------------------------------|--------------------------------------|

--------------------------------------|--------------------------------------|
--------------------------------------|--------------------------------------|
--------------------------------------|--------------------------------------|
--------------------------------------|--17----------17----------17----------|
--14-14-14-14-14-14-14-14-14-14-14-14-|-----13-13-13----13-13-13----13-13-13-|
--------------------------------------|--------------------------------------|

--------------------------------------|--------------------------------------|
--------------------------------------|--------------------------------------|
--------------------------------------|--------------------------------------|
--------------------------------------|--15----------15----------15----------|
--12-12-12-12-12-12-12-12-12-12-12-12-|-----11-11-11----11-11-11----11-11-11-|
--------------------------------------|--------------------------------------|

--------------------------------------|-----------------------------|
--------------------------------------|-----------------------------|
--------------------------------------|-----------------------------|
--------------------------------------|--13-------13-------13-------|
--10-10-10-10-10-10-10-10-10-10-10-10-|-----9-9-9----9-9-9----9-9-9-|
--------------------------------------|-----------------------------|

--------------------------|-----------------------------|
--------------------------|-----------------------------|
--------------------------|-----------------------------|
--------------------------|--12-------12-------12-------|
--8-8-8-8-8-8-8-8-8-8-8-8-|-----7-7-7----7-7-7----7-7-7-|
--------------------------|-----------------------------|

--------------------------|-----------------------------|
--------------------------|-----------------------------|
--------------------------|-----------------------------|
--------------------------|--10-------10-------10-------|
--6-6-6-6-6-6-6-6-6-6-6-6-|-----5-5-5----5-5-5----5-5-5-|
--------------------------|-----------------------------|

--------------------------|--------------------------|
--------------------------|--------------------------|
--------------------------|--------------------------|
--------------------------|----------7-------7-------|
--5-5-5-5-9-5-5-5-5-5-5-5-|--9-5-5-5---5-5-5---5-5-5-|
--------------------------|--------------------------|

--------------------------|--10-------8-------10-------|
--------------------------|----------------------------|
--8---------------7-------|----------------------------|
----------7---------------|----------------------------|
----5-5-5---5-5-5---5-5-5-|-----5-5-5---5-5-5----5-5-5-|
--------------------------|----------------------------|

--------------------------|------------------10-8-6----|
--------------------------|-------------------------10-|
--------------------------|----------------------------|
--------------------------|----------------------------|
--5-5-5-5-5-5-5-5-5-5-5-5-|--5-5-5-5-5-5-5-5-----------|
--------------------------|----------------------------|

--------------------------|------------------15-13-11----|
--8-7---------------------|---------------------------15-|
------9-7-5---------------|------------------------------|
------------8-7-5-5-5-5-5-|--5-5-5-5-5-5-5-5-------------|
--------------------------|------------------------------|
--------------------------|------------------------------|

--------------------------------------|--------------------------18-17-15----|
--13-11-------------------------------|-----------------------------------18-|
--------14-12-10----------------------|--------------------------------------|
-----------------13-12-10-10-10-10-10-|--10-10-10-10-10-10-10-10-------------|
--------------------------------------|--------------------------------------|
--------------------------------------|--------------------------------------|

--------------------------------------|--------------------------22-20-18----|
--16-15-------------------------------|-----------------------------------22-|
--------17-15-14----------------------|--------------------------------------|
-----------------17-15-13-13-13-13-13-|--13-13-13-13-13-13-13-13-------------|
--------------------------------------|--------------------------------------|
--------------------------------------|--------------------------------------|

--------------------------------------|--------------------------------------|
--20-19-------------------------------|--------------------------------------|
--------21-19-17----------------------|--------------------------------------|
-----------------20-19-17-17-17-17-17-|--17-17-17-17-17-17-17-17-17-17-17-17-|
--------------------------------------|--------------------------------------|
--------------------------------------|--------------------------------------|

--------------------------------------|--------------------------------------|
--------------------------------------|--------------------------------------|
--------------------------------------|--------------------------------------|
--17-17-17-17-17-17-17-17-17-17-17-17-|--17-17-17-17-17-17-17-17-17-17-17-17-|
--------------------------------------|--------------------------------------|
--------------------------------------|--------------------------------------|

--------------------------------|--------------------15-17-18-17-15----|
--------------------------------|-----------15-16-18----------------18-|
--------------------------------|--12-14-15----------------------------|
--17-17-17-17-17-17-17-17-17----|--------------------------------------|
--------------------------------|--------------------------------------|
--------------------------------|--------------------------------------|

--------------------------------------|--------------------------------------|
--16-15-------------------------------|--------------------------------------|
--------17-15-14----------------------|--------------------------------------|
-----------------17-15----------------|--------------------------------------|
-----------------------18-17-15-------|--------------------------------------|
--------------------------------18-17-|--18h15-18h15-18h15-18h15-18h15-18h15-|

----------------|--------------|--------------|--------------|
----------------|--------------|--------------|--------------|
----------------|--------------|--------------|--------------|
----------------|--------------|--------------|--------------|
--17/-----------|--------------|--------------|--------------|
----------------|--------------|--------------|--------------|

--------------------------|--------------------------|
--------------------------|--------------------------|
--7-7-7-7-7-7-7-7-7-7-7-7-|--7-3-----7-3-----7-3-----|
--------------------------|------5-0-----5-0-----5-0-|
--------------------------|--------------------------|
--------------------------|--------------------------|

--------------------------|--------------------------|
--------------------------|--------------------------|
--------------------------|--------------------------|
--7-7-7-7-7-7-7-7-7-7-7-7-|--7-7-7-7-7-7-7-7-7-7-7-7-|
--------------------------|--------------------------|
--------------------------|--------------------------|

--------------------------|--------------------------|
--------------------------|--------------------------|
--7-3-----7-3-----7-3-----|--------------------------|
------5-0-----5-0-----5-0-|--7-7-7-7-7-7-7-7-7-7-7-7-|
--------------------------|--------------------------|
--------------------------|--------------------------|

--------------------------|--------------------------|
--------------------------|------------------8-8-8-8-|
--------------------------|----------7-7-7-7---------|
--7-7-7-7-7-7-7-7-7-7-7-7-|--8-8-8-8-----------------|
--------------------------|--------------------------|
--------------------------|--------------------------|

--6-6-6-6-10-10-10-10-15-15-15-15-|--18-18-18-18-------------------------|
----------------------------------|--------------20-20-20-20-15-15-15-15-|
----------------------------------|--------------------------------------|
----------------------------------|--------------------------------------|
----------------------------------|--------------------------------------|
----------------------------------|--------------------------------------|

------------------------||
--------------15r-------||
--15-15-15-15-18r-------||
------------------------||
------------------------||
------------------------||


                            Vivaldi's Summer (Presto)


Roope Latvala

D||---------------------------|---------------------------|
A||---------------------------|---------------------------|
F||--12-0-0-0-0-0-0-0-0-0-0-0-|--10-0-0-0-0-0-0-0-0-0-0-0-|
C||---------------------------|---------------------------|
G||---------------------------|---------------------------|
D||---------------------------|---------------------------|

--------------------------|-----------------------|--------|
--------------------------|-----------------------|--------|
--8-0-0-0-0-0-0-0-0-0-0-0-|--7-0-0-0-0-0-0-0-0----|--------|
--------------------------|-----------------------|--------|
--------------------------|-----------------------|--------|
--------------------------|-----------------------|--------|

---------------------------|---------------------------|
---------------------------|---------------------------|
---------------------------|---------------------------|
--12-0-0-0-0-0-0-0-0-0-0-0-|--10-0-0-0-0-0-0-0-0-0-0-0-|
---------------------------|---------------------------|
---------------------------|---------------------------|

--------------------------|-----------------------|--------------|
--------------------------|-----------------------|--------------|
--------------------------|-----------------------|--------------|
--8-0-0-0-0-0-0-0-0-0-0-0-|--7-0-0-0-0-0-0-0-0----|--------------|
--------------------------|-----------------------|--------------|
--------------------------|-----------------------|--------------|

--10-8-6--------------------|--------------------------|
---------10-8-7-------------|--------------------------|
----------------9-7-5-------|--------------------------|
----------------------8-7-5-|--5-5-5-5-5-5-5-5-5-5-5-5-|
----------------------------|--------------------------|
----------------------------|--------------------------|

--15-13-11----------------------------|--------------------------------------|
-----------15-13-11-------------------|--------------------------------------|
--------------------14-12-10----------|--------------------------------------|
-----------------------------13-12-10-|--10-10-10-10-10-10-10-10-10-10-10-10-|
--------------------------------------|--------------------------------------|
--------------------------------------|--------------------------------------|

--18-17-15----------------------------|--------------------------------------|
-----------18-16-15-------------------|--------------------------------------|
--------------------17-15-14----------|--------------------------------------|
-----------------------------17-15-13-|--13-13-13-13-13-13-13-13-13-13-13-13-|
--------------------------------------|--------------------------------------|
--------------------------------------|--------------------------------------|

--22-20-18----------------------------|--------------------------------------|
-----------22-20-19-------------------|--------------------------------------|
--------------------21-19-17----------|--------------------------------------|
-----------------------------20-19-17-|--17-17-17-17-17-17-17-17-17-17-17-17-|
--------------------------------------|--------------------------------------|
--------------------------------------|--------------------------------------|

--22-20-18----------------------------|--------------------------------------|
-----------22-20-19-------------------|--------------------------------------|
--------------------21-19-17----------|--------------------------------------|
-----------------------------20-19-17-|--17-17-17-17-17-17-17-17-17-17-17-17-|
--------------------------------------|--------------------------------------|
--------------------------------------|--------------------------------------|

--------------------------------------|--------------------------17~---|
--15-11-11-11-15-11-11-11-15-11-11-11-|-----------------17-19-20-------|
--------------------------------------|-----------17-19----------------|
--------------------------------------|--17-19-20----------------------|
--------------------------------------|--------------------------------|
--------------------------------------|--------------------------------|

--------------------------17~---|--------------------------18~---|
-----------------17-19-20-------|-----------------19-20-22-------|
-----------17-19----------------|-----------19-20----------------|
--17-19-20----------------------|--19-20-22----------------------|
--------------------------------|--------------------------------|
--------------------------------|--------------------------------|

-----------------------20-22~---|-----------------------20-22/---|
--------------20-22-23----------|--------------20-22-23----------|
-----19-21-23-------------------|-----19-21-23-------------------|
--19----------------------------|--19----------------------------|
--------------------------------|--------------------------------|
--------------------------------|--------------------------------|

--------------------------17~---|--------------------------18~---|
-----------------17-19-20-------|-----------------19-20-22-------|
-----------17-19----------------|-----------19-20----------------|
--17-19-20----------------------|--19-20-22----------------------|
--------------------------------|--------------------------------|
--------------------------------|--------------------------------|

-----------------------20-22/---|--18----------18----------18----------|
--------------20-22-23----------|-----20----------20----------20-------|
-----19-21-23-------------------|--------19----------19----------19----|
--19----------------------------|-----------17----------17----------17-|
--------------------------------|--------------------------------------|
--------------------------------|--------------------------------------|

--15----------15----------15----------|--10-6-----10-6-----10-6-----|
-----15----------15----------15-------|-------8--------8--------8---|
--------15----------15----------15----|---------7--------7--------7-|
-----------17----------17----------17-|-----------------------------|
--------------------------------------|-----------------------5-----|
--------------------------------------|-----------------------------|

--------------------------------------|--------------------------------------|
--------------------------------------|--------------------------------------|
--------------------------------------|--------------------------------------|
--------------------------------------|--------------------------------------|
--17h13-17h13-17h13-17h13-17h13-17h13-|--18h15-18h15-18h15-18h15-18h15-18h15-|
--------------------------------------|--------------------------------------|

--------------------------------------|--------------------------------------|
--------------------------------------|--------------------------------------|
--------------------------------------|--------------------------------------|
--------------------------------------|--------------------------------------|
--19h16-19h16-19h16-19h16-19h16-19h16-|--20h17-20h17-20h17-20h17-20h17-20h17-|
--------------------------------------|--------------------------------------|

--------------------------------------|--------------------------------------|
--------------------------------------|--------------------------------------|
--------------------------------------|--------------------------------------|
--------------------------------------|--------------------------------------|
--19h17-19h17-19h17-19h17-19h17-19h17-|--19h16-19h16-19h16-19h16-19h16-19h16-|
--------------------------------------|--------------------------------------|

----------------|--------------|--------------------------|
----------------|--------------|--------------14-14-17-17-|
----------------|--------------|--------14-14-------------|
----------------|--------------|--------------------------|
--17------------|--------------|--------------------------|
----------------|--------------|--------------------------|

-----------------------------|-----------------------------|
--22h10----20h10----18h10----|--17h10----18h10----20h10----|
--------7--------7--------7--|--------7--------7--------7--|
-----------------------------|-----------------------------|
-----------------------------|-----------------------------|
-----------------------------|-----------------------------|

-----------------------------|----------------13-13-17-17-|
--22h10----20h10----18t10----|--17------15-15-------------|
--------7--------7--------7--|--14------------------------|
-----------------------------|----------------------------|
-----------------------------|----------------------------|
-----------------------------|----------------------------|

--22h10----20h10----18h10----|--17h10----18h10----21h10----|
-----------------------------|-----------------------------|
--------7--------7--------7--|--------7--------7--------7--|
-----------------------------|-----------------------------|
-----------------------------|-----------------------------|
-----------------------------|-----------------------------|

--22h10----20h10----18h10----|--17------------------------|
-----------------------------|--15------22-22-20-20-18-18-|
--------7--------7--------7--|----------------------------|
-----------------------------|----------------------------|
-----------------------------|----------------------------|
-----------------------------|----------------------------|

--------------------------------------|--------------------------------------|
--------------------------------------|--------------------------------------|
--21-21-19-19-17-17-------------------|--------------------------------------|
--------------------20-20-19-19-17-17-|--------------------------------------|
--------------------------------------|--20-20-19-19-17-17-15-15-13-13-12-12-|
--------------------------------------|--------------------------------------|

--------------------------|----------------------|--------------------|
--------------------------|----------------------|--------------------|
--14--13--14--13--14--10--|--12--9--10--7--9--6--|--7--6--7--6--7--6--|
--------------------------|----------------------|--------------------|
--------------------------|----------------------|--------------------|
--------------------------|----------------------|--------------------|

--------------------|--13----------13--17--|--18--------------18--|
--------------------|--15------15----------|--20------15--15------|
--7--6--7--6--7--6--|----------------------|----------------------|
--------------------|----------------------|----------------------|
--------------------|----------------------|----------------------|
--------------------|----------------------|----------------------|

--18----------15--18--|--17--------------17--|--17--------------17--|
--13------13----------|--18----------18------|--18----------18------|
----------------------|----------17----------|----------19----------|
----------------------|----------------------|----------------------|
----------------------|----------------------|----------------------|
----------------------|----------------------|----------------------|

--15--------------15--|--15--------------15--|--13--------------13--|
--16----------16------|--16----------13------|--15----------15------|
----------15----------|----------13----------|----------15----------|
----------------------|----------------------|----------------------|
----------------------|----------------------|----------------------|
----------------------|----------------------|----------------------|

--13--------------13--|--11------------------|----------------------------|
--15----------11------|--13------------------|----------------------------|
----------10----------|----------17-19-20----|----------------17-19-20----|
----------------------|----------------------|----------17-18-------------|
----------------------|----------------------|----18-20-------------------|
----------------------|----------------------|----------------------------|

----------------------------|--------------------------------------|
----------------------------|--------------------------------------|
----------------17-19-20----|--12-17-13-17-12-17-13-17-12-17-13-17-|
----------17-18-------------|--------------------------------------|
----18-20-------------------|--------------------------------------|
----------------------------|--------------------------------------|

--------------------------------------|--------------------------------------|
--------------------------------------|--------------------------------------|
--13-17-16-17-13-17-16-17-13-17-16-17-|--12-17-16-17-12-17-16-17-17-16-14-16-|
--------------------------------------|--------------------------------------|
--------------------------------------|--------------------------------------|
--------------------------------------|--------------------------------------|

--------------------------------------|--------------------------------------|
--------------------------------------|--------------------------------------|
--17----------------------------------|--15----------------------------------|
--------------------------------------|--------------------------------------|
-----15-15-15-15-15-15-15-15-15-15-15-|-----15-15-15-15-15-15-15-15-15-15-15-|
--------------------------------------|--------------------------------------|

--------------------------------------|--------------------------------|
--------------------------------------|--------------------------------|
--------------------------------------|--------------------------------|
--18----------------------------------|--17----------------------------|
-----15-15-15-15-15-15-15-15-15-15-15-|-----15-15-15-15-15-15-15-15----|
--------------------------------------|--------------------------------|

--------------------------------------|--------------------------------------|
--20h16-20h13-20h16-20h13-20h16-20h13-|--20h15-20h12-20h15-20h12-20h15-20h12-|
--------------------------------------|--------------------------------------|
--------------------------------------|--------------------------------------|
--------------------------------------|--------------------------------------|
--------------------------------------|--------------------------------------|

--------------------------------------|--------------------------------------|
--20h16-20h13-20h16-20h13-20h16-20h13-|--18h15-18h11-18h15-18h11-18h15-18h11-|
--------------------------------------|--------------------------------------|
--------------------------------------|--------------------------------------|
--------------------------------------|--------------------------------------|
--------------------------------------|--------------------------------------|

--------------------------------------|------3-3-6-6-8-8-10-10-11-11-|
--20h16-20h11-20h16-20h11-20h16-20h11-|--4-4-------------------------|
--------------------------------------|------------------------------|
--------------------------------------|------------------------------|
--------------------------------------|------------------------------|
--------------------------------------|------------------------------|

--11h6-----11h6-----11h6-----|------6-6-8-8-10-10-11-11-13-13-|
-------8--------8--------8---|--9-9---------------------------|
---------8--------8--------8-|--------------------------------|
-----------------------------|--------------------------------|
-----------------------------|--------------------------------|
-----------------------------|--------------------------------|

--13h8-------13h8-------13h8-------|--------------------------13-13-15-15-|
-------10---------10---------10----|--------13-13-15-15-16-16-------------|
----------10---------10---------10-|--15-15-------------------------------|
-----------------------------------|--------------------------------------|
-----------------------------------|--------------------------------------|
-----------------------------------|--------------------------------------|

--15h10-------15h10-------15h10-------|--11----------------------------------|
--------12----------12----------12----|--------------------------------------|
-----------12----------12----------12-|--------------------------------------|
--------------------------------------|--------------------------------------|
--------------------------------------|-----15-15-15-15-15-15-15-15-15-15-15-|
--------------------------------------|--------------------------------------|

--------------------------------------|--------------------------------------|
--------------------------------------|--------------------------------------|
--------------------------------------|--------------------------------------|
--18----------18----------18----------|--------------------------------------|
-----15-15-15----15-15-15----15-15-15-|--14-14-14-14-14-14-14-14-14-14-14-14-|
--------------------------------------|--------------------------------------|

--------------------------------------|--------------------------------------|
--------------------------------------|--------------------------------------|
--------------------------------------|--------------------------------------|
--17----------17----------17----------|--------------------------------------|
-----13-13-13----13-13-13----13-13-13-|--12-12-12-12-12-12-12-12-12-12-12-12-|
--------------------------------------|--------------------------------------|

--------------------------------------|--------------------------------|
--------------------------------------|--------------------------------|
--------------------------------------|--------------------------------|
--15----------15----------15----------|--------17-17-17-17-17-17-17-17-|
-----11-11-11----11-11-11----11-11-11-|--11/---------------------------|
--------------------------------------|--------------------------------|

--------------------------------------|--------------------------------------|
--------------------------------------|--------------------------------------|
--20----------20----------20----------|--------------------------------------|
-----16-16-16----16-16-16----16-16-16-|--15-15-15-15-15-15-15-15-15-15-15-15-|
--------------------------------------|--------------------------------------|
--------------------------------------|--------------------------------------|

--------------------------------------|--------------------------------------|
--------------------------------------|--------------------------------------|
--19----------19----------19----------|--------------------------------------|
-----14-14-14----14-14-14----14-14-14-|--13-13-13-13-13-13-13-13-13-13-13-13-|
--------------------------------------|--------------------------------------|
--------------------------------------|--------------------------------------|

--------------------------------------|--------------------------------------|
--------------------------------------|--------------------------------------|
--17----------17----------17----------|--------------------------------------|
-----12-12-12----12-12-12----12-12-12-|--12-12-12-12-16-12-12-12-19-12-12-12-|
--------------------------------------|--------------------------------------|
--------------------------------------|--------------------------------------|

--------------------------------------|--------------------------------------|
--------------------------------------|--------------19----------20----------|
--------------------------19----------|--20----------------------------------|
--16-12-12-12-19-12-12-12----12-12-12-|-----12-12-12----12-12-12----12-12-12-|
--------------------------------------|--------------------------------------|
--------------------------------------|--------------------------------------|

--17----------18----------20----------|--22----------------------10-8-6----|
--------------------------------------|---------------------------------10-|
--------------------------------------|------------------------------------|
-----12-12-12----12-12-12----12-12-12-|-----12-12-12-12-12-12-12-----------|
--------------------------------------|------------------------------------|
--------------------------------------|------------------------------------|

--------------------------|------------------15-13-11----|
--8-7---------------------|---------------------------15-|
------9-7-5---------------|------------------------------|
------------8-7-5-5-5-5-5-|--5-5-5-5-5-5-5-5-------------|
--------------------------|------------------------------|
--------------------------|------------------------------|

--------------------------------------|--------------------------18-17-15----|
--13-11-------------------------------|-----------------------------------18-|
--------14-12-10----------------------|--------------------------------------|
-----------------13-12-10-10-10-10-10-|--10-10-10-10-10-10-10-10-------------|
--------------------------------------|--------------------------------------|
--------------------------------------|--------------------------------------|

--------------------------------------|--------------------------22-20-18----|
--16-15-------------------------------|-----------------------------------22-|
--------17-15-14----------------------|--------------------------------------|
-----------------17-15-13-13-13-13-13-|--13-13-13-13-13-13-13-13-------------|
--------------------------------------|--------------------------------------|
--------------------------------------|--------------------------------------|

--------------------------------------|--------------------------------------|
--20-19-------------------------------|--------------------------------------|
--------21-19-17----------------------|--------------------------19----------|
-----------------20-19-17-17-17-17-17-|--17-17-17-17-17-17-17-17----17-17-17-|
--------------------------------------|--------------------------------------|
--------------------------------------|--------------------------------------|

--------------------------------------|--------------------------------------|
--------------19----------20----------|--18----------------------------------|
--21----------------------------------|--------------20----------19----------|
-----17-17-17----17-17-17----17-17-17-|-----17-17-17----17-17-17----17-17-17-|
--------------------------------------|--------------------------------------|
--------------------------------------|--------------------------------------|

--------------------------------------|--------------------------------|
--------------19----------20----------|--18----------------------------|
--21----------------------------------|--------------20----------19----|
-----17-17-17----17-17-17----17-17-17-|-----17-17-17----17-17-17-------|
--------------------------------------|--------------------------------|
--------------------------------------|--------------------------------|

--------------|--------------|--------------------------------------|
--------------|--------------|--------------------------------------|
--------------|--------------|--------------------------------------|
--------------|--------------|--------------------------------------|
--------------|--------------|--17h13-17h13-17h13-17h13-17h13-17h13-|
--------------|--------------|--------------------------------------|

--------------------------------------|--------------------15-13-17-15-18-17-|
--------------------------------------|--15-13-16-15-18-16-------------------|
--------------------14-12-15-14-17-15-|--------------------------------------|
--13-12-15-13-17-15-------------------|--------------------------------------|
--------------------------------------|--------------------------------------|
--------------------------------------|--------------------------------------|

--------------------------------------|--------------------15-13-17-15-18-17-|
--------------------------------------|--15-13-16-15-18-16-------------------|
--------------------14-12-15-14-17-15-|--------------------------------------|
--13-12-15-13-17-15-------------------|--------------------------------------|
--------------------------------------|--------------------------------------|
--------------------------------------|--------------------------------------|

--------------------------------------|--3-------3-------3-------|
-----------15-13-11-------------------|----3-------3-------3-----|
--12-12-12----------14-12-------------|------3-0-----3-0-----3-0-|
--------------------------15-13-12----|--------------------------|
-----------------------------------13-|--------------------------|
--------------------------------------|--------------------------|

--------------------------------------|--------------------------------------|
--------------------------------------|--------------------------------------|
--12-12-12-12-12-12-12-12-12-12-12-12-|--11-11-11-11-11-11-11-11-11-11-11-11-|
--------------------------------------|--------------------------------------|
--------------------------------------|--------------------------------------|
--------------------------------------|--------------------------------------|

--3-------3-------3-------|--------------------------------------|
----3-------3-------3-----|--------------------------------------|
------3-0-----3-0-----3-0-|--12-12-12-12-12-12-12-12-12-12-12-12-|
--------------------------|--------------------------------------|
--------------------------|--------------------------------------|
--------------------------|--------------------------------------|

--------------------------------------|--------------------------------------|
--------------------------------------|--------------------------15-15-15-15-|
--11-11-11-11-11-11-11-11-11-11-11-11-|--12-12-12-12-15-15-15-15-------------|
--------------------------------------|--------------------------------------|
--------------------------------------|--------------------------------------|
--------------------------------------|--------------------------------------|

--15-15-15-15-18-18-18-18-22-22-22-22-|--15-15-15-15-10-10-10-10-6-6-6-6-|
--------------------------------------|----------------------------------|
--------------------------------------|----------------------------------|
--------------------------------------|----------------------------------|
--------------------------------------|----------------------------------|
--------------------------------------|----------------------------------|

--3-3-3-3-----------||
--------------------||
--------------------||
--------------------||
--------------------||
----------15--------||
comments
print report bad tab
3 comments total.
0 reply
dan_michigan31 wrote on June 8 2008, 10:56 pm

hey, this is a good tab, but it should say tapping, for some parts, i got confused at first, but then realized that it was tapping, ( roopes part) thanks again dude. you helped alot

0 reply
AJSaw wrote on August 3 2010, 11:20 pm

this is kinda hard

+1 reply
Synyster430 wrote on August 3 2011, 05:29 pm

It's brilliant. But keep in mind when trying to learn this: Have the video of Alexi Laiho playing this while learning. Here's the link to the vid: http://www.youtube.com/watch?v=bWx_GyTLGmQ

I want to post or [tab]
guest
You may want to rate the tab now too:
select rating
Please do not post tabs as comments. Select "correction" instead!