Oops, an error
Loading. Please wait.

Hate Crew Deathroll Tab

ver1
ver1

Album

Whole song

More versions @911Tabs.com
18,790 views 6 this week
8 commentsread comments
1 2 3 4 5
accurate
x 10
Autoscroll
+/-
esc
set tempo
stop
Contributor
WARNING: You are trying to view
                                    content from Ultimate-Guitar.com
                                    in an unauthorized application,
                                    which is prohibited.

                                    Please use an official Ultimate
                                    Guitar Tabs application for iPhone,
                                    iPad or Android to access legitimate
                                    chords, guitar, bass, and drum tabs
                                    from Ultimate-Guitar.com database.

                                    Type "ultimate guitar tabs" in Apple
                                    App Store's or Android Market's
                                    search to find the application.
Children of Bodom
Hatecrew Death Roll Album

1.Needled 24/7             |-untilted-----|
2.Sixpounder               |-agp_87-------|
3.Chokehold                |-COBHC99------|
4.Bodom Beach Terror       |-Kevin666-----|
5.Angels Don't Kill        |-Unregistered-|
6.Triple Corpse Hammerblow |-Kevin666-----|
7.You're Better off Dead   |-Kevin666-----|
8.lil bloodred riding Hood |-Kevin666-----|
9.Hatecrew Deathroll       |-Unregistered-|

-----------------------------------------------------------------------------

1.Needled 24/7

/4            4/4
  Gtr I
                   PM-------------------------
  H    Q  E  E   E S S S S S S E S S S S S S
|--------------|-----------------------------|
|--------------|-----------------------------|
|--------------|-----------------------------|
|-----------10-|-9---------------------------|
|------------8-|-7---------------------------|
|--------------|---0-0-0-0-0-0-0-0-0-0-0-0-0-|

          G5  D5F5 E5
 -------|                  PM------------------|
  E S S E  Q  E  E E   +E  S S S S S S E S S E E
|--------------------|----------------------------|
|--------------------|----------------------------|
|--------------------|----------------------------|
|---------12--7-10-9-|-(9)------------------------|
|---------10--5--8-7-|-(7)------------------------|
|-0-0-0-0------------|-----0-0-0-0-0-0-0-0-0-0-0--|



  E5 D5E5  C5 B5F5 E5                                          G5  D5F5 E5
                           PM--------------------------------|
   E E  Q   E E  E E   +E  S S S S S S E S S S S S S   E S S E  Q  E  E E
|--------------------|-------------------------------|--------------------|
|--------------------|-------------------------------|--------------------|
|--------------------|-------------------------------|--------------------|
|--9-7--9-------10-9-|-(9)---------------------------|---------12--7-10-9-|
|--7-5--7--10-9--8-7-|-(7)---------------------------|---------10--5--8-7-|
|-----------8-7------|-----0-0-0-0-0-0-0-0-0-0-0-0-0-|-0-0-0-0------------|
|
|                          PM--------------------------------|
|  E E  Q   E E  E E   +E  S S S S S S E S S S S S S   E S S E  Q  E  E E
|--------------------|-------------------------------|--------------------|
|--------------------|-------------------------------|--------------------|
|--------------------|-------------------------------|--------------------|
|----------10-9-10-9-|-(9)---------------------------|---------12--7-10-9-|
|-10-9-10--------8-7-|-(7)---------------------------|---------10--5--8-7-|
|--------------------|-----0-0-0-0-0-0-0-0-0-0-0-0-0-|-0-0-0-0------------|


                        B5        C5D5E5
                            3/4
      PM--------------|
                                  |-3-|
  +E  S S S S S S E S S Q    +Q   Q Q Q
|--------------------------|------------|
|--------------------------|------------|
|--------------------------|------------|
|-(9)-------------------4--|-(4)--5-7-9-|
|-(7)-------------------2--|-(2)--3-5-7-|
|-----0-0-0-0-0-0-0-0-0----|------------|
|
|     PM--------------|
|                                 |-3-|
| +E  S S S S S S E S S Q    +Q   Q Q Q
|--------------------------|------------|
|--------------------------|------------|
|--------------------------|------------|
|-(9)-------------------4--|-(4)--5-7-9-|
|-(7)-------------------2--|-(2)--3-5-7-|
|-----0-0-0-0-0-0-0-0-0----|------------|


 Guitar Solo 1
  F5   E5                                        G5    D5
 4/4
   W                           +W
|----------------------------|---------------------------|
|--0b6-----------------------|-(0)-----------------------|
|----------------------------|---------------------------|
|----------------------------|---------------------------|
|----------------------------|---------------------------|
|----------------------------|---------------------------|
|
|        PM------------------------------------|
|  E   E E S S S S S S E S S    S  S S S E S S E  E  E E
|----------------------------|---------------------------|
|----------------------------|---------------------------|
|----------------------------|---------------------------|
|-10---9---------------------|-------------------12-12-7-|
|--8---7---------------------|-------------------10-10-5-|
|--------0-0-0-0-0-0-0-0-0-0-|--0--0-0-0-0-0-0-0---------|


  F5  E5                              D5E5  C5B5
  +W                          +W
|---------------------------|----------------------|
|-(0)-----------------------|-(0)------------------|
|---------------------------|----------------------|
|---------------------------|----------------------|
|---------------------------|----------------------|
|---------------------------|----------------------|
|
|       PM------------------------|       PM
|  E  E E S S S S S S E S S    E  E E E E E E E
|---------------------------|----------------------|
|---------------------------|----------------------|
|---------------------------|----------------------|
|-10--9---------------------|-------9-7-9---5-4----|
|--8--7---------------------|-------7-5-7---3-2----|
|-------0-0-0-0-0-0-0-0-0-0-|--0--0-------0--------|


  F5    E5                                                                        G5          D5
   S  S  S  S  S  S  S  S  S  S  S  S  S  S  S  S    S  S  S  S  S  S  S  S  S  S  S  S  S  S  E
|-------------------------------------------------|----------------------------------------------|
|-15-12----12-15-12-15-12----12-15-12-15-12----12-|-15-12----12-15-12-15-12----12-15-12-15-12----|
|-------15----------------15----------------15----|-------15----------------15----------------15-|
|-------------------------------------------------|----------------------------------------------|
|-------------------------------------------------|----------------------------------------------|
|-------------------------------------------------|----------------------------------------------|
|
|              PM-----------------------------------------------------------|
|  E     E     E     S  S  S  S  S  S  E     S  S    S  S  S  S  E     S  S  E     E     E     E
|-------------------------------------------------|----------------------------------------------|
|-------------------------------------------------|----------------------------------------------|
|-------------------------------------------------|----------------------------------------------|
|-10-----9----------------------------------------|-------------------------------12----12-----7-|
|--8-----7----------------------------------------|-------------------------------10----10-----5-|
|--------------0-----0--0--0--0--0--0--0-----0--0-|--0--0--0--0--0-----0--0--0-------------------|


  F5    E5                                          B5          C5   D5
   S  S  S  S  S  S  S  S  S  S  S  S  S  S  S  S    E  E  E  Q    E  E  E
|-15-14-12----14-12-------12----------------------|-------------------------|
|----------15-------15-13----15-13-12-15-13-12----|-------12----------------|
|----------------------------------------------14-|-12-14----14---12-11-----|
|-------------------------------------------------|---------------------12--|
|-------------------------------------------------|-------------------------|
|-------------------------------------------------|-------------------------|
|
|              PM---------------------------|
|  E     E     E     S  S  S  S  S  S  E     E       H          Q     Q
|-------------------------------------------------|-------------------------|
|-------------------------------------------------|-------------------------|
|-------------------------------------------------|-------------------------|
|-10-----9----------------------------------------|--4----------5-----7-----|
|--8-----7----------------------------------------|--2----------3-----5-----|
|--------------0-----0--0--0--0--0--0--0-----0----|-------------------------|


 Main Theme
  E5       B5        C5      D5        E5       A5          G5       D5
  E E  E E E E E E   E E E E E E E E   E E E  E  E  E E E   E E  E E E E E E
|------------------|-----------------|---7-8----------7---|------------------|
|---8-10-7-7-7-8---|-----7-------7---|-------10-10-10---8-|-8-8-10-7-7---7---|
|-9--------------9-|-9-9---7-7-9---7-|-9------------------|------------7---7-|
|------------------|-----------------|--------------------|------------------|
|------------------|-----------------|--------------------|------------------|
|------------------|-----------------|--------------------|------------------|
|
| H        H         H       H         H         H          H        H
|------------------|-----------------|--------------------|------------------|
|------------------|-----------------|--------------------|------------------|
|------------------|-----------------|--------------------|------------------|
|-9--------4-------|-5-------7-------|-9------------------|----------7-------|
|-7--------2-------|-3-------5-------|-7---------7--------|-5--------5-------|
|------------------|-----------------|-----------5--------|-3----------------|


  E5       B5        C5      D5        E5       A5          G5       D5
                                                                      ~~~
  E E  E E E E E E   E E E E E E E E   E E E  E  E  E E E   E E  E E  H
|------------------|-----------------|---7-8----------7---|-----------------||
|---8-10-7-7-7-8---|-----7-------7---|-------10-10-10---8-|-8-8-10-7-[8]----||
|-9--------------9-|-9-9---7-7-9---7-|-9------------------|-----------------||
|------------------|-----------------|--------------------|-----------------||
|------------------|-----------------|--------------------|-----------------||
|------------------|-----------------|--------------------|-----------------||
|
| H        H         H       H         H         H          H         H
|------------------|-----------------|--------------------|-----------------||
|------------------|-----------------|--------------------|-----------------||
|------------------|-----------------|--------------------|-----------------||
|-9--------4-------|-5-------7-------|-9------------------|-----------7-----||
|-7--------2-------|-3-------5-------|-7---------7--------|-5---------5-----||
|------------------|-----------------|-----------5--------|-3---------------||


 Verse
  $
  F5 E5                                  N.C.
       PM------------------------------|
   E E E S S S S S S E S S   S S S S E E  E  E E  E
|--------------------------|------------------------|
|--------------------------|------------------------|
|--------------------------|------------------------|
|-10-9---------------------|------------------------|
|--8-7---------------------|-------------10-14-9-12-|
|------0-0-0-0-0-0-0-0-0-0-|-0-0-0-0-0-0------------|
|
|      PM------------------------------|
|  E E E S S S S S S E S S   S S S S E E  E  E E  E
|--------------------------|------------------------|
|--------------------------|------------------------|
|--------------------------|------------------------|
|-10-9---------------------|--------------9----7----|
|--8-7---------------------|----------------10----9-|
|------0-0-0-0-0-0-0-0-0-0-|-0-0-0-0-0-0------------|


  F5 E5                          E5 D5E5  C5    B5
       PM----------------------|
   E E E S S S S S S E S S   E E  E E  Q   S  S E
|--------------------------|-----------------------|
|--------------------------|-----------------------|
|--------------------------|-----------------------|
|-10-9---------------------|------9-7--9-----------|
|--8-7---------------------|------7-5--7-----------|
|------0-0-0-0-0-0-0-0-0-0-|-0-0-----------8--8-7--|
|
|      PM----------------------|
|  E E E S S S S S S E S S   E E  E E  Q   S  S E
|--------------------------|-----------------------|
|--------------------------|-----------------------|
|--------------------------|-----------------------|
|-10-9---------------------|--------------10-10-9--|
|--8-7---------------------|-----10-9-10-----------|
|------0-0-0-0-0-0-0-0-0-0-|-0-0-------------------|


  A5   C5      A5   C5      F5 E5                          E5 D5E5  C5 B5
                                 PM----------------------|
  H     H      H     H       E E E S S S S S S E S S   E E  E E  Q   E E
|------------|------------|--------------------------|-------------------|
|------------|------------|--------------------------|-------------------|
|------------|------------|--------------------------|-------------------|
|------------|------------|-10-9---------------------|------9-7--9-------|
|-7----10----|-7----10----|--8-7---------------------|------7-5--7--10-9-|
|-5-----8----|-5-----8----|------0-0-0-0-0-0-0-0-0-0-|-0-0-----------8-7-|
|
|                                PM----------------------|
| H     H      H     H       E E E S S S S S S E S S   E E  E E  Q   E E
|------------|------------|--------------------------|-------------------|
|------------|------------|--------------------------|-------------------|
|------------|------------|--------------------------|-------------------|
|------------|------------|-10-9---------------------|--------------10-9-|
|-7----10----|-7----10----|--8-7---------------------|-----10-9-10-------|
|-5-----8----|-5-----8----|------0-0-0-0-0-0-0-0-0-0-|-0-0---------------|


  F5 E5                                  N.C.
       PM------------------------------|
   E E E S S S S S S E S S   S S S S E E  E  E E  E
|--------------------------|------------------------|
|--------------------------|------------------------|
|--------------------------|------------------------|
|-10-9---------------------|------------------------|
|--8-7---------------------|-------------10-14-9-12-|
|------0-0-0-0-0-0-0-0-0-0-|-0-0-0-0-0-0------------|
|
|      PM------------------------------|
|  E E E S S S S S S E S S   S S S S E E  E  E E  E
|--------------------------|------------------------|
|--------------------------|------------------------|
|--------------------------|------------------------|
|-10-9---------------------|--------------9----7----|
|--8-7---------------------|----------------10----9-|
|------0-0-0-0-0-0-0-0-0-0-|-0-0-0-0-0-0------------|


  F5 E5                          E5 D5E5  C5    B5
       PM----------------------|
   E E E S S S S S S E S S   E E  E E  Q   S  S E
|--------------------------|-----------------------|
|--------------------------|-----------------------|
|--------------------------|-----------------------|
|-10-9---------------------|------9-7--9-----------|
|--8-7---------------------|------7-5--7-----------|
|------0-0-0-0-0-0-0-0-0-0-|-0-0-----------8--8-7--|
|
|      PM----------------------|
|  E E E S S S S S S E S S   E E  E E  Q   S  S E
|--------------------------|-----------------------|
|--------------------------|-----------------------|
|--------------------------|-----------------------|
|-10-9---------------------|--------------10-10-9--|
|--8-7---------------------|-----10-9-10-----------|
|------0-0-0-0-0-0-0-0-0-0-|-0-0-------------------|


                                                              To Coda
  A5   C5      A5   C5      F5 E5                    N.C.
                                 PM--------------|
  H     H      H     H       E E E S S S S S S E E   E E E E E E E E
|------------|------------|------------------------|------------------||
|------------|------------|------------------------|------------------||
|------------|------------|------------------------|-9-8-9-8----------||
|------------|------------|-10-9-------------------|---------6-----6--||
|-7----10----|-7----10----|--8-7-------------------|-----------7-8----||
|-5-----8----|-5-----8----|------0-0-0-0-0-0-0-0-0-|------------------||
|
|                                PM--------------|
| H     H      H     H       E E E S S S S S S E E   E E E E E E E E
|------------|------------|------------------------|------------------||
|------------|------------|------------------------|------------------||
|------------|------------|------------------------|-4-3-4-3-1-----1--||
|------------|------------|-10-9-------------------|-----------2-3----||
|-7----10----|-7----10----|--8-7-------------------|------------------||
|-5-----8----|-5-----8----|------0-0-0-0-0-0-0-0-0-|------------------||


 Bridge
  E5
  Gtrs I, II
  E E Q  H      W          W          W
|-------------|----------|----------|------|
|-------------|----------|----------|------|
|-------------|----------|----------|------|
|-------------|----------|----------|------|
|-2-2---------|----------|----------|------|
|-0-0---------|----------|----------|------|


  E5
  E E Q  H      W          W          W
|-------------|----------|----------|------||
|-------------|----------|----------|------||
|-------------|----------|----------|------||
|-------------|----------|----------|------||
|-2-2---------|----------|----------|------||
|-0-0---------|----------|----------|------||


 Main Theme
  E5       B5        C5      D5        E5       A5          G5       D5
  Gtr I
  E E  E E E E E E   E E E E E E E E   E E E  E  E  E E E   E E  E E E E E E
|------------------|-----------------|---7-8----------7---|------------------|
|---8-10-7-7-7-8---|-----7-------7---|-------10-10-10---8-|-8-8-10-7-7---7---|
|-9--------------9-|-9-9---7-7-9---7-|-9------------------|------------7---7-|
|------------------|-----------------|--------------------|------------------|
|------------------|-----------------|--------------------|------------------|
|------------------|-----------------|--------------------|------------------|
|
| Gtr II
| E E  E E E E E E   E E E E E E E E   E E E  E  E  E E E   E E  E E E E E E
|------------------|-----------------|--------------------|------------------|
|------------------|-----------------|--------------------|------------------|
|------------------|-----------------|--------------------|------------------|
|-9-9--9-9-4-4-4-4-|-5-5-5-5-7-7-7-7-|-9-9-9--9--2--2-2-2-|----------7-7-7-7-|
|-7-7--7-7-2-2-2-2-|-3-3-3-3-5-5-5-5-|-7-7-7--7--0--0-0-0-|-5-5--5-5-5-5-5-5-|
|------------------|-----------------|--------------------|-3-3--3-3---------|


  E5       B5        C5      D5        E5       A5          G5       D5
                                                                      ~~~
  E E  E E E E E E   E E E E E E E E   E E E  E  E  E E E   E E  E E  H
|------------------|-----------------|---7-8----------7---|-----------------||
|---8-10-7-7-7-8---|-----7-------7---|-------10-10-10---8-|-8-8-10-7-[8]----||
|-9--------------9-|-9-9---7-7-9---7-|-9------------------|-----------------||
|------------------|-----------------|--------------------|-----------------||
|------------------|-----------------|--------------------|-----------------||
|------------------|-----------------|--------------------|-----------------||
|
| E E  E E E E E E   E E E E E E E E   E E E  E  E  E E E   E E  E E  H
|------------------|-----------------|--------------------|-----------------||
|------------------|-----------------|--------------------|-----------------||
|------------------|-----------------|--------------------|-----------------||
|-9-9--9-9-4-4-4-4-|-5-5-5-5-7-7-7-7-|-9-9-9--9--2--2-2-2-|-----------7-----||
|-7-7--7-7-2-2-2-2-|-3-3-3-3-5-5-5-5-|-7-7-7--7--0--0-0-0-|-5-5--5-5--5-----||
|------------------|-----------------|--------------------|-3-3--3-3--------||


 Bridge
  E5                                           EbC5
  Gtrs I, II
                                           PM
  E E Q  H      W          W          H    E E E E
|-------------|----------|----------|--------------|
|-------------|----------|----------|--------------|
|-------------|----------|----------|--------------|
|-------------|----------|----------|--------9-8-5-|
|-2-2---------|----------|----------|--------7-6-3-|
|-0-0---------|----------|----------|------0-------|


  E5                                  B5
  E E Q  H      W          W          E E E E E E E E
|-------------|----------|----------|-----------------|
|-------------|----------|----------|-----------------|
|-------------|----------|----------|-----------------|
|-------------|----------|----------|-9-9-9-9-9-9-9-9-|
|-2-2---------|----------|----------|-9-9-9-9-9-9-9-9-|
|-0-0---------|----------|----------|-7-7-7-7-7-7-7-7-|


 Chorus
  &
  E5    F#5     G5   D      N.C.
  Gtr I
   H     H      H    H       E  S  S  E  S  S  E  S  S  S  S  S S
|-------------|-----------|---------------------------------------|
|-------------|-----------|---------------------------------------|
|-------------|-----------|---------------------------------------|
|--2-----4----|-5----4----|---------------------------------------|
|--2-----4----|-5----5----|--3--3--3--3--3--3--3--3--3--3--5--3-2-|
|--0-----2----|-3---------|---------------------------------------|
|
| Gtr II
|  H     H      H    H       E  S  S  E  S  S  E  S  S  S  S  S S
|-------------|-----------|---------------------------------------|
|-12----10----|-8----7----|---------------------------------------|
|-------------|-----------|---------------------------------------|
|--9-----7----|-5----4----|---------------------------------------|
|-------------|-----------|-10-10-10-10-10-10-10-10-10-10-12-10-9-|
|-------------|-----------|---------------------------------------|


                                          C5    D5      E5   D5
   E  S  S  E  S  S  E  S  S  S  S  S S    H     H      H    H
|---------------------------------------|-------------|-----------|
|---------------------------------------|-------------|-----------|
|---------------------------------------|--5-----7----|-9----7----|
|---------------------------------------|--5-----7----|-9----7----|
|--3--3--3--3--3--3--3--3--3--3--5p=3p2-|--3-----5----|-7----5----|
|---------------------------------------|-------------|-----------|
|
|  E  S  S  E  S  S  E  S  S  S  S  S S    H     H      H    H
|---------------------------------------|-------------|-----------|
|---------------------------------------|-12----10----|-8----7----|
|---------------------------------------|-------------|-----------|
|---------------------------------------|--9-----7----|-5----4----|
|-10-10-10-10-10-10-10-10-10-10-12-10-9-|-------------|-----------|
|---------------------------------------|-------------|-----------|


  N.C.
  S S S S S S S S S S S S S  S S S   S S S S S S S S S S S S S  S S S
|----------------------------------|----------------------------------|
|----------------------------------|----------------------------------|
|----------------------------------|----------------------------------|
|----------------------------------|----------------------------------|
|-7-7-7-7-7-7-7-7-7-7-7-7-7--8-7-5-|-7-7-7-7-7-7-7-7-7-7-7-7-7--8-7-5-|
|----------------------------------|----------------------------------|
|
| S S S S S S S S S S S S S  S S S   S S S S S S S S S S S S S  S S S
|----------------------------------|----------------------------------|
|----------------------------------|----------------------------------|
|----------------------------------|----------------------------------|
|-9-9-9-9-9-9-9-9-9-9-9-9-9-10-9-7-|-9-9-9-9-9-9-9-9-9-9-9-9-9-10-9-7-|
|----------------------------------|----------------------------------|
|----------------------------------|----------------------------------|


  E5    F#5     G5   D      N.C.
   H     H      H    H       E  S  S  E  S  S  E  S  S  S  S  S S
|-------------|-----------|---------------------------------------|
|-------------|-----------|---------------------------------------|
|-------------|-----------|---------------------------------------|
|--2-----4----|-5----4----|---------------------------------------|
|--2-----4----|-5----5----|--3--3--3--3--3--3--3--3--3--3--5--3-2-|
|--0-----2----|-3---------|---------------------------------------|
|
|  H     H      H    H       E  S  S  E  S  S  E  S  S  S  S  S S
|-------------|-----------|---------------------------------------|
|-12----10----|-8----7----|---------------------------------------|
|-------------|-----------|---------------------------------------|
|--9-----7----|-5----4----|---------------------------------------|
|-------------|-----------|-10-10-10-10-10-10-10-10-10-10-12-10-9-|
|-------------|-----------|---------------------------------------|


                                          C5    D5      E5   D5
   E  S  S  E  S  S  E  S  S  S  S  S S    H     H      H    H
|---------------------------------------|-------------|-----------|
|---------------------------------------|-------------|-----------|
|---------------------------------------|--5-----7----|-9----7----|
|---------------------------------------|--5-----7----|-9----7----|
|--3--3--3--3--3--3--3--3--3--3--5p=3p2-|--3-----5----|-7----5----|
|---------------------------------------|-------------|-----------|
|
|  E  S  S  E  S  S  E  S  S  S  S  S S    H     H      H    H
|---------------------------------------|-------------|-----------|
|---------------------------------------|-12----10----|-8----7----|
|---------------------------------------|-------------|-----------|
|---------------------------------------|--9-----7----|-5----4----|
|-10-10-10-10-10-10-10-10-10-10-12-10-9-|-------------|-----------|
|---------------------------------------|-------------|-----------|


                     To Dbl. Coda
  N.C.
                                      ~~~
  S S S S S S S S S S S S S  S S S    Q   Q  H
|----------------------------------|--------------|
|----------------------------------|--------------|
|----------------------------------|--------------|
|----------------------------------|--------------|
|-7-7-7-7-7-7-7-7-7-7-7-7-7--8-7-5-|-[7]----------|
|----------------------------------|--------------|
|
|                                     ~~~
| S S S S S S S S S S S S S  S S S    Q   Q  H
|----------------------------------|--------------|
|----------------------------------|--------------|
|----------------------------------|--------------|
|-9-9-9-9-9-9-9-9-9-9-9-9-9-10-9-7-|-[9]----------|
|----------------------------------|--------------|
|----------------------------------|--------------|


 Keyboard Solo
  E5
  Gtrs I, II
  PM------------------------------------------------------|
  S S S S S S S S S S S S S S S S   S S S S S S S S S S S S Q
|---------------------------------|----------------------------|
|---------------------------------|----------------------------|
|---------------------------------|-------------------------9--|
|---------------------------------|-------------------------9--|
|---------------------------------|-------------------------7--|
|-0-0-0-0-0-0-0-0-0-0-0-0-0-0-0-0-|-0-0-0-0-0-0-0-0-0-0-0-0----|


  E5                                                        F5
  PM------------------------------------------------------|
  S S S S S S S S S S S S S S S S   S S S S S S S S S S S S  Q
|---------------------------------|-----------------------------|
|---------------------------------|-----------------------------|
|---------------------------------|-------------------------10--|
|---------------------------------|-------------------------10--|
|---------------------------------|--------------------------8--|
|-0-0-0-0-0-0-0-0-0-0-0-0-0-0-0-0-|-0-0-0-0-0-0-0-0-0-0-0-0-----|


  E5
  PM------------------------------------------------------|
  S S S S S S S S S S S S S S S S   S S S S S S S S S S S S Q
|---------------------------------|----------------------------|
|---------------------------------|----------------------------|
|---------------------------------|-------------------------9--|
|---------------------------------|-------------------------9--|
|---------------------------------|-------------------------7--|
|-0-0-0-0-0-0-0-0-0-0-0-0-0-0-0-0-|-0-0-0-0-0-0-0-0-0-0-0-0----|


                                   D.S. al Coda
                                   D.S. al Coda
  E5                                C5 G5 D5 A5
  Gtr I
  PM----------------------------|
  S S S S S S S S S S S S S S S S   Q  Q  Q  Q
|---------------------------------|-------------||
|---------------------------------|-------------||
|---------------------------------|-5-----7-----||
|---------------------------------|-5--5--7--7--||
|---------------------------------|-3--5--5--7--||
|-0-0-0-0-0-0-0-0-0-0-0-0-0-0-0-0-|----3-----5--||
|
| Gtr II
| PM----------------------------|
| S S S S S S S S S S S S S S S S   Q  Q  Q  Q
|---------------------------------|-------------||
|---------------------------------|-------------||
|---------------------------------|-5-----7-----||
|---------------------------------|-5--5--7--7--||
|---------------------------------|-3--5--5--7--||
|-0-0-0-0-0-0-0-0-0-0-0-0-0-0-0-0-|----3-----5--||


  &&
  N.C.
  S S S S S S S S S S S S S  S S S
|------------------------------------|
|------------------------------------|
|------------------------------------|
|------------------------------------|
|-7-7-7-7-7-7-7-7-7-7-7-7-7--8-7-5---|
|------------------------------------|
|
| S S S S S S S S S S S S S  S S S
|------------------------------------|
|------------------------------------|
|------------------------------------|
|-9-9-9-9-9-9-9-9-9-9-9-9-9-10-9-7---|
|------------------------------------|
|------------------------------------|


 Interlude
  C5          Bb5   C5          Bb5   C5          Bb5   C5      C#C Bb
                                                                |-3-|
  E E E E E E E E   E E E E E E E E   E E E E E E E E   E E E E Q Q Q
|-----------------|-----------------|-----------------|----------------|
|-------------6---|-8-------8---6---|-------------6---|-8--------------|
|-8-5-5-5-8-5---5-|---5-5-5---5---5-|-8-5-5-5-8-5---5-|---5-5-5-6-5----|
|-----------------|-----------------|-----------------|-------------8--|
|-----------------|-----------------|-----------------|----------------|
|-----------------|-----------------|-----------------|----------------|
|
|                                                               |-3-|
| E E Q   Q   Q     E E Q   Q   E E   E E Q   Q   Q     E E Q   Q Q Q
|-----------------|-----------------|-----------------|----------------|
|-----------------|-----------------|-----------------|----------------|
|-5---------------|-5---------------|-5-----------3---|-5--------------|
|-5-----------3---|-5-----------3-3-|-5-----------3---|-5--------------|
|-3-----------1---|-3-----------1-1-|-3-----------1---|-3-------4-3-1--|
|-----------------|-----------------|-----------------|----------------|


  C5                                                      Bb5
                                                                      ~~~
  E E E E E E E E    E  E E E E E E E   E E E E E E E E   E E E E Q   Q
|-----------------|-------------------|-----------------|-----------------|
|-------------6---|--8--------8---6---|-------------6---|-----------------|
|-8-5-5-5-8-5---5-|-----5-5-5---5---5-|-8-5-5-5-8-5---5-|-8-5-7-5-7--[7]--|
|-----------------|-------------------|-----------------|-----------------|
|-----------------|-------------------|-----------------|-----------------|
|-----------------|-------------------|-----------------|-----------------|
|
|                             PM----|                     PM----|     ~~~
| W                 +H        E E E E   W                 E E E E Q   Q
|-----------------|-------------------|-----------------|-----------------|
|-----------------|-------------------|-----------------|-----------------|
|-5---------------|-(5)---------------|-5---------------|------------[7]--|
|-5---------------|-(5)---------------|-5---------------|---------3-------|
|-3---------------|-(3)-------3-3-3-3-|-3---------------|-1-1-1-1-1-------|
|-----------------|-------------------|-----------------|-----------------|


  C5                                    Bb5
                                           PM   PM     PM   PM
  E E E E E E E E    E  E E E E E E E   Q  E Q  E Q    E Q  E  Q  Q
|-----------------|-------------------|--------------|---------------|
|-------------6---|--8--------8---6---|--------------|---------------|
|-8-5-5-5-8-5---5-|-----5-5-5---5---5-|-8----7----8--|---7----10--7--|
|-----------------|-------------------|-8--8-8--8-8--|-8-8--8--8--8--|
|-----------------|-------------------|--------------|---------------|
|-----------------|-------------------|--------------|---------------|
|
|                             PM----|      PM   PM     PM   PM
| W                 +H        E E E E   Q  E Q  E Q    E Q  E  Q  Q
|-----------------|-------------------|--------------|---------------|
|-----------------|-------------------|--------------|---------------|
|-5---------------|-(5)---------------|--------------|---------------|
|-5---------------|-(5)---------------|-3----3----3--|---3-----3--3--|
|-3---------------|-(3)-------3-3-3-3-|-1--1-1--1-1--|-1-1--1--1--1--|
|-----------------|-------------------|--------------|---------------|


  Bb5      C5         D5
   E E E E  E E E E    E E E E  E E E E
|-------------------|-------------------|
|---------------8---|-10-------10---8---|
|-10-7-7-7-10-7---7-|----7-7-7----7---7-|
|-------------------|-------------------|
|-------------------|-------------------|
|-------------------|-------------------|
|
|  H        H          W
|-------------------|-------------------|
|-------------------|-------------------|
|-------------------|-------------------|
|--3--------5-------|--7----------------|
|--1--------3-------|--5----------------|
|-------------------|-------------------|


  Bb5      C5         D5
   E E E E  E E E E    E E E E  E E E E
|-------------------|-------------------|
|---------------8---|-10-------10---8---|
|-10-7-7-7-10-7---7-|----7-7-7----7---7-|
|-------------------|-------------------|
|-------------------|-------------------|
|-------------------|-------------------|
|
|  H        H          W
|-------------------|-------------------|
|-------------------|-------------------|
|-------------------|-------------------|
|--3--------5-------|--7----------------|
|--1--------3-------|--5----------------|
|-------------------|-------------------|


  Bb5      C5         D5
   E E E E  E E E E    E E E E  E E E E
|-------------------|-------------------|
|---------------8---|-10-------10---8---|
|-10-7-7-7-10-7---7-|----7-7-7----7---7-|
|-------------------|-------------------|
|-------------------|-------------------|
|-------------------|-------------------|
|
|  H        H          W
|-------------------|-------------------|
|-------------------|-------------------|
|-------------------|-------------------|
|--3--------5-------|--7----------------|
|--1--------3-------|--5----------------|
|-------------------|-------------------|


  Bb5      C5         D5
   E E E E  E E E E    E E E E  E E E E
|-------------------|-------------------|
|---------------8---|-10-------10---8---|
|-10-7-7-7-10-7---7-|----7-7-7----7---7-|
|-------------------|-------------------|
|-------------------|-------------------|
|-------------------|-------------------|
|
|  H        H          W
|-------------------|-------------------|
|-------------------|-------------------|
|-------------------|-------------------|
|--3--------5-------|--7----------------|
|--1--------3-------|--5----------------|
|-------------------|-------------------|


 Guitar Solo
  Bb5        C5            D5
   Q    E  E  E  E  E  E    +E   E  E  E  E  E  E  E
|---------17-------------|---------------17----------|
|-18---20----20-18-17----|---------18-20----20-18----|
|---------------------19-|-(19)-19----------------17S|
|------------------------|---------------------------|
|------------------------|---------------------------|
|------------------------|---------------------------|
|
|  E E  E  E  E  E  E  E     E   E  E  E  E  E  E  E
|------------------------|---------------------------|
|------------------------|---------------------------|
|------------------------|---------------------------|
|--3-3--3--3--5--5--5--5-|---7---7--7--7--7--7--7--7-|
|--1-1--1--1--3--3--3--3-|---5---5--5--5--5--5--5--5-|
|------------------------|---------------------------|


  G#5        Eb5                 D5                            C5
   Q    E  E  S  S  S  S  E  E    S  S  S  S  E  S  S  S  S  E  Q
|------20----22h23p22h23-22-20-|-21h22p21h22-21-17h18p17h18-17------|
|---------21-------------------|------------------------------------|
|-20---------------------------|-------------------------------19---|
|------------------------------|------------------------------------|
|------------------------------|------------------------------------|
|------------------------------|------------------------------------|
|
|  E E  E  E  E     E     E  E    E     E     E  E     E     E  E E
|------------------------------|------------------------------------|
|------------------------------|------------------------------------|
|------------------------------|------------------------------------|
|-------------8-----8-----8--8-|--7-----7-----7--7-----7-----7--5-5-|
|--6-6--6--6--6-----6-----6--6-|--5-----5-----5--5-----5-----5--3-3-|
|--4-4--4--4-------------------|------------------------------------|


  Bb5                     C5                        D5
   S  S  S  S  S  S  S  S  S  S  S  S  S  S  S  S    S  S  S  S  S  S  S  S  S  S  S  S  S  S  E
|-------------------------------17----15-17-18-15-|-17-18-20-19-18-17-18-17----------------------|
|-18-17-15----15-17-18-15-17-18----18-------------|-------------------------20-19-18-17-18-17----|
|----------17-------------------------------------|-------------------------------------------19-|
|-------------------------------------------------|----------------------------------------------|
|-------------------------------------------------|----------------------------------------------|
|-------------------------------------------------|----------------------------------------------|
|
|  E     E     E     E     E     E     E     E       E     E     E     E     E     E     E     E
|-------------------------------------------------|----------------------------------------------|
|-------------------------------------------------|----------------------------------------------|
|-------------------------------------------------|----------------------------------------------|
|--3-----3-----3-----3-----5-----5-----5-----5----|--7-----7-----7-----7-----7-----7-----7-----7-|
|--1-----1-----1-----1-----3-----3-----3-----3----|--5-----5-----5-----5-----5-----5-----5-----5-|
|-------------------------------------------------|----------------------------------------------|


  G#5             Eb5           D5                                                              C5
   Q.        Q.        Q         E     S       S       S       S       S       S       H
|---------------------17b18---|-20b22-20pb22==20pb22==20pb22==20pb22==20pb22==20pb22==20pb22=========|
|-----------14b16-------------|----------------------------------------------------------------------|
|-15b17-----------------------|----------------------------------------------------------------------|
|-----------------------------|----------------------------------------------------------------------|
|-----------------------------|----------------------------------------------------------------------|
|-----------------------------|----------------------------------------------------------------------|
|
|  E    E E  E    E E  E    E    E     E               E               E               E      E E E
|-----------------------------|----------------------------------------------------------------------|
|-----------------------------|----------------------------------------------------------------------|
|-----------------------------|----------------------------------------------------------------------|
|-----------------8-8--8----8-|--7-----7---------------7---------------7---------------7------7-5-5--|
|--6----6-6--6----6-6--6----6-|--5-----5---------------5---------------5---------------5------5-3-3--|
|--4----4-4--4----------------|----------------------------------------------------------------------|


 Keyboard Solo 2
  Bb5     C5        D5                G#5     Eb5       D5          C5
  Gtrs I, II
  E E E E E E E E   E E E E E E E E   E E E E E E E E   E E E E E E E E
|-----------------|-----------------|-----------------|-----------------|
|-----------------|-----------------|-----------------|-----------------|
|-----------------|-----------------|-----------------|-----------------|
|-3-3-3-3-5-5-5-5-|-7-7-7-7-7-7-7-7-|---------8-8-8-8-|-7-7-7-7-7-7-5-5-|
|-1-1-1-1-3-3-3-3-|-5-5-5-5-5-5-5-5-|-6-6-6-6-6-6-6-6-|-5-5-5-5-5-5-3-3-|
|-----------------|-----------------|-4-4-4-4---------|-----------------|


  E E E E E E E E   E E E E E E E E   E E E E E E E E   E E E E E E E E
|-----------------|-----------------|-----------------|-----------------|
|-----------------|-----------------|-----------------|-----------------|
|-----------------|-----------------|-----------------|-----------------|
|-3-3-3-3-5-5-5-5-|-7-7-7-7-7-7-7-7-|---------8-8-8-8-|-7-7-7-7-7-7-5-5-|
|-1-1-1-1-3-3-3-3-|-5-5-5-5-5-5-5-5-|-6-6-6-6-6-6-6-6-|-5-5-5-5-5-5-3-3-|
|-----------------|-----------------|-4-4-4-4---------|-----------------|


 Main Theme
  C5       B5        C5      D5        E5       A5          G5       D5
  Gtr I
  E E  E E E E E E   E E E E E E E E   E E E  E  E  E E E   E E  E E E E E E
|------------------|-----------------|---7-8----------7---|------------------|
|---8-10-7-7-7-8---|-----7-------7---|-------10-10-10---8-|-8-8-10-7-7---7---|
|-9--------------9-|-9-9---7-7-9---7-|-9------------------|------------7---7-|
|------------------|-----------------|--------------------|------------------|
|------------------|-----------------|--------------------|------------------|
|------------------|-----------------|--------------------|------------------|
|
| Gtr II
| H        H         H       H         H         H          H        H
|------------------|-----------------|--------------------|------------------|
|------------------|-----------------|--------------------|------------------|
|------------------|-----------------|--------------------|------------------|
|-9--------4-------|-5-------7-------|-9------------------|----------7-------|
|-7--------2-------|-3-------5-------|-7---------7--------|-5--------5-------|
|------------------|-----------------|-----------5--------|-3----------------|


  E5       B5        C5      D5
  E E  E E E E E E   E E E E E E E E
|------------------|-----------------|
|---8-10-7-7-7-8---|-----7-------7---|
|-9--------------9-|-9-9---7-7-9---7-|
|------------------|-----------------|
|------------------|-----------------|
|------------------|-----------------|
|
| H        H         H       H
|------------------|-----------------|
|------------------|-----------------|
|------------------|-----------------|
|-9--------4-------|-5-------7-------|
|-7--------2-------|-3-------5-------|
|------------------|-----------------|


  E5       A5          G5       D5        E5     C5D5F5
                                 ~~~
                                                 |-3--|
  E E E  E  E  E E E   E E  E E  H        E E Q  Q Q  Q
|---7-8----------7---|-----------------||----------------||
|-------10-10-10---8-|-8-8-10-7-[8]----||----------------||
|-9------------------|-----------------||----------------||
|--------------------|-----------------||-2------5-7-10--||
|--------------------|-----------------||-2------3-5--8--||
|--------------------|-----------------||-0--------------||
|
|                                                |-3--|
| H         H          H         H        E E Q  Q Q  Q
|--------------------|-----------------||----------------||
|--------------------|-----------------||----------------||
|--------------------|-----------------||----------------||
|-9------------------|-----------7-----||-2------5-7-10--||
|-7---------7--------|-5---------5-----||-2------3-5--8--||
|-----------5--------|-3---------------||-0--------------||


 Bridge
  E5                                         C C#E
  Gtrs I, II
  E E Q  H      W          W          H    E E E E
|-------------|----------|----------|--------------|
|-------------|----------|----------|--------------|
|-------------|----------|----------|--------------|
|-------------|----------|----------|--------------|
|-2-2---------|----------|----------|------------7-|
|-0-0---------|----------|----------|--------8-9---|


  E5                                                    D5E5
  PM------------------------------------------------|
  E E E E E E E E   E E E E E E E E   E E E E E E E E   E E Q  H
|-----------------|-----------------|-----------------|-------------||
|-----------------|-----------------|-----------------|-------------||
|-----------------|-----------------|-----------------|-------------||
|-----------------|-----------------|-----------------|-7-9---------||
|-----------------|-----------------|-----------------|-5-7---------||
|-0-0-0-0-0-0-0-0-|-0-0-0-0-0-0-0-0-|-0-0-0-0-0-0-0-0-|-------------||


 Out-Chorus
  E5    F#5     G5   D      N.C.
  Gtr I
   H     H      H    H       E  S  S  E  S  S  E  S  S  S  S  S S
|-------------|-----------|---------------------------------------|
|-------------|-----------|---------------------------------------|
|-------------|-----------|---------------------------------------|
|--2-----4----|-5----4----|---------------------------------------|
|--2-----4----|-5----5----|--3--3--3--3--3--3--3--3--3--3--5--3-2-|
|--0-----2----|-3---------|---------------------------------------|
|
| Gtr II
|  H     H      H    H       E  S  S  E  S  S  E  S  S  S  S  S S
|-------------|-----------|---------------------------------------|
|-12----10----|-8----7----|---------------------------------------|
|-------------|-----------|---------------------------------------|
|--9-----7----|-5----4----|---------------------------------------|
|-------------|-----------|-10-10-10-10-10-10-10-10-10-10-12-10-9-|
|-------------|-----------|---------------------------------------|


   E  S  S  E  S  S  E  S  S  S  S  S S
|-----------------------------------------|
|-----------------------------------------|
|-----------------------------------------|
|-----------------------------------------|
|--3--3--3--3--3--3--3--3--3--3--5--3-2---|
|-----------------------------------------|
|
|  E  S  S  E  S  S  E  S  S  S  S  S S
|-----------------------------------------|
|-----------------------------------------|
|-----------------------------------------|
|-----------------------------------------|
|-10-10-10-10-10-10-10-10-10-10-12-10-9---|
|-----------------------------------------|


  C5    D5      E5   D5      N.C.
   H     H      H     H      S S S S S S S S S S S S S  S S S
|-------------|------------|----------------------------------|
|-------------|------------|----------------------------------|
|--5-----7----|-9-----7----|----------------------------------|
|--5-----7----|-9-----7----|----------------------------------|
|--3-----5----|-7-----5----|-7-7-7-7-7-7-7-7-7-7-7-7-7--8-7-5-|
|-------------|------------|----------------------------------|
|
|  H     H      H     H      S S S S S S S S S S S S S  S S S
|-------------|------------|----------------------------------|
|-12----10----|-8----10----|----------------------------------|
|-------------|------------|----------------------------------|
|--9-----7----|-5-----7----|-9-9-9-9-9-9-9-9-9-9-9-9-9-10-9-7-|
|-------------|------------|----------------------------------|
|-------------|------------|----------------------------------|


  S S S S S S S S S S S S S  S S S
|-------------------------------------|
|-------------------------------------|
|-------------------------------------|
|-------------------------------------|
|-7-7-7-7-7-7-7-7-7-7-7-7-7--8-7-5----|
|-------------------------------------|
|
| S S S S S S S S S S S S S  S S S
|-------------------------------------|
|-------------------------------------|
|-------------------------------------|
|-9-9-9-9-9-9-9-9-9-9-9-9-9-10-9-7----|
|-------------------------------------|
|-------------------------------------|


  E5    F#5     G5   D      N.C.
   H     H      H    H       E  S  S  E  S  S  E  S  S  S  S  S S
|-------------|-----------|---------------------------------------|
|-------------|-----------|---------------------------------------|
|-------------|-----------|---------------------------------------|
|--2-----4----|-5----4----|---------------------------------------|
|--2-----4----|-5----5----|--3--3--3--3--3--3--3--3--3--3--5--3-2-|
|--0-----2----|-3---------|---------------------------------------|
|
|  H     H      H    H       E  S  S  E  S  S  E  S  S  S  S  S S
|-------------|-----------|---------------------------------------|
|-12----10----|-8----7----|---------------------------------------|
|-------------|-----------|---------------------------------------|
|--9-----7----|-5----4----|---------------------------------------|
|-------------|-----------|-10-10-10-10-10-10-10-10-10-10-12-10-9-|
|-------------|-----------|---------------------------------------|


   E  S  S  E  S  S  E  S  S  S  S  S S
|-----------------------------------------|
|-----------------------------------------|
|-----------------------------------------|
|-----------------------------------------|
|--3--3--3--3--3--3--3--3--3--3--5--3-2---|
|-----------------------------------------|
|
|  E  S  S  E  S  S  E  S  S  S  S  S S
|-----------------------------------------|
|-----------------------------------------|
|-----------------------------------------|
|-----------------------------------------|
|-10-10-10-10-10-10-10-10-10-10-12-10-9---|
|-----------------------------------------|


  G     Asus4   C     DXI       N.C.
   H     H       H     H        S S S S S S S S S S S S S  S S S
|-------------|-------------||-----------------------------------|
|-------------|-------------||o----------------------------------|
|--4-----7----|--9----11----||--9-9-9-9-9-9-9-9-9-9-9-9-9-10-9-7-|
|--5-----7----|-10----12----||-----------------------------------|
|-------------|-------------||o----------------------------------|
|-------------|-------------||-----------------------------------|
|
|  H     H       H     H        S S S S S S S S S S S S S  S S S
|-------------|-------------||-----------------------------------|
|-12----10----|--8----10----||o----------------------------------|
|-------------|-------------||-----------------------------------|
|--9-----7----|--5-----7----||--9-9-9-9-9-9-9-9-9-9-9-9-9-10-9-7-|
|-------------|-------------||o----------------------------------|
|-------------|-------------||-----------------------------------|


  S S S S S S S S S S S S S  S S S
|--------------------------------------||
|-------------------------------------o||
|-9-9-9-9-9-9-9-9-9-9-9-9-9-10-9-7-----||
|--------------------------------------||
|-------------------------------------o||
|--------------------------------------||
|
| S S S S S S S S S S S S S  S S S
|--------------------------------------||
|-------------------------------------o||
|--------------------------------------||
|-9-9-9-9-9-9-9-9-9-9-9-9-9-10-9-7-----||
|-------------------------------------o||
|--------------------------------------||


  E5     D5     C5                 N.C.            E5
                           ~~~
  E  E E E  E E Q    +Q    H.                      Q  Q  H
|------------------|-----------------------------|------------*|
|------------------|-----------------------------|------------*|
|------------------|------[5]--------------------|------------*|
|----4-5-7--5-4----|-----------------------------|-2----------*|
|-7-------------7--|-(7)--(7)--------------------|-2----------*|
|------------------|-----------------------------|-0----------*|
|
| Q.     Q.     Q    +H        +E  S  S S S  S S   Q  Q  H
|------------------|-----------------------------|------------*|
|------------------|-----------------------------|------------*|
|-9------7------5--|-(5)-------(5)---------------|------------*|
|-9------7------5--|-(5)-------(5)-9-10-9-7------|------------*|
|-7------5------3--|-(3)-------(3)----------10-9-|-7----------*|
|------------------|-----------------------------|------------*|

-----------------------------------------------------------------------------

2.Sixpounder

Children of Bodom
 Sixpounder
 From album: Hate crew deathroll
 Tabbed: agp_87
 
 
 Tuning D (D G C F A D)
 
 Riff 1
|---------------------------------------------------------------------------|
|---------------------------------------------------------------------------|
|---------------------------------------------------------------------------|
|---------------------------------------------------------------------5\4---|
|---2----2-6-5-3-5-4-3-2-------3---------2--6-5-3-5-4-3-2-----3/4-----3\2---|
|-0-0----0-4-3-1-3-2-1-0-00000-1-00000---0--4-3-1-3-2-1-0-0-0-1/2-0-0-------|



|---------------------------------------------------------------------------|
|---------------------------------------------------------------------------|
|------------------------------------------------------------------------7--|
|---------------------------------------------------------------5\4-\----7--|
|--2-6-5-3-5-4-3-2-------3---------2--6-5-3-5-4-3-2-----3/4-----3\2-\----5--|
|--0-4-3-1-3-2-1-0-00000-1-00000---0--4-3-1-3-2-1-0-0-0-1/2-0-0-------------|


 Riff 2
|----------------------------|----------|----------------------------|
|----------------------------|-15b17~---|----------------------------|
|-------Drums and keyboards--|----------|-------------------7--------|
|----------------------------|----------|-------------------7--------|
|----------------------------|----------|-------------------5--------|
|----------------------------|----------|----------------------------|

 Riff 3
 2x
|-------------------------------------------------------------|
|-------------------------------------------------------------|
|--7-------8-7-------5-7----------------7-------8-7-------5-7-|
|--7-------8-7-------5-7----------------7-------8-7-------5-7-|
|----0-0-0-----0-0-0-----0-0-0-0-0-0-0----0-0-0-----0-0-0-----|
|-------------------------------------------------------------|

|------------------------|
|------------------------|
|-------1010101014141414-|
|-121212-----------------|
|------------------------|
|------------------------|



 Riff 4
|------------------------------------------------------------------|
|------------------------------------------------------------------|
|--------------------------------------------------------------7---|
|-2---2--------2---2----------------2---2------2---2-----------7---|
|-2---2--------2---2------55553333--2---2------2---2-----------5---|
|-0-0-0-000000-0-0-000000-----------0-0-000000-0---0000h33---------|

 
|------------------------------------------------------------------|
|------------------------------------------------------------------|
|--------------------------------------------------------------7---|
|-2---2--------2---2----------------2---2------2---2-----------7---|
|-2---2--------2---2------55553333--2---2------2---2-----------5---|
|-0-0-0-000000-0-0-000000-----------0-0-000000-0---0000h33---------|

|-------------------------------------------------------------|
|-------------------------------------------------------------|
|--7-------8-7-------5-7----------------7-------8-7-------5-7-|
|--7-------8-7-------5-7----------------7-------8-7-------5-7-|
|----0-0-0-----0-0-0-----0-0-0-0-0-0-0----0-0-0-----0-0-0-----|
|-------------------------------------------------------------|


|------------------------|
|------------------------|
|-------1010101014141414-|
|-121212-----------------|
|------------------------|
|------------------------|


|-------------------------------------------------------------------|
|-------------------------------------------------------------------|
|--7-------8-7-------5-7----------------7-------8-7-------5---------|
|--7-------8-7-------5-7----------------7-------8-7-------5--2-2----|
|----0-0-0-----0-0-0-----0-0-0-0-0-0-0----0-0-0-----0-0-0----2-2----|
|------------------------------------------------------------0-0----|

 Riff 5
|-------------------------------------------------------------------|
|-------------------------------------------------------------------|
|-------------------------------------------------------------------|
|---------------------------------------------------------------5\4-|
|---2-6-5-3-5-4-3-2-------3---------2-6-5-3-5-4-3-2-----3/4-----3\2-|
|-0-0-4-3-1-3-2-1-0-00000-1-00000---0-4-3-1-3-2-1-0-0-0-1/2-0-0-----|


|--------------------------------------------------------------------|
|--------------------------------------------------------------------|
|--7--------9---------------------------------------------7--------9-|
|--7--------9-----------------------------------5\4-------7--------9-|
|--5--------7-------2-6-5-3-5-4-3-2-----3/4-----3\2-------5--------7-|
|-------------------0-4-3-1-3-2-1-0-0-0-1/2-0-0----------------------|


|--------------------------------------------------------------------|
|--------------------------------------------------------------------|
|-------------------------------------7--------9---------------------|
|-------------------------------------7--------9--------9--------8---|
|-----------------------------3\2-----5--------7--------9--------8---|
|-0-4-3-1-3-2-1-0-0-0-1/2-0-0---------------------------7--------6---|


 Solo 1
|----------------------------------------------|---------------------|
|----------------------------------------------|---------------------|
|----------???????????-------------------------|---------------------|
|----------???????????-------------------------|---------------------|
|----------------------------------------------|--2--3--4--5---7-----|
|----------------------------------------------|--000111222333-5-----|



|-------------------------------------------------------------|
|-------------------------------------------------------------|
|--7-------8-7-------5-7----------------7-------8-7-------5-7-|
|--7-------8-7-------5-7----------------7-------8-7-------5-7-|
|----0-0-0-----0-0-0-----0-0-0-0-0-0-0----0-0-0-----0-0-0-----|
|-------------------------------------------------------------|


|------------------------|
|------------------------|
|-------1010101014141414-|
|-121212-----------------|
|------------------------|
|------------------------|



|------------------------------------------------------------------------|
|------------------------------------------------------------------------|
|--7-------8-7-------5-7----------------7-------8-7-------5-7------------|
|--7-------8-7-------5-7----------------7-------8-7-------5-7------------|
|----0-0-0-----0-0-0-----0-0-0-0-0-0-0----0-0-0-----0-0-0-----2-3-4-5----|
|-------------------------------------------------------------0011223----|
 



 Riff 4





 Solo 2 (rhythm)

|------------------------------------------------------------------------------|
|------------------------------------------------------------------------------|
|--5------8---------5------------8--------7------10-----------7------------10--|
|--5------8----8----5------6-----8--------7------10----10-----7------8-----10--|
|--3------6----8----3------6-----6--------5------8-----10-----5------8-----8---|
|--------------6-----------4---------------------------8-------------6---------|


|-----------------------------------------------------------------------|
|-----------------------------------------------------------------------|
|--7-----5-----8-----5-----7-----5-----8-----5--------------------------|
|--7-----5-----8-----5-----7-----5-----8-----5--------------------------|
|--5-----3-----6-----3-----5-----3-----6-----3--------------------------|
|-----------------------------------------------------------------------|


|-----------------------------------------------------------------------|
|-----------------------------------------------------------------------|
|--7-------8-7-------5-7----------------7-------8-7-------5-7-----------|
|--7-------8-7-------5-7----------------7-------8-7-------5-7-----------|
|----0-0-0-----0-0-0-----0-0-0-0-0-0-0----0-0-0-----0-0-0-----2-3-4-5---|
|-------------------------------------------------------------0011223---|

|-------------------------------------------------------------|
|-------------------------------------------------------------|
|--7-------8-7-------5-7----------------7-------8-7-------5-7-|
|--7-------8-7-------5-7----------------7-------8-7-------5-7-|
|----0-0-0-----0-0-0-----0-0-0-0-0-0-0----0-0-0-----0-0-0-----|
|-------------------------------------------------------------|


|------------------------|
|------------------------|
|-------1010101014141414-|
|-121212-----------------|
|------------------------|
|------------------------|


|----------------------------------------------------------------------|
|----------------------------------------------------------------------|
|--7-------8-7-------5-7----------------7-------8-7-------5------------|
|--7-------8-7-------5-7----------------7-------8-7-------5--2-2-------|
|----0-0-0-----0-0-0-----0-0-0-0-0-0-0----0-0-0-----0-0-0----2-2-------|
|------------------------------------------------------------0-0-------|



 Riff 5

-----------------------------------------------------------------------------

3.Chokehold

Chokehold
(Cocked'N'Loaded - Children of Bodom
----------------------------------------------------------------------------
Tabbed by:Steven A.
Email:KsE495@aol.com

Tuning:DGCFAD
  Intro:
|--------------------------------------------------------------------------|
|--------------------------------------------------------------------------|
|--------------------------------------------------------------------------|
|--------------------------------------------------------------------------|
|--------------------------------------------------------------------------|
|--0-12-13-0-13-12-0-12-0-12-10-0-10-12-0-12-0-12-13-0-13-12-0-0-0-0-0-0-0-|
   . .  .  . .  .  . .  . .  .  . .  .  . .  . .  .  . .  .  . . . . . . .

|--------------------------------------------------------------------------|
|--------------------------------------------------------------------------|
|--------------------------------------------------------------------------|
|--------------------------------------------------------------------------|
|--------------------------------------------------------------------------|
|--0-12-13-0-13-12-0-12-0-12-10-0-10-12-0-12-0-12-13-0-13-12-0-0-0-0-0-0-0-|
   . .  .  . .  .  . .  . .  .  . .  .  . .  . .  .  . .  .  . . . . . . .

  Riff 1:Play it fast                                    4th time play this
|------------------------------------------------------|-------------------|
|---------------------------------------------------x4-|-------------p.h.--|
|------------------------------------------------------|-------------4~~~~-|
|------------------------------------------------------|-------------------|
|--0h4/5---5/4---4-4p0---0h4---------------------------|-------------------|
|--0h2/3-3-3/2-2-2-2p0-0-0h2-2-2-2-2-2-2-2-2-2-2-2-2-2-|2-2-2-2-2-2--------|
         .     .       .     . . . . . . . . . . . . .  . . . . . .
  Riff 2:
|----------------------------------------------------------------|
|----------------------------------------------------------------|
|----------------------------------------------------------------|
|----------------------------------------------------------------|
|----7h8---8p7---7---7p5---5h7---7---7h8---8p7-------------------|
|--0-----0-----0---0-----0-----0---0-----0-----0-0-0-0-0-0-0-0-0-|
   .     .     .   .     .     .   .     .     . . . . . . . . .
nd time:
|---------------------------------------------|
|---------------------------------------------|
|---------------------------------------------|
|---------9-7------------------12-10----------|
|--10-9-7-----10-9-7--13-12-10-------13-12-10-|
|---------------------------------------------|
  4th time:
|--------------------------------------|
|--------------------------------------|
|--------------------------------------|
|---------9-7---------------7-5--------|
|--10-9-7-----10-9-7--9-7-5-----9-7-5--|
|--------------------------------------|
  Verse:

  Pre-chorus:
|-------------------------------------|
|-------------------------------------|
|-------------------------------------|
|--2-2-2-4/7-5-5-5-4/5-2-2-2-2-2-x-x--|
|----------------------2-2-2-2-2------|
|----------------------0-0-0-0-0------|
     . .       . .     . . . . .
                      bar
|--------------------------------|
|--------------------------------|
|----------------------7->-------|
|--2-2-2-4/7-5-5-5-4/5----->-----|
|---------------------------->---|
|------------------------------>-|
     . .       . . 
|---------------------------------------------------|
|---------------------------------------------------|
|--2-2-4-4-7-7-5-5-5-4-4-5-5-9-----7-10-9-----7-10--|
|----------------------------7-----5--8 7-----5--8--|
|------------------------------0-0--------0-0-------|
|---------------------------------------------------|
  . . . . . . . . . . . . .    . .        . .

|-------------------------------------------|
|-------------------------------------------|
|--2-2-4-4-7-7-5-5-5-4-4-5-5-7->------////--|
|-------------------------------->----------|
|---------------------------------->--------|
|------------------------------------>------|
  . . . . . . . . . . . . . . 
 Chorus:                                      Staccato>>
|----------------------------------------------------------------------|
|----------------------------------------------------------------------|
|----------2-3-----------------5-4------------5-5-5-7-7-7-5-5-5-4-4-4--|
|----------2-3-----------------3-2------------5-5-5-5-5-5-7-7-7-5-5-5--|
|--0-0-0-0-----0-0-0-0-0-0-0-0-----0-0-15////--------------------------|
|----------------------------------------------------------------------|
   . . . .     . . . . . . . .     . .  . . .   
|--------------------------------------------------------------------------|
|--------------------------------------------------------------------------|
|----------2-3--------------------5-4-------------5-5-5-7-7-7-5-5-5-4-4-4--|
|----------2-3--------------------3-2-------------5-5-5-5-5-5-7-7-7-5-5-5--|
|--0-0-0-0-----0-0-5-6-5-6-0-0-0-0----0-0-15////---------------------------|
|--------------------------------------------------------------------------|
   . . . .     . . N.H>>>> . . . .    . .  . . .  

-----------------------------------------------------------------------------

4.Bodom Beach Terror

Children of Bodom 
Bodom Beach Terror
HateCrew DeathRoll
Tabbed by Kevin Cruz

Tune down all strings one step
                  x3                                x3
D-----------------||-------------||-----------------||-------------|
A-----------------||-------------||-----------------||-------------|
F-----------------||-------------||-----------------||-------------|
G-4---------4-5-4-||-------------||-4---------4-5-4-||-------------|
C-4---------4-5-4-||-------------||-4---------4-5-4-||-------------|
D-2-222-222-2-3-2-||-222-000-00--||-2-222-222-2-3-2-||-222-000-00--|
    ... ...          ... ... ..       ... ...          ... ... ..

D----------------------------------||------------|
A----------------------------------||------------|
F----------------------------------||------------|
G----------------------------------||------------|
C-5h7-------5h7---10p7---5h7-------||------------|
D-----00-00-----0------0-----00-00-||1-0--0--3-0-|
      .. ..     .      .     .. ..     .  .    .

D----------------------------------||-----------------|
A----------------------------------||-----------------|
F----------------------------------||-----------------|
G----------------------------------||-----------5h7h8-|
C-5h7-------5h7---10p7---5h7-------||------5h7h8------|
D-----00-00-----0------0-----00-00-||-5h7h8-----------|
      .. ..     .      .     .. ..

D----------------------------------||---------|
A----------------------------------||---------|
F----------------------------------||-----3-2-|
G----------------------------------||-5-3-3-2-|
C-5h7-------5h7---10p7---5h7-------||-5-3-1-0-|
D-----00-00-----0------0-----00-00-||-3-1-----|
      .. ..     .      .     .. ..

D----------------------------------||-------------|
A----------------------------------||-------------|
F----------------------------------||-------------|
G----------------------------------||-------------|
C-5h7-------5h7---10p7---5h7-------||-------------|
D-----00-00-----0------0-----00-00-||-1-0--0--3-0-|
      .. ..     .      .     .. ..      .  .    .

D----------------------------------||---------|
A----------------------------------||---------|
F----------------------------------||-----3-2-|
G----------------------------------||-5-3-3-2-|
C-5h7-------5h7---10p7---5h7-------||-5-3-1-0-|
D-----00-00-----0------0-----00-00-||-3-1-----|
      .. ..     .      .     .. ..

D-------------------|-------------------||---------|
A-------------------|-------------------||---------|
F-------------------|-------------------||---------|
G----4------------4-|----4------------4-||-----4-3-|
C----4------------4-|----4------------4-||-5-4-2-1-|
D-2222-222-000-2222-|-2222-222-000-2222-||-3-2-----|
  ...  ... ... ...    ...  ... ... ...     . . . 

D-------------------|-------------------||------------------|
A-------------------|-------------------||----------14-12---|
F-------------------|-------------------||-------11---------|
G----4------------4-|----4------------4-||-4-//9------------|
C----4------------4-|----4------------4-||-4-//-------------|
D-2222-222-000-2222-|-2222-222-000-2222-||-2-//-------------|
  ...  ... ... ...    ...  ... ... ...    
                           
                           x2
D--------------------------||
A--------------------------||
F-6~--7------6------9------||
G-6~--7------4-4444-7-7777-||
C-4~--5-5555---------------||
D--------------------------||
        ....   ....   ....

D----------------------------------------------------------24\0-|
A---------------------------------------------------------------|
F--------------------------------------------------------9------|
G-6----6----6----6----7----11----9----9----9----9------9--------|
C-4444-4444-4444-4444-5555-9-999-7777-7777-7777-7777-7----------|
D---------------------------------------------------------------|
  .... .... .... .... .... ..... .... .... .... .... 

                                                      x2
D-------------------------|---------------------------||
A-------------------------|---------------------------||
F-----------------5-5-5-5-|-2-2-/-5-5-/-7-7-/-9-9-9-9-||
G-4-4-/-5-5-/-7-7-5-5-5-5-|-2-2-/-5-5-/-7-7-/-9-9-9-9-||
C-4-4-/-5-5-/-7-7-3-3-3-3-|-0-0-/-3-3-/-5-5-/-7-7-7-7-||
D-2-2-/-3-3-/-5-5---------|---------------------------||

???i'm not sure about this???
D----------------------------------------------|
A----------------------------13-11----11-13-11-|
F-10-13-12----10-13-12----10-------13----------|
G----------13----------13----------------------|
C----------------------------------------------|
D----------------------------------------------|

D---------------------------------------|
A---------------------------------------|
F-12-10-12-13-12-10----10-12-13-12-10---|
G-------------------12------------------|
C---------------------------------------|
D---------------------------------------|

-----------------------------------------------------------------------------

5.Angels Don't Kill

Intro
---0--12--19--12--0--12--20--12--0--12--19--12--0------17----------|
---------------------------------------------------15------15------|
-------------------------------------------------------------------|
-------------------------------------------------------------------|
-------------------------------------------------------------------|
-------------------------------------------------------------------|     x2
Gtr 1&2
------|-----|-------|-----|-------|-------------------------------|
------|-----|-------|-----|-------|-------------------------------|
------|-----|-------|-----|-------|-------------------------------|
------|--2--|----7--|--2--|-------|------5-------5----------------|
--x\--|--2--|--555--|--2--|-------|-------------------------------|
--x\--|--0--|-------|--0--|-------|--0-0-3~--0-0-3~---------------|
Gtr 1
-------------------------------------|----------------------------------|
-------------------------------------|----------------------------------|
---9-----------9----------------9--7-|----9-----------------------------|
-\9-9------\10---10-------------9--7-|--\9-9--------9------------\10----|
--------------------2--2--2--2--7--5-|-----------\10-10-2-2-2-2------10-|
0-----0-0-----------0--0--0--0-------|-0-----0-0------------------------|
Gtr 2
-----------------------------|-----------------------------------------------|
-----------------------------|-----------------------------------------------|
-----------------------------|-----9---------9-------------------------------|
---9-------10---2-2-2-2------|---\9-9-----\10-10--2-2-2-2---\10--------------|
--7-7-----7--7--2-2-2-2-10-8-|--------------------2-2-2-2--------10----------|
0-----0-0-------0-0-0-0------|-0------0-0---------0-0-0-0--------------------|
Verse riff Gtr 1
-----------------------------------------------------------------------------|
-----------------------------------------------------------------------------|
-5-7-----------------ph-----------7-5-7--------------------------------------|
-5-7------------------7-----9p7---7-5-7---------------------12-10-9-7--------|
-3-5-----7h9h10s9-----------------5-3-5-----7h9h10s9-7-9-10------------------|
-----0-0----------0-0---0-0-----0-------0-0----------------------------------|
Gtr2
-----------------------------------------------------------------------------|
-----------------------------------------------------------------------------|
-5-7-------------------------------7-5-7-------------------------------------|
-5-7-----------------ph------------7-5-7--------------------12-10-9-7--------|
-3-5-----7h9h10s9-----7------7p5---5-3-5-----7h9h10s9-7-9-10-----------------|
-----0-0----------0-0---0-0------0-------0-0---------------------------------|
Gtr1
-----------------------------------------------------------------------------|
-----------------------------------------------------------------------------|
-5-7-----------------ph-----------7-5-7---4-4-4-4-4---7----------------------|
-5-7------------------7-----9p7---7-5-7---4-4-4-4-4---7----------------------|
-3-5-----7h9h10s9-----------------5-3-5---2-2-2-2-2---5----------------------|
-----0-0----------0-0---0-0-----0--------------------------------------------|
Gtr2
-----------------------------------------------------------------------------|
-----------------------------------------------------------------------------|
-5-7------------------------------7-5-7---4-4-4-4-4---7----------------------|
-5-7-----------------ph-----------7-5-7---4-4-4-4-4---7----------------------|
-3-5-----7h9h10s9-----7-----7p5---5-3-5---2-2-2-2-2---5----------------------|
-----0-0----------0-0---0-0-----0--------------------------------------------|
Harmonization Gtr1
---------------|-----------------|-------------------------------------------|
---------------|-----------------|-----12-11-11------------------------------|
--9-11----9----|-----------------|--------------12---------------------------|
-------12---10-|-10-10-12-(12)---|-----------------14------------------------|
---------------|--------------12-|-(12)--------------------------------------|
---------------|-----------------|-------------------------------------------|
Gtr2
----------------|-------------|----------------------------------------------|
----------------|-------------|----------------------------------------------|
-12-14-11-12----|-12-14-11----|----------------------------------------------|
-------------14-|----------14-|-(14)-----------------------------------------|
----------------|-------------|------\14-------------------------------------|
----------------|-------------|----------------------------------------------|
Gtr1
-----------------------------------------------------------------------------|
-----------------------------------------------------------------------------|
-5-7-5----------------ph-----------7-5-7----4-4--4-4--7----------------------|
-5-7-5-----------------7-----9p7---7-5-7----4-4--4-4--7----------------------|
-3-5-3-----7h9h10s9----------------5-3-5----2-2--2-2--5----------------------|
-------0-0----------0-0--0-0-----0-------------------------------------------|
Gtr2
-----------------------------------------------------------------------------|
-----------------------------------------------------------------------------|
-5-7-5------------------------------7-5-7---4-4--4-4--7----------------------|
-5-7-5-----------------ph-----------7-5-7---4-4--4-4--7----------------------|
-3-5-3-----7h9h10s9-----7-----7p5---5-3-5---2-2--2-2--5----------------------|
-------0-0----------0-0---0-0-----0------------------------------------------|
solo 1
-----15-19-17b19r17p15-14--14-17b19r15--22-20b22r21--15b17r15b17-------------|
---17--------------------17-----------17-----------17------------------------|
-16--------------------------------------------------------------------------|
-----------------------------------------------------------------------------|
-----------------------------------------------------------------------------|
-----------------------------------------------------------------------------|

-22b24r22b24---19-17-15----------------19-17-15------------------------------|
-------------15--------17-15--------17---------17-15-----------12------------|
----------------------------16-14-------------------16-14-12-14--14-12-------|
----------------------------------17-----------------------------------------|
-----------------------------------------------------------------------------|
-----------------------------------------------------------------------------|

---------------------------------12--12-----------------20b22(20)17----------|
-11-12--12-14b16r14-12-11-12-----12--12---19b21r16---------------------------|
------14--------------------14-14--14--------------19p17---------------------|
-----------------------------------------------------------------------------|
-----------------------------------------------------------------------------|
-----------------------------------------------------------------------------|

-20slowly-23-22b25r---7\--22p19p1722p19p17-----------------------------------|
-------------------------------------------22p20p1920p19p17------------------|
-----------------------------------------------------------------------------|
-----------------------------------------------------------------------------|
-----------------------------------------------------------------------------|
-----------------------------------------------------------------------------|

-22p19p1722p19p17-----------------22p19p1722p19p17----19p17------------------|
------------------22p20p1920p19p17-------------------------------------------|
-----------------------------------------------------------------------------|
-----------------------------------------------------------------------------|
-----------------------------------------------------------------------------|
-----------------------------------------------------------------------------|

-17p15p14-15p14p12-17p15p14-15p14p12-----------------------------------------|
-----------------------------------------------------------------------------|
-----------------------------------------------------------------------------|
-----------------------------------------------------------------------------|
-----------------------------------------------------------------------------|
-----------------------------------------------------------------------------|
solo gtr 2 harmonization
----------------|------------------------------------------------------------|
----------------|------------------------------------------------------------|
-16-14----------|--12-11-10--------------------------------------------------|
-------17-16-14-|-----------12-11-10-----------------------------------------|
----------------|--------------------12--------------------------------------|
----------------|------------------------------------------------------------|
gtr 2 under solo
------------------------|----------------------------------------------------|
------------------------|----------------------------------------------------|
-2-5-7----------------7-|-2-5--7--9-9-9-9--7-7-7--9-9-9--7-7-7---------------|
-2-5-7--2-2--2--2-2---7-|-2-5--7--9-9-9-9--7-7-7--9-9-9--7-7-7---------------|
-0-3-5--2-2--2--2-2---5-|-0-3--5--7-7-7-7--5-5-5--7-7-7--5-5-5---------------|
--------0-0--0--0-00----|----------------------------------------------------|
bridge lick    x3
-----------------------------------------------------------------------------|
-----------13-13-------12-12-------10-10-------------------------------------|
-----------------14-14-------12-12-------11-11-------------------------------|
-14--14-14-------------------------------------------------------------------|
-----------------------------------------------------------------------------|
-----------------------------------------------------------------------------|

-------------------------------------------------14--------------------------|
-----------13-13--------12-15-12--------------15-----------------------------|
-----------------14--------------12---------14-------------------------------|
-14--14-14--------------------------------16---------------------------------|
---------------------------------------17------------------------------------|
-----------------------------------------------------------------------------|

---------------------------------------------------|---24b-------------------|
--------------13-13-------12-12-------10-10--------|-------------------------|
--------------------14-14-------12-12-------11-11--|-------------------------|
-14--14-14-----------------------------------------|-------------------------|
---------------------------------------------------|-------------------------|
---------------------------------------------------|-------------------------|
Under Bridge lick
--------|---------|---------|---------|--------------------------------------|
--------|---------|---------|---------|--------------------------------------|
--------|---------|------5--|---------|--------------------------------------|
--------|----2----|--5---5--|----2----|--------------------------------------|
---x\---|----2----|--5---3--|----2----|---x\---------------------------------|
---x\---|----0----|--3------|----0----|---x\---------------------------------|

--13---------------------------|----------------------------------------15---|
-----14----13----11------------|---14----13---16---13---------------16-------|
--------15----13----13-12------|------15--------------13--------15-----------|
--15----------------------15---|-15----------------------15\17---------------|
-------------------------------|---------------------------------------------|
-------------------------------|---------------------------------------------|

-----------------------------------------------------------------------------

6.Triple Corpse Hammerblow

Children of Bodom
Triple Corpse hammerblow
Hatecrew Deathroll
Tabbed By Kevin Cruz
Originally From MetalTabs.com

Intro 1

|--------CU--CU--|CU--------------|--------CU--CU--|CU------CU--CU--|
|--------15--10--|12~-------------|--------15--10--|12------15--14--|
|--------17--12--|14--------------|--------17--12--|14------17--16--|
|----------------|----------------|----------------|----------------|
|----------------|----------------|----------------|----------------|
|----------------|----------------|----------------|----------------|

|CD--------------|----------------|----------------|----------------|
|12~-------------|----------------|----------------|----------------|
|14--------------|----------------|----------------|----------------|
|----------------|----------------|----------------|----------------|
|----------------|----------------|----------------|----------------|
|----------------|----------------|----------------|----------------|

Intro 2

|--------------------------------|----------------1212------------|
|1212--------1212151512121212----|1212--------1212----12121212----|
|----11111414----------------1414|----11111414----------------1414|
|--------------------------------|--------------------------------|
|--------------------------------|--------------------------------|
|--------------------------------|--------------------------------|

|------------12-0-0-010-0-0-0|9-0-0-0-7-0-0-0-5-0-0-0-8~~-----|
|1212------------------------|--------------------------------|
|----11111414----------------|--------------------------------|
|----------------------------|--------------------------------|
|----------------------------|--------------------------------|
|----------------------------|--------------------------------|x2

A

|--------------------------------|----------------1212------------|
|1212--------1212151512121212----|1212--------1212----12121212----|
|----11111414----------------1414|----11111414----------------1414|
|--------------------------------|--------------------------------|
|--------------------------------|--------------------------------|
|--------------------------------|--------------------------------|

|------------12-0-0-010-0-0-0|9-0-0-0-7-0-0-0-5-0-0-0-8~~-----|
|1212------------------------|--------------------------------|
|----11111414----------------|--------------------------------|
|----------------------------|--------------------------------|
|----------------------------|--------------------------------|
|----------------------------|--------------------------------|x2

B

|----------------|----------------|-------------------|-------------------|
|----------------|----------------|-------------------|-------------------|
|----------------|----------------|-9---8----9---11---|13---11----9---8---|
|6---4---6-----7-|6---4---6-----7-|11---9---11---13---|14---13---11---9---|
|4-442-224-44445-|4-442-224-44445-|-------------------|-------------------|
|----------------|----------------|-------------------|-------------------|

|----------------|----------------|-------------------|-------------------|
|----------------|----------------|-------------------|-------------------|
|----------------|----------------|-9---8----9---11---|13---11----9---8---|
|6---4---6-----7-|6---4---6-----7-|11---9---11---13---|14---13---11---9---|
|4-442-224-44445-|4-442-224-44445-|-------------------|-------------------|
|----------------|----------------|-------------------|-------------------|

|----------------|----------------|
|----------------|----------------|
|----------------|----------------|
|----3-----5---6-|----5-6-----5---|
|00001-00003-004-|00003-4-00003---|
|----------------|----------------|

A

|--------------------------------|----------------1212------------|
|1212--------1212151512121212----|1212--------1212----12121212----|
|----11111414----------------1414|----11111414----------------1414|
|--------------------------------|--------------------------------|
|--------------------------------|--------------------------------|
|--------------------------------|--------------------------------|

|------------12-0-0-010-0-0-0|9-0-0-0-7-0-0-0-5-0-0-0-8~~-----|
|1212------------------------|--------------------------------|
|----11111414----------------|--------------------------------|
|----------------------------|--------------------------------|
|----------------------------|--------------------------------|
|----------------------------|--------------------------------|x2

B

|----------------|----------------|-------------------|-------------------|
|----------------|----------------|-------------------|-------------------|
|----------------|----------------|-9---8----9---11---|13---11----9---8---|
|6---4---6-----7-|6---4---6-----7-|11---9---11---13---|14---13---11---9---|
|4-442-224-44445-|4-442-224-44445-|-------------------|-------------------|
|----------------|----------------|-------------------|-------------------|

|----------------|----------------|-------------------|-------------------|
|----------------|----------------|-------------------|-------------------|
|----------------|----------------|-9---8----9---11---|13---11----9---8---|
|6---4---6-----7-|6---4---6-----7-|11---9---11---13---|14---13---11---9---|
|4-442-224-44445-|4-442-224-44445-|-------------------|-------------------|
|----------------|----------------|-------------------|-------------------|

Chorus

|----------------|--------------------|----------------|----------------|
|----------------|--------------------|----------------|----------------|
|----------------|--------------------|----------------|----------------|
|----8-----9---8-|----11-11-----------|----8-----9---8-|----444455667788|
|66666-66666-666-|9999-9--9-----11-11-|66666-66666-666-|2222------------|
|----------------|----------9999-9--9-|----------------|----------------|x2

C

|----------------|----------------|----------------|----------------|
|----------------|----------------|----------------|----------------|
|----------------|----------------|----------------|----------------|
|----------------|----------------|----------------|----------------|
|2-2-222-2-2-222-|----------------|2-2-222-2-2-222-|----------------|
|0-0-000-0-0-000-|----------------|0-0-000-0-0-000-|----------------|

|----------------|----------------|----------------|
|----------------|----------------|----------------|
|----------------|----------------|----------------|
|----------------|----------------|5-5-555-4-4-444-|
|2-2-222-2-2-222-|----------------|3-3-333-5-5-555-|
|0-0-000-0-0-000-|----------------|----------------|

|----------------|----------------|----------------|----------------|
|----------------|----------------|----------------|----------------|
|----------------|----------------|----------------|----------------|
|----------------|----------------|----------------|----------------|
|2------3--------|5-------6-------|2------3--------|5-------6-------|
|0------1--------|3-------4-------|0------1--------|3-------4-------|

|----------------|----------------|----------------|----------------|
|----------------|----------------|----------------|----------------|
|----------------|----------------|----------------|----------------|
|----------------|----------------|----------------|----------------|
|----------------|----------------|----------------|----------------|
|0000000011111111|3333333344444444|0000000011111111|3333333344444444|

Solo 1

|-------812108--------------| _4_ __4_-----------|
|-----10------121081012108--|||| ||| ||----------|
|----9--------------------10|9791097 ||----------|
|--10-----------------------|-------10910-7-9----|
|12-------------------------|-----------------10-|
|---------------------------|--------------------|x2

|----5975--------| __  __ --------|
|---7----9757975-|||||||||--------|
|--6------------7|646764||--------|
|-7--------------|------767-4-6---|
|9---------------|--------------7-|
|----------------|----------------|x2

|----------------|----------------|----------------|
|7~--------------|----------------|----------------|
|----------------|----------------|----------------|
|----------------|--------7-------|--------7---4---|
|----------------|--------5---2---|4-------5---2---|
|----------------|------------0---|2---------------|

|----------------|----------------|
|----------------|----------------|
|----------------|----------------|
|9---9-9-9-9-9-9-|9-9-9-9-55555---|
|7---7-7-7-7-7-7-|7-7-7-7-33333---|
|0---------------|----------------|

A

|--------------------------------|----------------1212------------|
|1212--------1212151512121212----|1212--------1212----12121212----|
|----11111414----------------1414|----11111414----------------1414|
|--------------------------------|--------------------------------|
|--------------------------------|--------------------------------|
|--------------------------------|--------------------------------|

|------------12-0-0-010-0-0-0|9-0-0-0-7-0-0-0-5-0-0-0-8~~-----|
|1212------------------------|--------------------------------|
|----11111414----------------|--------------------------------|
|----------------------------|--------------------------------|
|----------------------------|--------------------------------|
|----------------------------|--------------------------------|x4

C

|----------------|Arm-------------|----------------|Arm-------------|
|----------------|Hram------------|----------------|Harm------------|
|----------------|7---------------|----------------|5---5-5-5---5---|
|----------------|----------------|----------------|----------------|
|2-2-222-2-2-222-|----------------|2-2-222-2-2-222-|----------------|
|0-0-000-0-0-000-|----------------|0-0-000-0-0-000-|----------------|

|----------------|1517------------1514~--|----------------|
|----------------|1517xx1715------ |-----|----------------|
|----------------| | ||| | |161415 |14---|----------------|
|----------------|   4   | | | | | |-----|5-5-555-4-4-444-|
|2-2-222-2-2-222-|---------3-----3-------|3-3-333-5-5-555-|
|0-0-000-0-0-000-|-----------------------|----------------|

Solo 2

|12~----13~------|15~-----16~-----|
|15CU---16CU-----|18CU----19CU----|
|----------------|----------------|
|----------------|----------------|
|----------------|----------------|
|----------------|----------------|

|1211109109-------------------|-------------------------------|
| | | ||---1312131211101110---|----------------- __4__--------|
|---4---------- | | | |---1312|131211101110---- | | | |-------|
|------------------4----------| | | | |----1413141312111211109|
|-----------------------------|----4--------------------------|
|-----------------------------|-------------------------------|

|----1215161512--|----1316171613--|----1417181714--|----1518191815--|
|--13----t-----13|--14----t-----14|--15----t-----15|--16----t-----16|
|12--------------|13--------------|14--------------|15--------------|
| | | | | | | | || | | | | | | | || | | | | | | | || | | | | | | | ||
|-------8--------|-------8--------|-------8--------|-------8--------|
|----------------|----------------|----------------|----------------|

|----1619201916--|----1720212017--|----1821222118--|----1922232219--|
|--17----t-----17|--18----t-----18|--19----t-----19|--20----t-----20|
|16--------------|17--------------|18--------------|19--------------|
| | | | | | | | || | | | | | | | || | | | | | | | || | | | | | | | ||
|-------8--------|-------8--------|-------8--------|-------8--------|
|----------------|----------------|----------------|----------------|

 >Tr.with Tapping (Pick)
|xxxxxxxxxxxxxxxx|xxxxxxxxxxxxxxxx|
|tr--------------|tr--------------|
|----------------|----------------|
|----------------|----------------|
|----------------|----------------|
|----------------|----------------|

Chorus

|----------------|--------------------|----------------|----------------|
|----------------|--------------------|----------------|----------------|
|----------------|--------------------|----------------|----------------|
|----8-----9---8-|----11-11-----------|----8-----9---8-|----444455667788|
|66666-66666-666-|9999-9--9-----11-11-|66666-66666-666-|2222------------|
|----------------|----------9999-9--9-|----------------|----------------|x2

|----------------|----------------|----------------|----------------|
|----------------|----------------|----------------|----------------|
|----------------|----------------|----------------|----------------|
|----------------|----------------|----------------|----------------|
|2------3--------|5-------6-------|2------3--------|5-------6-------|
|0------1--------|3-------4-------|0------1--------|3-------4-------|

|----------------|----------------|----------------|----------------|
|----------------|----------------|----------------|----------------|
|----------------|----------------|----------------|----------------|
|----------------|----------------|----------------|----------------|
|----------------|----------------|----------------|----------------|
|0000000011111111|3333333344444444|0000000011111111|3333333344444444|

B

|----------------|----------------|-------------------|-------------------|
|----------------|----------------|-------------------|-------------------|
|----------------|----------------|-9---8----9---11---|13---11----9---8---|
|6---4---6-----7-|6---4---6-----7-|11---9---11---13---|14---13---11---9---|
|4-442-224-44445-|4-442-224-44445-|-------------------|-------------------|
|----------------|----------------|-------------------|-------------------|

|----------------|----------------|-------------------|-------------------|
|----------------|----------------|-------------------|-------------------|
|----------------|----------------|-9---8----9---11---|13---11----9---8---|
|6---4---6-----7-|6---4---6-----7-|11---9---11---13---|14---13---11---9---|
|4-442-224-44445-|4-442-224-44445-|-------------------|-------------------|
|----------------|----------------|-------------------|-------------------|

Outro

|----------------|----------------|----------------|----------------|
|----------------|----------------|----------------|----------------|
|----------------|----------------|----------------|----------------|
|----------------|----------------|----------------|----------------|
|2-2-222-2-2-222-|----------------|2-2-222-2-2-222-|----------------|
|0-0-000-0-0-000-|----------------|0-0-000-0-0-000-|----------------|

|----------------|----------------|----------------|----------------|
|----------------|----------------|----------------|----------------|
|----------------|----------------|----------------|--------------6~|
|6-6-666-6-6-666-|----------------|6-6-666-6-6-666-|6-6-666-6-6-666~|
|4-4-444-4-4-444-|----------------|4-4-444-4-4-444-|4-4-444-4-4-444-|
|----------------|----------------|----------------|----------------|

-----------------------------------------------------------------------------

7.You're Better Off Dead

Children of Bodom
You're Better off dead
Hatecrew Deathroll
Tabbed By kevin Cruz

Tune all Strings down one whole step

|--------------------------12\24-|
|--------------------------------|
|-11-------9-------5-------------|
|--------------------------------|
|--------------------------------|
|--------------------------------|

                                   1.3.               2.
|---------------------------------|------------------|------------------|
|---------------------------------|------------------|------------------|
|---------------------------------|------------------|---------8-11-9/0-|
|--------------------7------------|------------------|-7-10-9-7---------|
|-4-2-4-2-5--4-2-4-2-5--4-2-4-2-5-|------------------|------------------|
|-2-0-2-0-3--2-0-2-0----2-0-2-0-3-|-0000000000000000-|------------------|
    .   .      .   .      .   .     ................
                                   4.
                                  |---------------|
                                  |---------------|
                                  |-8-9-11-8-9-11-|
                                  |---------------|
                                  |---------------|
                                  |---------------|

|-------|--------|------|--------------|---------|--------|------|---------|
|-------|--------|------|--------------|---------|--------|------|---------|
|-------|--------|------|--------------|---------|--------|------|---------|
|-------|--------|------|-------12--11-|---------|--------|------|-5-------|
|-4--2--|--------|-4--2-|-------10--9--|-4--2--4-|--5--7--|-4--2-|-3-5-5-5-|
|-2--0--|--0-2-0-|-2--0-|-0-2-0--------|-2--0--2-|--3--5--|-2--0-|---3-3-2-|
           . . .          . . .             
                                   1.                 2.
|---------------------------------|------------------|------------------|
|---------------------------------|------------------|------------------|
|---------------------------------|------------------|---------8-11-9/0-|
|--------------------7------------|------------------|-7-10-9-7---------|
|-4-2-4-2-5--4-2-4-2-5--4-2-4-2-5-|------------------|------------------|
|-2-0-2-0-3--2-0-2-0----2-0-2-0-3-|-0000000000000000-|------------------|
    .   .      .   .      .   .     ................

|---------------|---------------|----------------------------------|
|---------------|---------------|----------------------------------|
|---------------|---------------|----------------------------------|
|-9--9-7--7-7-9-|-9--9-5--5-5-5-|----------------------------------|
|-7--7-5--5-5-7-|-7--7-3--3-3-3-|-----10-9-----9-7-----7-5-----9-7-|
|---------------|---------------|-0-0------0-0-----0-0-----0-0-----|
                                  . .      . .     . .     . . 
|---------------|---------------|----------------------------------|
|---------------|----------A.H.-|----------------------------------|
|---------------|----------<5>--|----------------------------------|
|-9--9-7--7-7-9-|-9--9-5--5-----|----------------------------------|
|-7--7-5--5-5-7-|-7--7-3--3-----|-----10-9-----9-7-----7-5-----9-7-|
|---------------|---------------|-0-0------0-0-----0-0-----0-0-----|
                                  . .      . .     . .     . .

                                     
|-----------------|-----------------||-0-14-10-14-0-14-10-14-|
|-7-5-7-9--7-9-10-|-9-10/17~10-9-10-||-----------------------|
|-----------------|-----------------||-----------------------| 2x
|-----------------|-----------------||-----------------------|
|-----------------|-----------------||-----------------------|
|-----------------|-----------------||-----------------------|

|------A.H.-------|-----------------||-0-14-10-14-0-141210------------91012-|
|-7-5-7<9>-7-9-10-|-9-10/17~10-9-10-||--------------------141210-91012------|
|-----------------|-----------------||--------------------------------------|
|-----------------|-----------------||--------------------------------------|
|-----------------|-----------------||--------------------------------------|
|-----------------|-----------------||--------------------------------------|

                           1.3. Sweep Pick
|---------17---------17-|---16h19p16---16h19p16----14h19p14----14h19p14--|
|-19-15-19---21-17-21---|--17------17-17------17-15-------15-15-------15-|
|-----------------------|-16--------16---------16----------16------------|
|-----------------------|------------------------------------------------|
|-----------------------|------------------------------------------------|
|-----------------------|------------------------------------------------|

  2.
||-----14h17p14------17h21p17------16h19p16------12h16p12---|
||---15--------15--19--------19--17--------17--14--------14-|
||-14------------18------------16------------14-------------|
||----------------------------------------------------------|
||----------------------------------------------------------|
||----------------------------------------------------------|

-----------------------------------------------------------------------------

8.Lil Bloodred Riding Hood

Chiilren of Bodom
Lil Blood Red Riding Hood
HateCrew DeathRoll
Tabbed By Kevin Cruz

Tune all Strings down one Whole Step: D A F G C D

                                                 1.               2.
D:---------------------------------------------||---------------||-------|
A:---------------------------------------------||---------------||-------|
F:-999-101010-77-999-121212-77-999-101010-77-9-||---------------||-4-5-7-|
G:-999-101010-77-999-121212-77-999-101010-77-9-||---------------||-4-5-7-|
C:-777-8-8-8--55-777-101010-55-777-8-8-8--55-7-||---------------||-2-3-5-|
D:---------------------------------------------||-0-1-0-1-0-1-0-||-------|
                                                  . . . . . . .

D:---------------------------------||----------------------------------|
A:---------------------------------||----------------------------------|
F:---------------------------------||----------------------------------|
G:-----------------------5---3333--||-------------------5---7---10---9-|
C:---7---7---7---7---7---7---5555--||---7---7---7---7------------------|
D:-0---0---0---0---0---0---0-------||-0---0---0---0---0---0---0----0---|
                                               
                                                 
I'LL WRITE THE REST SOON

-----------------------------------------------------------------------------

9.Hatecrew DeathRoll

Hey my name is Tim and I am a fan of Children of bodom , I tried to tab out the title 
from the HCDR cd by COB I think it is 90% accurate

Tuning:
Whole step down -> D G C F A D

Keyboard intro (4 x)
e|-19-15---18-14---17-13---16-12---------------------------------------------|
B|---------------------------------------------------------------------------|
G|---------------------------------------------------------------------------|
D|---------------------------------------------------------------------------|
A|---------------------------------------------------------------------------|
E|---------------------------------------------------------------------------|

Riff 1 (no vocals) (2x)
e|----------------------------------------------------------------------------|
B|----------------------------------------------------------------------------|
G|----------------------------------------------------------------------------|
D|-8/9--8-9----------8/9--8/9----------8/9--8/9-------------------------------|
A|-6/7--6/7----------6/7--6/7----------6/7--6/7----------------7--10----------|
E|-----------0-0-0-0-----------0-0-0-0-----------0-0-0-0-------5--8-----------|

e|-----------------------------------------------------------------------|
B|-----------------------------------------------------------------------|
G|-------------------------------------------------9--7------------------|
D|-8/9--8-9----------8/9--8/9----------8/9--8/9----7--5------------------|
A|-6/7--6/7----------6/7--6/7----------6/7--6/7--------------------------|
E|-----------0-0-0-0-----------0-0-0-0-----------0-0-0-0-------5--8------|

Riff 2 with vocals

e|----------------------------------------------------------------------------|
B|----------------------------------------------------------------------------|
G|----------------------------------------------------------------------------|
D|-8/9--8-9----------8/9--8/9----------8/9--8/9-------------------------------|
A|-6/7--6/7----------6/7--6/7----------6/7--6/7----------------7--10----------|
E|-----------0-0-0-0-----------0-0-0-0-----------0-0-0-0-------5--8-----------|

e|----------------------------------------------------------------------------|
B|----------------------------------------------------------------------------|
G|----------------------------------------------------------------------------|
D|-8/9--8-9----------8/9--8/9----------8/9--8/9-------------------------------|
A|-6/7--6/7----------6/7--6/7----------6/7--6/7--2-2-2-2----------------------|
E|-----------0-0-0-0-----------0-0-0-0-----------0-0-0-0----------------------|
comments
print report bad tab
8 comments total. Showing first comments.
0 reply
metal_man696 wrote on October 16 2005, 03:15 pm

dammit i cant find a tab that has the verse to chokehold. can anyone tab it for me?

-1 reply
cincit2 wrote on January 22 2007, 06:13 pm

this tabs ****ing sick. awesome man

0 reply
AndrewNightmare wrote on March 31 2007, 10:50 am

tabs are decent. Not the right notations for most of Angels Don't Kill or Bodom Beach Terror, but its still a decent tab.

I want to post or [tab]
guest
You may want to rate the tab now too:
select rating
Please do not post tabs as comments. Select "correction" instead!