Oops, an error
Loading. Please wait.

Hate Me Tab

ver3
ver3

Intro

Solo

Whole song

More versions @911Tabs.com
17,931 views 6 this week
5 commentsread comments
1 2 3 4 5
accurate
x 8
Autoscroll
+/-
esc
set tempo
stop
Contributor
Difficulty
advanced
WARNING: You are trying to view
                                    content from Ultimate-Guitar.com
                                    in an unauthorized application,
                                    which is prohibited.

                                    Please use an official Ultimate
                                    Guitar Tabs application for iPhone,
                                    iPad or Android to access legitimate
                                    chords, guitar, bass, and drum tabs
                                    from Ultimate-Guitar.com database.

                                    Type "ultimate guitar tabs" in Apple
                                    App Store's or Android Market's
                                    search to find the application.
                                    HATE ME!
                        As recorded by Children Of Bodom
                     (From the 2001 Album FOLLOW THE REAPER)

Words and Music by Alexi Laiho
Arranged by Children Of Bodom
Transcribed by DoomMaker (DoomMaker@Chello.hu)

         E5/B                 C5/G                 D5/A                 F5/C
      7 7 9 9 x x          3 3 5 5 x x          5 5 7 7 x x         8 8 10 10 x x

Gtr I (D G C F A D) - 'Alexi'
Gtr II (D G C F A D) - 'Alex'
Gtr III (D G C F A D) - 'Janne'

 Intro
  Q=190
 4/4
  Gtr III
    S  S S S   S  S S S   S  S S S   S  S S S     S  S S S   S  S S S   S  S S S   S  S S S
|-[24]-------[24]-------[24]-------[24]-------|-[24]-------[24]-------[24]-------[24]-------|
|---------------------------------------------|---------------------------------------------|
|--21---------21---------21---------21--------|--21---------21---------21---------21--------|
|---------------------------------------------|---------------------------------------------|
|---------------------------------------------|---------------------------------------------|
|---------------------------------------------|---------------------------------------------|


    S  S S S   S  S S S   S  S S S   S  S S S     S  S S S   S  S S S   S  S S S   S  S S S
|-[24]-------[24]-------[24]-------[24]-------|-[24]-------[24]-------[24]-------[24]---------|
|---------------------------------------------|-----------------------------------------------|
|--21---------21---------21---------21--------|--21---------21---------21---------21----------|
|---------------------------------------------|-----------------------------------------------|
|---------------------------------------------|-----------------------------------------------|
|---------------------------------------------|-----------------------------------------------|


    S  S S S   S  S S S   S  S S S   S  S S S
|-[24]-------[24]-------[24]-------[24]-------|
|---------------------------------------------|
|--21---------21---------21---------21--------|
|---------------------------------------------|
|---------------------------------------------|
|---------------------------------------------|


                                                E5                        N.C.
                                               9/8
                                                Gtrs I, II
    S  S S S   S  S S S   S  S S S   S  S S S   E E E E E E E E E   E E E E  E E E  Q
|-[24]-------[24]-------[24]-------[24]-------|-------------------|-----------------------|
|---------------------------------------------|-------------------|----------------12\----|
|--21---------21---------21---------21--------|-------------------|-----------------------|
|---------------------------------------------|-9-----------9-----|-----------------------|
|---------------------------------------------|-7-7---7---7-7-7---|-7---7------7-9--------|
|---------------------------------------------|---0---0---0---0---|-0---0-7-10------------|


  E5      D5    C5            D5        E5      C5    E5
 4/4
  Gtr I
  E E E E E E E E   +E  E E E E E E E   E E E E E E E E   +E  E E E E E E E
|---3-------------|-------------------|---3-------------|-------------------|
|-5---7-5-3-----5-|-(5)-5-3-------3-5-|-5---7-5-3-----5-|-(5)-5-3-------3-5-|
|-----------4-----|---------4-2-------|-----------4-----|---------4-2-------|
|-------------5---|-------------5-----|-------------5---|-------------5-----|
|-----------------|-------------------|-----------------|-------------------|
|-----------------|-------------------|-----------------|-------------------|
|
| Gtr II
| E E E E E E E E   +E  E E E E E E E   E E E E E E E E   +E  E E E E E E E
|-----------------|-------------------|-----------------|-------------------|
|-----------------|-------------------|-----------------|-------------------|
|-----------------|-------------------|-----------------|-------------------|
|-9-9-9-9-7-7-7-5-|-(5)-5-5-5-7-7-7-7-|-9-9-9-9-5-5-5-2-|-(2)-2-2-2-2-2-2-2-|
|-7-7-7-7-5-5-5-3-|-(3)-3-3-3-5-5-5-5-|-7-7-7-7-3-3-3-2-|-(2)-2-2-2-2-2-2-2-|
|-----------------|-------------------|-----------------|-------------------|


          D5    C5            D5        E5      C5    E5            A5B5C5D5
  E E E E E E E E   +E  E E E E E E E   E E E E E E E E   +E  E E E E E E E
|---3-------------|-------------------|---3-------------|-------------------|
|-5---7-5-3-----5-|-(5)-5-3-------3-5-|-5---7-5-3-----5-|-(5)-5-3-------3-5-|
|-----------4-----|---------4-2-------|-----------4-----|---------4-2-------|
|-------------5---|-------------5-----|-------------5---|-------------5-----|
|-----------------|-------------------|-----------------|-------------------|
|-----------------|-------------------|-----------------|-------------------|
|
| E E E E E E E E   +E  E E E E E E E   E E E E E E E E   +E  E E E E E E E
|-----------------|-------------------|-----------------|-------------------|
|-----------------|-------------------|-----------------|-------------------|
|-----------------|-------------------|-----------------|-------------------|
|-9-9-9-9-7-7-7-5-|-(5)-5-5-5-7-7-7-7-|-9-9-9-9-5-5-5-2-|-(2)-2-2-2-2-4-5-7-|
|-7-7-7-7-5-5-5-3-|-(3)-3-3-3-5-5-5-5-|-7-7-7-7-3-3-3-2-|-(2)-2-2-2-0-2-3-5-|
|-----------------|-------------------|-----------------|-------------------|


  $
  E5          D5       C5                 D5
   E  E  E  E  E  E  E  E    +E   E  E  E  E  E  E  E
|----15-------------------|---------------------------|
|-17----19-17-15-------17-|-(17)-17-15----------15-17-|
|----------------16-------|------------16-14----------|
|-------------------17----|------------------17-------|
|-------------------------|---------------------------|
|-------------------------|---------------------------|
|
|  E  E  E  E  E  E  E  E    +E   E  E  E  E  E  E  E
|-------------------------|---------------------------|
|-------------------------|---------------------------|
|-------------------------|---------------------------|
|--9--9--9--9--7--7--7--5-|--(5)--5--5--5--7--7--7--7-|
|--7--7--7--7--5--5--5--3-|--(3)--3--3--3--5--5--5--5-|
|-------------------------|---------------------------|


  E5          C5       E5
   E  E  E  E  E  E  E  E    +E   E  E  E  E  E  E  E
|----15-------------------|---------------------------|
|-17----19-17-15-------17-|-(17)-17-15----------15-17-|
|----------------16-------|------------16-14----------|
|-------------------17----|------------------17-------|
|-------------------------|---------------------------|
|-------------------------|---------------------------|
|
|  E  E  E  E  E  E  E  E    +E   E  E  E  E  E  E  E
|-------------------------|---------------------------|
|-------------------------|---------------------------|
|-------------------------|---------------------------|
|--9--9--9--9--5--5--5--2-|--(2)--2--2--2--2--2--2--2-|
|--7--7--7--7--3--3--3--2-|--(2)--2--2--2--2--2--2--2-|
|-------------------------|---------------------------|


                                            To Coda
              D5       C5                 D5
   E  E  E  E  E  E  E  E    +E   E  E  E  E  E  E  E
|----15-------------------|---------------------------|
|-17----19-17-15-------17-|-(17)-17-15----------15-17-|
|----------------16-------|------------16-14----------|
|-------------------17----|------------------17-------|
|-------------------------|---------------------------|
|-------------------------|---------------------------|
|
|  E  E  E  E  E  E  E  E    +E   E  E  E  E  E  E  E
|-------------------------|---------------------------|
|-------------------------|---------------------------|
|-------------------------|---------------------------|
|--9--9--9--9--7--7--7--5-|--(5)--5--5--5--7--7--7--7-|
|--7--7--7--7--5--5--5--3-|--(3)--3--3--3--5--5--5--5-|
|-------------------------|---------------------------|


  E5          D5            A5      E5
   E  E  E  E  E  E  E  E    E  E E  E  E E E E
|----15-------------------|---------------------||
|-17----19-17-15----------|---------17-17-------||
|----------------16-------|---------------------||
|-------------------17-16-|-14-14---------------||
|-------------------------|-------------------2-||
|-------------------------|-------------------0-||
|
|  E  E  E  E  E  E  E  E    E  E E  E  E E E E
|-------------------------|---------------------||
|-------------------------|---------------------||
|-------------------------|---------------------||
|--9--9--9--9--7--7--x--x-|--2--2----2--2-------||
|--7--7--7--7--5--5--x--x-|--0--0----2--2-----2-||
|-------------------------|----------0--0-----0-||


   Verse
                                      $$
    E5
    +E  S S S S S S S S S S S S S S   S S S S S S S S S S E E E
||----------------------------------|---------------------------|
||o---------------------------------|---------------------------|
||----------------------------------|---------------------------|
||----------------------------------|-------------------------2-|
||o-(2)-----------------------------|---------------------6-6---|
||--(0)-0---0---0---0-0-0---0---0---|-0---0---0---0---0---------|
|
|   +E  S S S S S S S S S S S S S S   S S S S S S S S S S E E E
||----------------------------------|---------------------------|
||o---------------------------------|---------------------------|
||----------------------------------|---------------------------|
||----------------------------------|---------------------4-4-2-|
||o-(2)-----------------------------|-------------------------2-|
||--(0)-0---0---0---0-0-0---0---0---|-0---0---0---0---0---------|


  +E  S S S S S S S S S S S S S S   S S S S S S S S  E  E  E E
|---------------------------------|-----------------------------|
|---------------------------------|-----------------------------|
|---------------------------------|------------------8--8--8----|
|-(2)-----------------------------|--------------------------5--|
|---------------------------------|-----------------------------|
|-----0---0---0---0-0-0---0---0---|-0---0---0---0---------------|
|
| +E  S S S S S S S S S S S S S S   S S S S S S S S  E  E  E E
|---------------------------------|-----------------------------|
|---------------------------------|-----------------------------|
|---------------------------------|-----------------------------|
|-(2)-----------------------------|-----------------10-10-10-9--|
|-(2)-----------------------------|--------------------------7--|
|-----0---0---0---0-0-0---0---0---|-0---0---0---0------------0--|


                  D5                  C5
  +E  E E E E E E E   +E  E E E E E E E   +E  E E E E E E E
|-------------------|-------------------|-------------------|
|-------------------|-------------------|-------------------|
|-------------------|-------------------|-------------------|
|-(5)-x-5-x-7-5-x-4-|-(4)-x-4-x-5-4-x-4-|-(4)-x-2-x-2---x-2-|
|-------------------|-------------------|-------------5-----|
|-------------------|-------------------|-------------------|
|
| +E  E E E E E E E   +E  E E E E E E E   +E  E E E E E E E
|-------------------|-------------------|-------------------|
|-------------------|-------------------|-------------------|
|-------------------|-------------------|-------------------|
|-(9)---9---9-----7-|-(7)---7---7-7---5-|-(5)---------------|
|-(7)---7-----7---5-|-(5)-5-5-5-5-5-5-3-|-(3)-3-3-3-3-3-3-3-|
|-(0)-0-0-0---------|-------------------|-------------------|


  E5
  +E  E E E E E E E   +E  S S S S S S S S S S S S S S
|-------------------|---------------------------------|
|-------------------|---------------------------------|
|-------------------|---------------------------------|
|-(2)-----2---0-----|---------------------------------|
|---------2---0---2-|-(2)-----------------------------|
|-----x-x-0---0---0-|-(0)-0---0---0---0-0-0---0---0---|
|
|  E  E E E E E E E   +E  S S S S S S S S S S S S S S
|-------------------|---------------------------------|
|-------------------|---------------------------------|
|---------4---2-----|---------------------------------|
|---------2---0-----|---------------------------------|
|--3--3-3---------2-|-(2)-----------------------------|
|-----------------0-|-(0)-0---0---0---0-0-0---0---0---|


  S S S S S S S S S S E E E   +E  S S S S S S S S S S S S S S
|---------------------------|---------------------------------|
|---------------------------|---------------------------------|
|---------------------------|---------------------------------|
|-------------------------2-|-(2)-----------------------------|
|---------------------6-6---|---------------------------------|
|-0---0---0---0---0---------|-----0---0---0---0-0-0---0---0---|
|
| S S S S S S S S S S E E E   +E  S S S S S S S S S S S S S S
|---------------------------|---------------------------------|
|---------------------------|---------------------------------|
|---------------------------|---------------------------------|
|---------------------4-4-2-|-(2)-----------------------------|
|-------------------------2-|-(2)-----------------------------|
|-0---0---0---0---0---------|-----0---0---0---0-0-0---0---0---|


                                               D5                  C5
  S S S S S S S S  E  E  E E   +E  E E E E E E E   +E  E E E E E E E
|----------------------------|-------------------|-------------------|
|----------------------------|-------------------|-------------------|
|------------------8--8--8---|-------------------|-------------------|
|--------------------------5-|-(5)-x-5-x-7-5-x-4-|-(4)-x-4-x-5-4-x-4-|
|----------------------------|-------------------|-------------------|
|-0---0---0---0--------------|-------------------|-------------------|
|
| S S S S S S S S  E  E  E E   +E  E E E E E E E   +E  E E E E E E E
|----------------------------|-------------------|-------------------|
|----------------------------|-------------------|-------------------|
|----------------------------|-------------------|-------------------|
|-----------------10-10-10-9-|-(9)---9---9-----7-|-(7)---7---7-7---5-|
|--------------------------7-|-(7)---7-----7---5-|-(5)-5-5-5-5-5-5-3-|
|-0---0---0---0------------0-|-(0)-0-0-0---------|-------------------|


                                     Chorus
                                      A5   C5
                           ~~~
  +E  E E E E E E E   E E  H.         Q  E  H     +E     +W
|-------------------|--------------||-----------------|---------|
|-------------------|--------------||-----------------|---------|
|-------------------|-----[5]------||-----------------|---------|
|-(4)-x-2-x-2---x-2-|--------------||-7----10----(10)-|-(10)----|
|-------------5-----|-x-x----------||-7----10----(10)-|-(10)----|
|-------------------|--------------||-5--5--8-----(8)-|--(8)----|
|
|                          T
| +E  E E E E E E E   E E  H.         Q  E  H     +E     +W
|-------------------|--------------||-----------------|---------|
|-------------------|--------------||-----------------|---------|
|-------------------|------5-------||-----------------|---------|
|-(5)---------------|--------------||-7----10----(10)-|-(10)----|
|-(3)-3-3-3-3-3-3-3-|-3-3----------||-7----10----(10)-|-(10)----|
|-------------------|--------------||-5--5--8-----(8)-|--(8)----|


      E5                             A5   C5
      PM           PM------------|      PM
   Q  E H    +E    E E E E E E E E   Q  E  H     +E     +W
|----------------|-----------------|-----------------|---------|
|----------------|-----------------|-----------------|---------|
|-------9----(9)-|-----------------|-----------------|---------|
|-10----9----(9)-|-----------------|-7----10----(10)-|-(10)----|
|-10-------------|-----------------|-7----10----(10)-|-(10)----|
|--8--7----------|-0-0-0-0-0-0-0-0-|-5--5--8-----(8)-|--(8)----|
|
|     PM           PM------------|
|  Q  E H    +E    E E E E E E E E   Q  E  H     +E     +W
|----------------|-----------------|-----------------|---------|
|----------------|-----------------|-----------------|---------|
|----------------|-----------------|-----------------|---------|
|-10----2----(2)-|-----------------|-7----10----(10)-|-(10)----|
|-10----2----(2)-|-----------------|-7----10----(10)-|-(10)----|
|--8--7-0----(0)-|-0-0-0-0-0-0-0-0-|-5--5--8-----(8)-|--(8)----|


                  To Dbl. Coda
  E5
  Gtrs I, II
  S S S S S S S S S S E S S S S   S S S S S S E Q  E  E
|-------------------------------|-------------------------||
|-------------------------------|------------------------o||
|-------------------------------|-------------------------||
|-------------------------------|-------------------------||
|-7---7---7---7---7-----2---2---|-2---2---2----------(2)-o||
|-0---0---0---0---0-----0---0---|-0---0---0----------(0)--||


 Interlude
  A5 C5     D5         G5   Bb5    N.C.
 2/4       4/4
  Gtr I
  Q  Q      W          H    H      E E E E E  E E  E   E  E E  E E  E E  E
|-------||-----------|-----------|-------------------|-----------------------||
|-------||o----------|-----------|-------------------|----------------------o||
|----5--||--7--------|-----------|-------------------|-----------------------||
|-2--5--||--7--------|-5----8----|-------------------|-----------------------||
|-0--3--||o-5--------|-----------|-8-5-8-5-----------|-8--5-8--5------------o||
|-------||-----------|-----------|---------8--5-8--5-|-----------8--5-8--5---||
|
| Gtr II
| Q  Q      W          H    H      H       E  E E  E   E  E E  E E  E E  E
|-------||-----------|-----------|-------------------|-----------------------||
|-------||o----------|-----------|-------------------|----------------------o||
|----5--||--7--------|-----------|-------------------|-----------------------||
|-2--5--||--7--------|-5----8----|-7-----------------|-7-10-7-10-------------||
|-0--3--||o-5--------|-5----8----|-5-------7-10-7-10-|-----------7-10-7-10--o||
|-------||-----------|-----------|-------------------|-----------------------||


  D5
  \4__________________________|
  W            +H     +Q..   +S
|------------|-------------------|
|------------|-------------------|
|-2----------|-(2)----(2)----(2)-|
|------------|-------------------|
|------------|-------------------|
|------------|-------------------|
|
| \4__________________________|
| W            +H     +Q..   +S
|------------|-------------------|
|------------|-------------------|
|------------|-------------------|
|-0----------|-(0)----(0)----(0)-|
|------------|-------------------|
|------------|-------------------|


  N.C.
   E  E  E  E E  E E  E    E  E  E  E  E  E  E  E
|-----------------------|-------------------------|
|-----------------------|-------------------------|
|-10--7-10--7-9--5-9--5-|-14-10-14-10-12--9-12--9-|
|-----------------------|-------------------------|
|-----------------------|-------------------------|
|-----------------------|-------------------------|
|
|  E  E  E  E E  E E  E    E  E  E  E  E  E  E  E
|-----------------------|-------------------------|
|-----------------------|-10-13-10-13--8-13--8-13-|
|-10-14-10-14-9-12-9-12-|-------------------------|
|-----------------------|-------------------------|
|-----------------------|-------------------------|
|-----------------------|-------------------------|


   E  E  E  E E  E E  E    E  E  E  E  E  E  E  E
|-----------------------|-------------------------|
|-----------------------|-------------------------|
|-10--7-10--7-9--5-9--5-|-14-10-14-10-12--9-12--9-|
|-----------------------|-------------------------|
|-----------------------|-------------------------|
|-----------------------|-------------------------|
|
|  E  E  E  E E  E E  E    E  E  E  E  E  E  E  E
|-----------------------|-------------------------|
|-----------------------|-10-13-10-13--8-13--8-13-|
|-10-14-10-14-9-12-9-12-|-------------------------|
|-----------------------|-------------------------|
|-----------------------|-------------------------|
|-----------------------|-------------------------|


   E  E  E  E E  E E  E    E  E  E  E  E  E  E  E
|-----------------------|-------------------------|
|-----------------------|-------------------------|
|-10--7-10--7-9--5-9--5-|-14-10-14-10-12--9-12--9-|
|-----------------------|-------------------------|
|-----------------------|-------------------------|
|-----------------------|-------------------------|
|
|  E  E  E  E E  E E  E    E  E  E  E  E  E  E  E
|-----------------------|-------------------------|
|-----------------------|-10-13-10-13--8-13--8-13-|
|-10-14-10-14-9-12-9-12-|-------------------------|
|-----------------------|-------------------------|
|-----------------------|-------------------------|
|-----------------------|-------------------------|


   E  E  E  E E  E E  E    E  E  E  E  E  E  E  E
|-----------------------|-------------------------|
|-----------------------|-------------------------|
|-10--7-10--7-9--5-9--5-|-14-10-14-10-12--9-12--9-|
|-----------------------|-------------------------|
|-----------------------|-------------------------|
|-----------------------|-------------------------|
|
|  E  E  E  E E  E E  E    E  E  E  E  E  E  E  E
|-----------------------|-------------------------|
|-----------------------|-10-13-10-13--8-13--8-13-|
|-10-14-10-14-9-12-9-12-|-------------------------|
|-----------------------|-------------------------|
|-----------------------|-------------------------|
|-----------------------|-------------------------|


   E  E  E  E  E  E  E  E    E  E  E  E  E  E  E  E
|-------------------------|-------------------------|
|-------------------------|-------------------------|
|-12--9-12--9-11--7-11--7-|-16-12-16-12-14-11-14-11-|
|-------------------------|-------------------------|
|-------------------------|-------------------------|
|-------------------------|-------------------------|
|
|  E  E  E  E  E  E  E  E    E  E  E  E  E  E  E  E
|-------------------------|-------------------------|
|-------------------------|-12-15-12-15-10-15-10-15-|
|-12-16-12-16-11-14-11-14-|-------------------------|
|-------------------------|-------------------------|
|-------------------------|-------------------------|
|-------------------------|-------------------------|


   E  E  E  E  E  E  E  E    E  E  E  E  E  E  E  E
|-------------------------|-------------------------|
|-------------------------|-------------------------|
|-12--9-12--9-11--7-11--7-|-16-12-16-12-14-11-14-11-|
|-------------------------|-------------------------|
|-------------------------|-------------------------|
|-------------------------|-------------------------|
|
|  E  E  E  E  E  E  E  E    E  E  E  E  E  E  E  E
|-------------------------|-------------------------|
|-------------------------|-12-15-12-15-10-15-10-15-|
|-12-16-12-16-11-14-11-14-|-------------------------|
|-------------------------|-------------------------|
|-------------------------|-------------------------|
|-------------------------|-------------------------|


   E  E  E  E  E  E  E  E    E  E  E  E  E  E  E  E
|-------------------------|-------------------------|
|-------------------------|-------------------------|
|-12--9-12--9-11--7-11--7-|-16-12-16-12-14-11-14-11-|
|-------------------------|-------------------------|
|-------------------------|-------------------------|
|-------------------------|-------------------------|
|
|  E  E  E  E  E  E  E  E    E  E  E  E  E  E  E  E
|-------------------------|-------------------------|
|-------------------------|-12-15-12-15-10-15-10-15-|
|-12-16-12-16-11-14-11-14-|-------------------------|
|-------------------------|-------------------------|
|-------------------------|-------------------------|
|-------------------------|-------------------------|


   E  E  E  E  E  E  E  E    E  E  E  E  E  E  E  E
|-------------------------|-------------------------||
|-------------------------|-------------------------||
|-12--9-12--9-11--7-11--7-|-16-12-16-12-14-11-14-11-||
|-------------------------|-------------------------||
|-------------------------|-------------------------||
|-------------------------|-------------------------||
|
|  E  E  E  E  E  E  E  E    E  E  E  E  E  E  E  E
|-------------------------|-------------------------||
|-------------------------|-12-15-12-15-10-15-10-15-||
|-12-16-12-16-11-14-11-14-|-------------------------||
|-------------------------|-------------------------||
|-------------------------|-------------------------||
|-------------------------|-------------------------||


 Guitar Break
  E5
   E     E     Q           H
|--------------------------------------------------|
|--------------------------------------------------|
|--------------------------------------------------|
|--------------------------------------------------|
|--2-----2-----------------------------------------|
|--0-----0-----------------------------------------|
|
|  S  S  S  S  S  S  S  S  S  S  S  S  S  S  S  S
|--------------------------------------------------|
|--------------------------------------------------|
|-12-15-12-15-17-15-17-15-12-15-17-15-17-15-12-15--|
|--------------------------------------------------|
|--------------------------------------------------|
|--------------------------------------------------|


   W
|------------------------------------------------|
|------------------------------------------------|
|------------------------------------------------|
|------------------------------------------------|
|------------------------------------------------|
|------------------------------------------------|
|
|  S  S  S  S  S  S  S  S  S  S  S  S  E     +E
|------------------------------------------------|
|------------------------------------------------|
|-18-15-17-15-12-15-18-15-17-15-12-15-19b23-(19)-|
|------------------------------------------------|
|------------------------------------------------|
|------------------------------------------------|


  E E H.         W
|-------------|------------------|
|-------------|------------------|
|-----9-------|------------------|
|-----9-------|------------------|
|-2-2-9-------|------------------|
|-0-0---------|------------------|
|
| W              H        +H
|-------------|-20b24----(20)----|
|-------------|------------------|
|-------------|------------------|
|-------------|------------------|
|-------------|------------------|
|-------------|------------------|


  E5
   S  S  S  S  S  S  S  S  S  S  S  S  S  S  S  S
|-------------------------------------------------|
|-------------12----------------------------------|
|-12-13-14-15----15-14-15-14-13-12----12-13-14-15-|
|----------------------------------16-------------|
|-------------------------------------------------|
|-------------------------------------------------|
|
|  E     E     Q           H
|-------------------------------------------------|
|-------------------------------------------------|
|-------------------------------------------------|
|-------------------------------------------------|
|--2-----2----------------------------------------|
|--0-----0----------------------------------------|


   S  S  S  S  S  S  S  S  S  S  S  S  S  S  S S
|------------------------------------------------||
|-12----------------------------------12-12------||
|----15-14-15-14-13-12----12-13-14-15-------15---||
|----------------------16------------------------||
|------------------------------------------------||
|------------------------------------------------||
|
|  W
|------------------------------------------------||
|------------------------------------------------||
|------------------------------------------------||
|------------------------------------------------||
|------------------------------------------------||
|------------------------------------------------||


 Main Theme
                               D.S. al Coda
  E5                         N.C.
 9/8
  W                   Q.     E  E E  E  E. S
|-------------------|------------------------|
|-------------------|------------------------|
|-------------------|-------------9-11-12S=0-|
|-------------------|--------9-12------------|
|-------------------|------------------------|
|-------------------|------------------------|
|
| E E E E E E E E E   E  E E E  E E  E  Q
|-------------------|------------------------|
|-------------------|------------------12\---|
|-------------------|------------------------|
|-9-----------9-----|------------------------|
|-7-7---7---7-7-7---|-7----7------7--9-------|
|---0---0---0---0---|-0----0-7-10------------|


  &
  E5          D5       N.C.
 4/4
   E  E  E  E  E  E  E  E    +E   E  E  E  E  E  E  E
|----15----------------15-|-(15)-15-15-15-15-15-15-15-||
|-17----19-17-15----------|---------------------------||
|----------------16-14----|---------------------------||
|-------------------------|---------------------------||
|-------------------------|---------------------------||
|-------------------------|---------------------------||
|
|  E  E  E  E  E  E  E  E    +E   E  E  E  E  E  E  E
|-------------------------|---------------------------||
|----------------------17-|-(17)-17-17-17-17-17-17-17-||
|-------------------------|---------------------------||
|--9--9--9--9--7--7--x----|---------------------------||
|--7--7--7--7--5--5--x----|---------------------------||
|-------------------------|---------------------------||


 Verse
                 D.S.S. al Dbl. Coda
        E5
   +E   S S S S S S S S S S S S S S
|-(15)\------------------------------|
|------------------------------------|
|------------------------------------|
|------------------------------------|
|------------------------------------|
|-------0---0---0---0-0-0---0---0----|
|
|  +E   S S S S S S S S S S S S S S
|------------------------------------|
|-(17)\------------------------------|
|------------------------------------|
|------------------------------------|
|------------------------------------|
|-------0---0---0---0-0-0---0---0----|


                                 Bridge
  &&
  E5
  Gtrs I, II
  S S S S S E. S S S S S S S S    W
|------------------------------||----------|
|------------------------------||----------|
|------------------------------||----------|
|------------------------------||-2--------|
|-2---2---2----2---2---2---2---||-2--------|
|-0---0---0----0---0---0---0---||-0--------|


  +W           +W           +Q   E E E E E E
|------------|------------|------------------|
|------------|------------|------------------|
|------------|------------|------------------|
|-(2)--------|-(2)--------|-(2)--------------|
|-(2)--------|-(2)--------|-(2)--2---2---2---|
|-(0)--------|-(0)--------|-(0)--0---0---0---|


  E5                                       G5 F#5F5
                                       PM|
  W          +W           +W           E E Q  Q  Q
|----------|------------|------------|--------------|
|----------|------------|------------|--------------|
|----------|------------|------------|--------------|
|-2--------|-(2)--------|-(2)--------|-----5--4--3--|
|-2--------|-(2)--------|-(2)--------|-2-2-5--4--3--|
|-0--------|-(0)--------|-(0)--------|-0-0----------|


  E5
  PM----|                                       PM  PM  PM
  E E E E H      +W           +W           +Q   E E E E E E
|--------------|------------|------------|------------------|
|--------------|------------|------------|------------------|
|--------------|------------|------------|------------------|
|---------2----|-(2)--------|-(2)--------|-(2)--------------|
|-2---2-2-2----|-(2)--------|-(2)--------|-(2)--------------|
|-0---0-0-0----|-(0)--------|-(0)--------|-(0)--0---0---0---|


  W          +W           +W           +W
|----------|------------|------------|---------|
|----------|------------|------------|---------|
|----------|------------|------------|---------|
|----------|------------|------------|---------|
|----------|------------|------------|---------|
|-0--------|-(0)--------|-(0)--------|-(0)\----|


  E5      (G5)        (D5)    E5                  (G5)     (D5)
  Gtr I
  E E Q    E  E Q     E E Q   E E   Q         Q    E  E Q  E E
|-------------------|-----------------------|------------------|
|-------------------|-----------------------|------------------|
|-9-9-----12-12-----|-7-7-----9-9-----------|-----12-12----7-7-|
|-9-9-----12-12-----|-7-7-----9-9-----------|-----12-12----7-7-|
|-------------------|-----------------------|------------------|
|-------------------|-----------------------|------------------|
|
| Gtr II
| PM---------------------------------------------------------|
| E E E E  Q    E E   E E E E E S S S S S S   E E  E  E Q  E E
|-------------------|-----------------------|------------------|
|-------------------|-----------------------|------------------|
|-------------------|-----------------------|------------------|
|-------------------|-----------------------|------------------|
|-------------------|-----------------------|------------------|
|-0-0-0---------0-0-|-0-0-0-0-0-0-0-0-0-0-0-|-0-0--0-------0-0-|


      (G5)        E5                (C5)      (D5)    (F5)         E5
  Q    E  E Q     E   E     E E Q   E E Q     E E Q    E  E    E   E
|-------------------------|-----------------|---------------------------|
|-------------------------|-----------------|---------------------------|
|-----12-12-------9---9---|-9-9-----5-5-----|-7-7-----10-10---10---9----|
|-----12-12-------9---9---|-9-9-----5-5-----|-7-7-----10-10---10---9----|
|-------------------------|-----------------|---------------------------|
|-------------------------|-----------------|---------------------------|
|
| PM-----------------------------------------------------------------|
| E E  E  E E S S S S S S   E E E E Q   E E   E E E E  E  S S  S S S S
|-------------------------|-----------------|---------------------------|
|-------------------------|-----------------|---------------------------|
|-------------------------|-----------------|---------------------------|
|-------------------------|-----------------|---------------------------|
|-------------------------|-----------------|---------------------------|
|-0-0--0--0-0-0-0-0-0-0-0-|-0-0-0-------0-0-|-0-0-0-0--0--0-0--0-0-0-0--|


      (C5)   (D5)      (F5)                  E5      (G5)
  Q   E E Q  E E   Q    E  E H               E E Q    E  E Q
|----------------|-------------------------|-------------------|
|----------------|-------------------------|-------------------|
|-----5-5----7-7-|-----10-10---------------|-9-9-----12-12-----|
|-----5-5----7-7-|-----10-10---------------|-9-9-----12-12-----|
|----------------|-------------------------|-------------------|
|----------------|-------------------------|-------------------|
|
| PM---------------------------------------------------------|
| E E E E Q  E E   E E  E  E E S S S S S S   E E E E  Q    E E
|----------------|-------------------------|-------------------|
|----------------|-------------------------|-------------------|
|----------------|-------------------------|-------------------|
|----------------|-------------------------|-------------------|
|----------------|-------------------------|-------------------|
|-0-0-0------0-0-|-0-0--0--0-0-0-0-0-0-0-0-|-0-0-0---------0-0-|


  (D5)    E5                  (G5)     (D5)      (G5)        E5
  E E Q   E E   Q         Q    E  E Q  E E   Q    E  E Q     E   E
|-----------------------|------------------|--------------------------|
|-----------------------|------------------|--------------------------|
|-7-7-----9-9-----------|-----12-12----7-7-|-----12-12-------9---9----|
|-7-7-----9-9-----------|-----12-12----7-7-|-----12-12-------9---9----|
|-----------------------|------------------|--------------------------|
|-----------------------|------------------|--------------------------|
|
| PM---------------------------------------------------------------|
| E E E E E S S S S S S   E E  E  E Q  E E   E E  E  E E S S S S S S
|-----------------------|------------------|--------------------------|
|-----------------------|------------------|--------------------------|
|-----------------------|------------------|--------------------------|
|-----------------------|------------------|--------------------------|
|-----------------------|------------------|--------------------------|
|-0-0-0-0-0-0-0-0-0-0-0-|-0-0--0-------0-0-|-0-0--0--0-0-0-0-0-0-0-0--|


  E5/B   C5/G     D5/A   F5/C     E5/B   C5/G   D5/A     F5/C
  E E Q  E E Q    E E Q   E  E  E E   Q  E E Q  E E   Q   E  E H
|---------------|-------------------|---------------|---------------||
|---------------|-------------------|---------------|---------------||
|-9-9----5-5----|-7-7----10-10-10-9-|----5-5----7-7-|----10-10------||
|-9-9----5-5----|-7-7----10-10-10-9-|----5-5----7-7-|----10-10------||
|---------------|-------------------|---------------|---------------||
|---------------|-------------------|---------------|---------------||
|
| E E Q  E E Q    E E Q   E  E  E E   Q  E E Q  E E   Q   E  E H
|---------------|-------------------|---------------|---------------||
|---------------|-------------------|---------------|---------------||
|---------------|-------------------|---------------|---------------||
|---------------|-------------------|---------------|---------------||
|-7-7----3-3----|-5-5-----8--8--8-7-|----3-3----5-5-|-----8--8------||
|-7-7----3-3----|-5-5-----8--8--8-7-|----3-3----5-5-|-----8--8------||


 Guitar Solo
  A5       C5
   E  E  E  E  E  E  E   E      E   E  E  E  E  E  E  E
|-17----------15--------15--|--14-----12-15-14-17-14-12-|
|-------13-15----13-15------|------15-------------------|
|----14---------------------|---------------------------|
|---------------------------|---------------------------|
|---------------------------|---------------------------|
|---------------------------|---------------------------|
|
|        PM
|  Q     E  H           +E     +W
|---------------------------|---------------------------|
|---------------------------|---------------------------|
|---------------------------|---------------------------|
|--7-------10----------(10)-|-(10)----------------------|
|--7-------10----------(10)-|-(10)----------------------|
|--5-----5--8-----------(8)-|--(8)----------------------|


             B  E5
   E     +E   E  E     +E   Q   +E     E  E  E  E  E  E E E
|-17b19-(17)-22-17b19r(17)-15--(15)-|-15-17-12--------------|
|-----------------------------------|----------11-10-11-8---|
|-----------------------------------|---------------------9-|
|-----------------------------------|-----------------------|
|-----------------------------------|-----------------------|
|-----------------------------------|-----------------------|
|
|             PM                       PM-----------------|
|  Q          E  H              +E     E  E  E  E  E  E E E
|-----------------------------------|-----------------------|
|-----------------------------------|-----------------------|
|-----------------------------------|-----------------------|
|-10-------------2--------------(2)-|-----------------------|
|-10-------------2--------------(2)-|-----------------------|
|--8----------7--0--------------(0)-|--0--0--0--0--0--0-0-0-|


  A5     C5
  E E  E  E  E  E  E   E      S  S  S  S  S  S  S  S  S  S  S  S  S  S  S  S
|-------------------------|--------------------------------------12-14-15-17-|
|---7-10-13----15-13------|--------------10-12S13-15-13-12-13-15-------------|
|-7---------12--------12--|--11--9-11-12-------------------------------------|
|-------------------------|--------------------------------------------------|
|-------------------------|--------------------------------------------------|
|-------------------------|--------------------------------------------------|
|
|      PM
| Q    E  H           +E     +W
|-------------------------|--------------------------------------------------|
|-------------------------|--------------------------------------------------|
|-------------------------|--------------------------------------------------|
|-7------10----------(10)-|-(10)---------------------------------------------|
|-7------10----------(10)-|-(10)---------------------------------------------|
|-5----5--8-----------(8)-|--(8)---------------------------------------------|


              B     E5
   S  S  S  S  S  S  S  S  S  S  S  S  S  S  S   S
|-15-14-15-17-19-20-22-24-22-20-19-17--------------|
|-------------------------------------20-19-17-----|
|-----------------------------------------------19-|
|--------------------------------------------------|
|--------------------------------------------------|
|--------------------------------------------------|
|
|              PM
|  Q           E     H                      +E
|--------------------------------------------------|
|--------------------------------------------------|
|--------------------------------------------------|
|-10-----------------2----------------------(2)----|
|-10-----------------2----------------------(2)----|
|--8-----------7-----0----------------------(0)----|


                                        A5       C5
   S  S  S  S  S  E    +S   E  E  Q      E  E  E  E  E  E  E   E
|--------------------------------12---|-24-17-15-22-15-17-24--17\--|
|-----------------------------12------|----------------------------|
|-17-16--------------------12---------|----------------------------|
|-------19-17-16-14---(14)------------|----------------------------|
|-------------------------------------|----------------------------|
|-------------------------------------|----------------------------|
|
|  PM-------------------------------|
|  E     E     E    E       E  E  E E    Q     E  H           +E
|-------------------------------------|----------------------------|
|-------------------------------------|----------------------------|
|-------------------------------------|----------------------------|
|-------------------------------------|--7-------10----------(10)--|
|-------------------------------------|--7-------10----------(10)--|
|--0-----0-----0----0-------0--0--0-0-|--5-----5--8-----------(8)--|


    E   E   E  E  E  E  E  E
|------15/----------------15-|
|--13------13----15----13----|
|-------------12----12-------|
|----------------------------|
|----------------------------|
|----------------------------|
|
|  +W
|----------------------------|
|----------------------------|
|----------------------------|
|-(10)-----------------------|
|-(10)-----------------------|
|--(8)-----------------------|


              B     E5
   S  S  S  S  S  S  S  S  S  S  S  S  S  S  S   S
|-14-15-17-19-15-17-19-20-17-19-20-19-17-----------|
|----------------------------------------20-19--17-|
|--------------------------------------------------|
|--------------------------------------------------|
|--------------------------------------------------|
|--------------------------------------------------|
|
|              PM
|  Q           E     H                      +E
|--------------------------------------------------|
|--------------------------------------------------|
|--------------------------------------------------|
|-10-----------------2----------------------(2)----|
|-10-----------------2----------------------(2)----|
|--8-----------7-----0----------------------(0)----|


   S  S  S  S  S  S  S  S  S  S  S  S  S  S  S  S
|-------------------------------------------------|
|-20-19-17----------------------------------------|
|----------19-17-16-19-17-16----------------------|
|----------------------------19-17-16-19-17-16----|
|----------------------------------------------19-|
|-------------------------------------------------|
|
|  PM---------------------------------------|
|  E     E     E     E     E     E     E     E
|-------------------------------------------------|
|-------------------------------------------------|
|-------------------------------------------------|
|-------------------------------------------------|
|-------------------------------------------------|
|--0-----0-----0-----0-----0-----0-----0-----0----|


  A5                C5
   S  S  S  S  S  E     E  S  S  S  S  S   S   S
|-------------15-------------------15-----15------|
|----------17----17-------------17----17------17--|
|-------17-------------17----17-------------------|
|----17-------------------17----------------------|
|-15----------------------------------------------|
|-------------------------------------------------|
|
|              PM
|  Q           E     H                    +E
|-------------------------------------------------|
|-------------------------------------------------|
|-------------------------------------------------|
|--7----------------10-------------------(10)-----|
|--7----------------10-------------------(10)-----|
|--5-----------5-----8--------------------(8)-----|


    S   S  S  S  S  S  S  S  S  S  S  S  S  S  S  S
|--15--20-15----24-20-15----15-20-15----15-------19b20-|
|------------17----------17----------17----17S19-------|
|------------------------------------------------------|
|------------------------------------------------------|
|------------------------------------------------------|
|------------------------------------------------------|
|
|  +W
|------------------------------------------------------|
|------------------------------------------------------|
|------------------------------------------------------|
|-(10)-------------------------------------------------|
|-(10)-------------------------------------------------|
|--(8)-------------------------------------------------|


  E5
   S  S  S  S  S  S  S  S  S  S  S  S  S  S  S  S
|-17-15-14-15-14-12-------------------------------|
|-------------------15-13-12----------------------|
|----------------------------14-12-11-------------|
|-------------------------------------14-12-10----|
|----------------------------------------------14-|
|-------------------------------------------------|
|
|  S  S  S  S  S  S  S  S  S  S  E     S  S  S  S
|-------------------------------------------------|
|-------------------------------------------------|
|-------------------------------------------------|
|-------------------------------------------------|
|--7-----7-----7-----7-----7-----------2-----2----|
|--0-----0-----0-----0-----0-----------0-----0----|


                                   Interlude
                                    A5 C5     D5         G5   Bb5
                                   2/4       4/4
            ~~
   S  S  S  H          +Q    +S     Q  Q      W          H    H
|--------------------------------||-------||-----------|-----------|
|--------------------------------||-------||o----------|-----------|
|--------------------------------||----5--||--7--------|-----------|
|--------------------------------||-2--5--||--7--------|-5----8----|
|-12-10--------------------------||-0--3--||o-5--------|-----------|
|-------14-12---------(12)--(12)-||-------||-----------|-----------|
|
|  S  S  S  S S S E H               Q  Q      W          H    H
|--------------------------------||-------||-----------|-----------|
|--------------------------------||-------||o----------|-----------|
|--------------------------------||----5--||--7--------|-----------|
|--------------------------------||-2--5--||--7--------|-5----8----|
|--2-----2----2------------------||-0--3--||o-5--------|-5----8----|
|--0-----0----0------------------||-------||-----------|-----------|


  N.C.                                        D5
                                              \4__________________________|
  E E E E E  E E  E   E  E E  E E  E E  E     W            +H     +Q..   +S
|-------------------|----------------------||------------|-------------------|
|-------------------|---------------------o||------------|-------------------|
|-------------------|----------------------||-2----------|-(2)----(2)----(2)-|
|-------------------|----------------------||------------|-------------------|
|-8-5-8-5-----------|-8--5-8--5-----------o||------------|-------------------|
|---------8--5-8--5-|-----------8--5-8--5--||------------|-------------------|
|
|                                             \4__________________________|
| H       E  E E  E   E  E E  E E  E E  E     W            +H     +Q..   +S
|-------------------|----------------------||------------|-------------------|
|-------------------|---------------------o||------------|-------------------|
|-------------------|----------------------||------------|-------------------|
|-7-----------------|-7-10-7-10------------||-0----------|-(0)----(0)----(0)-|
|-5-------7-10-7-10-|-----------7-10-7-10-o||------------|-------------------|
|-------------------|----------------------||------------|-------------------|


  N.C.
   E  E  E  E E  E E  E    E  E  E  E  E  E  E  E
|-----------------------|-------------------------|
|-----------------------|-------------------------|
|-10--7-10--7-9--5-9--5-|-14-10-14-10-12--9-12--9-|
|-----------------------|-------------------------|
|-----------------------|-------------------------|
|-----------------------|-------------------------|
|
|  E  E  E  E E  E E  E    E  E  E  E  E  E  E  E
|-----------------------|-------------------------|
|-----------------------|-10-13-10-13--8-13--8-13-|
|-10-14-10-14-9-12-9-12-|-------------------------|
|-----------------------|-------------------------|
|-----------------------|-------------------------|
|-----------------------|-------------------------|


   E  E  E  E E  E E  E    E  E  E  E  E  E  E  E
|-----------------------|-------------------------|
|-----------------------|-------------------------|
|-10--7-10--7-9--5-9--5-|-14-10-14-10-12--9-12--9-|
|-----------------------|-------------------------|
|-----------------------|-------------------------|
|-----------------------|-------------------------|
|
|  E  E  E  E E  E E  E    E  E  E  E  E  E  E  E
|-----------------------|-------------------------|
|-----------------------|-10-13-10-13--8-13--8-13-|
|-10-14-10-14-9-12-9-12-|-------------------------|
|-----------------------|-------------------------|
|-----------------------|-------------------------|
|-----------------------|-------------------------|


   E  E  E  E E  E E  E    E  E  E  E  E  E  E  E
|-----------------------|-------------------------|
|-----------------------|-------------------------|
|-10--7-10--7-9--5-9--5-|-14-10-14-10-12--9-12--9-|
|-----------------------|-------------------------|
|-----------------------|-------------------------|
|-----------------------|-------------------------|
|
|  E  E  E  E E  E E  E    E  E  E  E  E  E  E  E
|-----------------------|-------------------------|
|-----------------------|-10-13-10-13--8-13--8-13-|
|-10-14-10-14-9-12-9-12-|-------------------------|
|-----------------------|-------------------------|
|-----------------------|-------------------------|
|-----------------------|-------------------------|


   E  E  E  E E  E E  E    E  E  E  E  E  E  E  E
|-----------------------|-------------------------|
|-----------------------|-------------------------|
|-10--7-10--7-9--5-9--5-|-14-10-14-10-12--9-12--9-|
|-----------------------|-------------------------|
|-----------------------|-------------------------|
|-----------------------|-------------------------|
|
|  E  E  E  E E  E E  E    E  E  E  E  E  E  E  E
|-----------------------|-------------------------|
|-----------------------|-10-13-10-13--8-13--8-13-|
|-10-14-10-14-9-12-9-12-|-------------------------|
|-----------------------|-------------------------|
|-----------------------|-------------------------|
|-----------------------|-------------------------|


   E  E  E  E  E  E  E  E    E  E  E  E  E  E  E  E
|-------------------------|-------------------------|
|-------------------------|-------------------------|
|-12--9-12--9-11--7-11--7-|-16-12-16-12-14-11-14-11-|
|-------------------------|-------------------------|
|-------------------------|-------------------------|
|-------------------------|-------------------------|
|
|  E  E  E  E  E  E  E  E    E  E  E  E  E  E  E  E
|-------------------------|-------------------------|
|-------------------------|-12-15-12-15-10-15-10-15-|
|-12-16-12-16-11-14-11-14-|-------------------------|
|-------------------------|-------------------------|
|-------------------------|-------------------------|
|-------------------------|-------------------------|


   E  E  E  E  E  E  E  E    E  E  E  E  E  E  E  E
|-------------------------|-------------------------|
|-------------------------|-------------------------|
|-12--9-12--9-11--7-11--7-|-16-12-16-12-14-11-14-11-|
|-------------------------|-------------------------|
|-------------------------|-------------------------|
|-------------------------|-------------------------|
|
|  E  E  E  E  E  E  E  E    E  E  E  E  E  E  E  E
|-------------------------|-------------------------|
|-------------------------|-12-15-12-15-10-15-10-15-|
|-12-16-12-16-11-14-11-14-|-------------------------|
|-------------------------|-------------------------|
|-------------------------|-------------------------|
|-------------------------|-------------------------|


  N.C.
   E  E  E  E  E  E  E  E    E  E  E  E  E  E  E  E
|-------------------------|-------------------------|
|-------------------------|-------------------------|
|-12--9-12--9-11--7-11--7-|-16-12-16-12-14-11-14-11-|
|-------------------------|-------------------------|
|-------------------------|-------------------------|
|-------------------------|-------------------------|
|
|  E  E  E  E  E  E  E  E    E  E  E  E  E  E  E  E
|-------------------------|-------------------------|
|-------------------------|-12-15-12-15-10-15-10-15-|
|-12-16-12-16-11-14-11-14-|-------------------------|
|-------------------------|-------------------------|
|-------------------------|-------------------------|
|-------------------------|-------------------------|


   E  E  E  E  E  E  E  E    E  E  E  E  E  E  E  E
|-------------------------|-------------------------||
|-------------------------|-------------------------||
|-12--9-12--9-11--7-11--7-|-16-12-16-12-14-11-14-11-||
|-------------------------|-------------------------||
|-------------------------|-------------------------||
|-------------------------|-------------------------||
|
|  E  E  E  E  E  E  E  E    E  E  E  E  E  E  E  E
|-------------------------|-------------------------||
|-------------------------|-12-15-12-15-10-15-10-15-||
|-12-16-12-16-11-14-11-14-|-------------------------||
|-------------------------|-------------------------||
|-------------------------|-------------------------||
|-------------------------|-------------------------||


 Outro
  E5
  Gtrs I, II
  PM--------------------------------------------------------|   PM
  E E E E Q  E E   E E Q  E E E E   E E E E Q  E E   E E Q  E E E E
|----------------|----------------|----------------|----------------|
|----------------|----------------|----------------|----------------|
|----------------|----------------|----------------|----------------|
|----------------|----------------|----------------|----------------|
|-2-2-2------2-2-|-2------2-2-2-2-|-2-2-2------2---|-2------2---2---|
|-0-0-0------0-0-|-0------0-0-0-0-|-0-0-0------0---|-0------0---0---|


  PM------------------------------------------------------|
  E E E E Q  E E   E E Q  E E E E   E E E E E E E E   E E E E H
|----------------|----------------|-----------------|--------------*|
|----------------|----------------|-----------------|--------------*|
|----------------|----------------|-----------------|--------------*|
|----------------|----------------|-----------------|--------------*|
|-2-2-2------2-2-|-2------2---2---|-7-7-7-7-7---2-2-|-2-2-2--------*|
|-0-0-0------0-0-|-0------0---0---|-0-0-0-0-0---0-0-|-0-0-0--------*|


Duration Legend
---------------
W - whole; H - half; Q - quarter; E - 8th; S - 16th; T - 32nd; X - 64th; a - acciaccatura
+ - note tied to previous; . - note dotted; .. - note double dotted
Uncapitalized letters represent notes that are staccato (1/2 duration)
Irregular groupings are notated above the duration line
Duration letters will always appear directly above the note/fret number it represents the
duration for.  Duration letters with no fret number below them represent rests.  Multi-
bar rests are notated in the form Wxn, where n is the number of bars to rest for.  Low
melody durations appear below the staff

Tablature Legend
----------------
 h   - hammer-on
 p   - pull-off
 b   - bend
 pb  - pre-bend
 r   - bend release (if no number after the r, then release immediately)
 /\  - slide into or out of (from/to "nowhere")
 s   - legato slide
 S   - shift slide
  - natural harmonic
[n]  - artificial harmonic
n(n) - tapped harmonic
 ~   - vibrato
 tr  - trill
 T   - tap
 TP  - trem. picking
 PM  - palm muting
\n/  - tremolo bar dip; n = amount to dip
 \n  - tremolo bar down
 n/  - tremolo bar up
/n\  - tremolo bar inverted dip
 =   - hold bend; also acts as connecting device for hammers/pulls
 <>  - volume swell (louder/softer)
 x   - on rhythm slash represents muted slash
 o   - on rhythm slash represents single note slash

Misc Legend
-----------
 |  - bar
||  - double bar
||o - repeat start
o|| - repeat end
*|  - double bar (ending)
 :  - bar (freetime)
 $  - Segno
 &  - Coda
Tempo markers -  = BPM(8/16=s8/s16), where s8 = swing 8ths, s16 = swing 16ths

comments
print report bad tab
5 comments total. Showing first comments.
0 reply
pHaKe wrote on June 6 2006, 05:15 pm

sorry, this is the wrong song, this is the tab for Taste of My Scythe

0 reply
pHaKe wrote on June 12 2006, 10:09 am

nvm, my computers ****ed up

0 reply
sam b wrote on December 13 2006, 07:31 am

no... im pretty sure this is hate me!

I want to post or [tab]
guest
You may want to rate the tab now too:
select rating
Please do not post tabs as comments. Select "correction" instead!