Oops, an error
Loading. Please wait.

Hatebreeder Tab

ver1
ver1

Album

Whole song

More versions @911Tabs.com
12,617 views 6 this week
6 commentsread comments
1 2 3 4 5
accurate
x 4
Autoscroll
+/-
esc
set tempo
stop
Contributor
WARNING: You are trying to view
                                    content from Ultimate-Guitar.com
                                    in an unauthorized application,
                                    which is prohibited.

                                    Please use an official Ultimate
                                    Guitar Tabs application for iPhone,
                                    iPad or Android to access legitimate
                                    chords, guitar, bass, and drum tabs
                                    from Ultimate-Guitar.com database.

                                    Type "ultimate guitar tabs" in Apple
                                    App Store's or Android Market's
                                    search to find the application.
Children of Bodom 
Hatebreeder album
By Kevin Cruz (Kevin666)

WARNING: IF THERE'S ANY PROBLEMS READING THIS PAGE,
         CHECK THE TABS INDIVIDUALY. 

1.Warheart                  | Juha-Matti Kallinen
2.Silent night, Bodom Night | Juha-Matti Kallinen
3.Hatebreeder (ver 2)       | Funeralforafriend
4.Bed of razors (Ver 2)     | Juha-Matti Kallinen
5.Towards dead end          | Juha-Matti Kallinen
6.Black Widow               | SolidMetal
7.Wrath Within (Solo)       | death_50@hotmail.com
8.Children of Bodom         | Juha-Matti Kallinen
9.Downfall (Ver 2 & Solo)   | Kevin666

----------------------------------------------------
1. Warheart

Tune down one whole step

4/4 time, 180 bpm


|-------------|---------------|-------------|----------------|
|-------------|---------------|-------------|----------------|
|-------------|---------------|-------------|----------5---7-|
|-2-----------|---------5---0-|-2-----------|----------5---7-|
|-2-----------|---------5---0-|-2-----------|----------3---5-|
|-0-----------|---------3-----|-0-----------|----------------|


  16th-note trem.
|---------------|---------------|---------------|-----------------|
|-12------------|-12----15--13--|-12------------|-12---13---------|
|-------14--12--|---------------|-------14--12--|---------14------|
|---------------|---------------|---------------|-----------------|
|---------------|---------------|---------------|-----------------|
|---------------|---------------|---------------|-----------------|
|
|---------------|---------------|---------------|-----------------|
|---------------|---------------|---------------|-----------------|
|-9-----7-------|-9-----5-------|-9-----7-------|-12------7-------|
|-9-----7-------|-9-----5-------|-7-----7-------|-12------7-------|
|-7-----5-------|-7-----3-------|-7-----5-------|-10------5-------|
|---------------|---------------|---------------|-----------------|

|-------------|-------------|------------------|--------------|
|-------------|-------------|------------------|-----/x\------|
|-------------|-------------|-12p9--12p9--12p9-|-12-----------|
|-------------|-------------|------------------|--------------|
|-------------|-------------|------------------|--------------|
|-------------|-------------|------------------|--------------|
|
|-------------|-------------|------------------|--------------|
|-8-----------|-8-----------|-8----------------|-8------------|
|-9-----------|-8-----------|-9----------------|-8------------|
|-9-----------|-8-----------|-9----------------|-8------------|
|-7-----------|-6-----------|-7----------------|-6------------|
|-------------|-------------|------------------|--------------|

|---------------|---------------|---------------|-------------------|
|-12------------|-12----15--13--|-12------------|-12---13-----------|
|-------14--12--|---------------|-------14--12--|---------14--------|
|---------------|---------------|---------------|-------------------|
|---------------|---------------|---------------|-------------------|
|---------------|---------------|---------------|-------------------|
|
|---------------|---------------|---------------|-------------------|
|---------------|---------------|---------------|--------------7-10-|
|-9-----7-------|-9-----5-------|-9-----7-------|-------4----7------|
|-9-----7-------|-9-----5-------|-7-----7-------|-----5----7--------|
|-7-----5-------|-7-----3-------|-7-----5-------|---5---------------|
|---------------|---------------|---------------|-3-----------------|

                                                 big vibe w/bar
|-------------|-------------|------------------|--------------|
|-------------|-------------|------------------|-----/x\------|
|-------------|-------------|-12p9--12p9--12p9-|-12-----------|
|-------------|-------------|------------------|--------------|
|-------------|-------------|------------------|--------------|
|-------------|-------------|------------------|--------------|
|
|-------------|-------------|------------------|--------------|
|-8-----------|-8-----------|-8----------------|-8------------|
|-9-----------|-8-----------|-9----------------|-8------------|
|-9-----------|-8-----------|-9----------------|-8------------|
|-7-----------|-6-----------|-7----------------|-6------------|
|-------------|-------------|------------------|--------------|


|------------------|----------------|
|------------------|----------------|
|-9-----7-9-----12-|-9------10------|
|-9-----7-9-----12-|-9------10------|
|-7-----5-7-----10-|-7------8-------|
|---0-0-----0-0----|----------------|

Riff A
|-------------|-------------|-------------|------------------|
|-------------|-------------|-------------|------------------|
|-9-----------|-12----8-----|-9-----------|-14--11--8--------|
|-------------|-------------|-------------|-------------10---|
|-------------|-------------|-------------|------------------|
|-------------|-------------|-------------|------------------|
|
|-------------|-------------|-------------|------------------|
|-------------|-------------|-------------|------------------|
|-9-----------|-12----5-----|-9-----------|------------------|
|-9-----------|-12----5-----|-9-----------|-----7777---------|
|-7------7777-|-10----3-----|-7-----------|-9999----66669999-|
|-------------|-------------|-------------|------------------|


|-------------|-------------|-------------|-----------------|
|-------------|-------------|-------------|-----------------|
|-9-----------|-12----8-----|-9-----------|-9---8---12--11--|
|-------------|-------------|-------------|-----------------|
|-------------|-------------|-------------|-----------------|
|-------------|-------------|-------------|-----------------|
|
|-------------|-------------|-------------|-----------------|
|-------------|-------------|-------------|-----------------|
|-9-----------|-12----5-----|-9-----------|-----------------|
|-9-----------|-12----5-----|-9-----------|-----------------|
|-7------7777-|-10----3-----|-7-----------|-777-666---------|
|-------------|-------------|-------------|---------888-555-|


|-------------|-------------|----------------|----------------------|
|-------------|-------------|------------10--|-12--10h12p10---------|
|-9-----------|-12----7-----|-9--11--12------|--------------12--11--|
|-------------|-------------|----------------|----------------------|
|-------------|-------------|----------------|----------------------|
|-------------|-------------|----------------|----------------------|
|
|-------------|-------------|----------------|----------------------|
|-------------|-------------|----------------|----------------------|
|-9-----------|-12----7-----|-9--------------|-9------------12--7---|
|-9-----------|-12----7-----|-9--------------|-9---10-------12--7---|
|-7------7777-|-10----5-----|-7--------------|-7---10-------10--5---|
|-------------|-------------|----------------|-----8----------------|


|-------------|-------------|-------------|--------------|
|-------------|-------------|-------------|--------------|
|-9-----------|-12---7------|-------------|-9--8--12-11--|
|-------------|-------------|----7--9--10-|--------------|
|-------------|-------------|-10----------|--------------|
|-------------|-------------|-------------|--------------|
|
|-------------|-------------|-------------|--------------|
|-------------|-------------|-------------|--------------|
|-9-----------|-12----7-----|-------------|-9-----4------|
|-9-----------|-12----7-----|-----------7-|-9-----4------|
|-7------7777-|-10----5-----|-7--9--10----|-7-----2------|
|-------------|-------------|-------------|--------------|

Riff B
|----------------------|-------------------|----------------------|------------|
|----------------------|-------------------|----------------------|------------|
|-9----------8---------|-9---------8-------|-9---------8----------|-9----9--8--|
|-------11--------9----|------11-------9---|------11--------9-----|---11-------|
|----------------------|-------------------|----------------------|------------|
|----------------------|-------------------|----------------------|------------|
|
|----------------------|-------------------|----------------------|------------|
|----------------------|-------------------|----------------------|------------|
|-6--------------------|-----------4---4---|-6--------------------|-6-2-----4--|
|-6--------------------|-----------4---4---|-6--------------------|-6-2--2--4--|
|-4--44-4444-4444-4444-|-4444-4444-2---2---|-4--44-4444-4444-4444-|-4-0--2--2--|
|----------------------|-------------------|----------------------|------0-----|


|----------------------|-------------------|----------------------|------------|
|----------------------|-------------------|----------------------|------9-----|
|-9----------8---------|-9---------8-------|-9---------8----------|-9-------11-|
|-------11--------9----|------11-------9---|------11--------9-----|---11-------|
|----------------------|-------------------|----------------------|------------|
|----------------------|-------------------|----------------------|------------|
|
|----------------------|-------------------|----------------------|------------|
|----------------------|-------------------|----------------------|------------|
|-6--------------------|-----------4---4---|-6--------------------|-6-2-----4--|
|-6--------------------|-----------4---4---|-6--------------------|-6-2--2--4--|
|-4--44-4444-4444-4444-|-4444-4444-2---2---|-4--44-4444-4444-4444-|-4-0--2--2--|
|----------------------|-------------------|----------------------|------0-----|

 Riff C                                                 (3 guitars)
|------------------|-----------------|-----------------|--------------------|
|------------------|-----------------|-----------------|-11-----------------|
|*-11------10------|-11------10------|-11------10------|-11--11--13/10-10--*|
|*-----13------11--|-----13------11--|-----13------11--|-----13--------11--*|
|--666-666---------|-666-666---------|-666-666---------|-999-999-444---444--|
|----------666-666-|---------666-666-|---------666-666-|--------------------|


|------------------|
|------------------|
|-8--------2-------|
|-8--------2-------|
|-6--------0-------|
|------------------|


|-------------|-------------|-------------|------------------|
|-------------|-------------|-------------|------------------|
|-9-----------|-12----8-----|-9-----------|-14--11--8--------|
|-------------|-------------|-------------|-------------10---|
|-------------|-------------|-------------|------------------|
|-------------|-------------|-------------|------------------|
|
|-------------|-------------|-------------|------------------|
|-------------|-------------|-------------|------------------|
|-9-----------|-12----5-----|-9-----------|------------------|
|-9-----------|-12----5-----|-9-----------|---7-------7------|
|-7------7777-|-10----3-----|-7-----------|-9-----6-9---6-9--|
|-------------|-------------|-------------|-----8------------|


|-------------|-------------|-------------|---------------------|
|-------------|-------------|-------------|-13-12-10------------|
|-9-----------|-12----8-----|-9-----------|---------12-11-9-8-9-|
|-------------|-------------|-------------|---------------------|
|-------------|-------------|-------------|---------------------|
|-------------|-------------|-------------|---------------------|
|
|-------------|-------------|-------------|---------------------|
|-------------|-------------|-------------|---------------------|
|-9-----------|-12----5-----|-9-----------|---------------------|
|-9-----------|-12----5-----|-9-----------|---------------------|
|-7------7777-|-10----3-----|-7-----------|---------------------|
|-------------|-------------|-------------|-/x\-----------------|


|----------|---------------------|----------|-------------------------|
|----------|---------------------|----------|-14----14-17-16-------16-|
|-11-------|-14---13b(14)r13-----|-11-------|----14----------16-------|
|----------|------------------14-|----------|-------------------16----|
|----------|---------------------|----------|-------------------------|
|----------|---------------------|----------|-------------------------|
|
|----------|---------------------|----------|-------------------------|
|----------|---------------------|----------|-------------------------|
|----------|-2-------------------|----------|-2-----------4-----------|
|-4--------|-2------------2------|-4--------|-2--2--2--2--4--4--4--4--|
|-4--------|-0------------2------|-4--------|-0--0--0--0--2--2--2--2--|
|-2--------|--------------0------|-2--------|-------------------------|

 lead doubled a third below                        (kbrd effect)
|----------|---------------------|-19b(21)--------|----------------|
|-17-------|-21---19b(21)r19-----|----------------|----------------|
|----------|------------------18-|----------------|----------------|
|----------|---------------------|----------------|----------------|
|----------|---------------------|----------------|----------------|
|----------|---------------------|----------------|----------------|
|
|----------|---------------------|----------------|----------------|
|----------|---------------------|----------------|----------------|
|-6--------|-9-----------4-------|-6--------------|-6--------------|
|-6--------|-9-----------4-------|-6--------------|-6--------------|
|-4--------|-7-----------2-------|-4------444-444-|-4--------------|
|----------|---------------------|----------------|----------------|

                                               1.(3 guitars)
|---------------|--------------|--------------|--------------|
|---------------|--------------|--------------|-9------------|
|*-9-----8------|-9-----8------|-9-----8------|-9--9--11-8--*|
|*----11----9---|----11----9---|----11----9---|----11-13-9--*|
|---------------|--------------|--------------|--------------|
|---------------|--------------|--------------|--------------|
|
|---------------|--------------|--------------|--------------|
|---------------|--------------|--------------|--------------|
|*-6------------|-6------------|-6------------|-9-----4-----*|
|*-6-----6------|-6-----6------|-6-----6------|-9-----4-----*|
|--4-----6------|-4-----6------|-4-----6------|-7-----2------|
|--------4------|-------4------|-------4------|--------------|

  2.(leads as in first ending)
  rhythm part
|-------------|
|-------------|
|-9-----4--7--|
|-9-----4--7--|
|-7-----2--5--|
|-------------|

Riff D (6 bars)
   E5                D5                 B5                C5       D5
|-------------15-19-17p14------------|-------------10-14-15-14-12---------|
|----------17-------------15---------|----------12----------------15------|
|-------16-------------------14------|-------11---------------------------|
|----17------------------------------|----12------------------------------|
|-19---------------------------------|-14---------------------------------|
|------------------------------------|------------------------------------|

  E5                D5                 A5                C5       D5
|-------------15-19-17p14------------|-------------9--12-15-14-12---------|
|----------17-------------15---------|----------10----------------15------|
|-------16-------------------14------|-------9----------------------------|
|----17------------------------------|----11------------------------------|
|-19---------------------------------|-12---------------------------------|
|------------------------------------|------------------------------------|

E5                D5                 B5                C5       D5
|-------------15-19-17p14------------|-------------10-14-15-14-12---------|
|----------17-------------15---------|----------12----------------15------|
|-------16-------------------14------|-------11---------------------------|
|----17------------------------------|----12------------------------------|
|-19---------------------------------|-14---------------------------------|
|------------------------------------|------------------------------------|

  D5                F5
|-------------13-17-20--17-----------|---------------------------|
|----------15---------------17-------|---------------------------|
|-------14----------------------17---|----------5----------------|
|----15-------------3---3---3---3----|-3--2-----5----------------|
|-17----------------3---3---3---3----|-------5--3----------------|
|-------------------1---3---1---1----|---------------------------|


|-----------------|--------------------|--------------------|----------------|
|-----------------|--------------------|--------------------|----------------|
|*-7------7-------|-3----------5----7--|-------7--5-s7----5-|------3--------*|
|*-7------7-------|-3----------5----7--|-------7--5-s7----5-|------3--------*|
|--5--555-5-------|-1-------3--3----5--|----55-5--3-s5----3-|------1---------|
|-----------------|---------1----------|--------------------|----------------|


|---------------------|---------------------|
|---------------------|---------------------|
|---------------------|---------------------|
|---------------------|---------------------|
|----5-55-5---5-55-5--|----5-55-5---5-55-5--|
|---------------------|---------------------|

Solo
  E5                                    D5        bar dive and raise
|-----------------|----------12----12-|-14--------14a26--|------------12\-|
|-----------------|-10s12-------------|------------------|----------------|
|-9---------------|-------------------|------------------|----------------|
|-----------------|-------------------|------------------|----------------|
|-----------------|-------------------|------------------|----------------|
|-----------------|-------------------|------------------|----------------|

  C5                                    A5
|-14--15p14p12----12--14---15---17---|-19-----gb(19)r17--/20----20-|
|--------------15--------------------|-----------------------------|
|------------------------------------|-----------------------------|
|------------------------------------|-----------------------------|
|------------------------------------|-----------------------------|
|------------------------------------|-----------------------------|

  B5
|-19-17-15----------------------------------------|
|----------19-17-16-17-19-17-15-------------------|
|-------------------------------16-17-16-14-------|
|-------------------------------------------17-16-|
|-------------------------------------------------|
|-------------------------------------------------|


|-------------------------------------------------|
|-------------15----------------------------------|
|----14-16-17----17-16-14-------------------------|
|-17----------------------17-16-14----------------|
|----------------------------------17-15-13-------|
|-------------------------------------------17-15-|

  E5
|-------------------------------------------------|
|-------------------------------------------------|
|----------------------16-21p16----------------14-|
|-------------------17----------17----------17----|
|-------------14h19----------------19-14h19-------|
|-0--h12-h15--------------------------------------|

                                       D5(/F#) (doubled a third higher)
|------------------------------------|----------------------------|
|------------------------------------|----------------------------|
|-17-16-17-19-17-19-19b(21)--19b(21)-|---\------------------------|
|------------------------------------|-------------------------9--|
|------------------------------------|--------------9--10--12-----|
|------------------------------------|----------------------------|

                             C5(/G)
|--------------------------|-------------------------12--14--15--|
|----------------10-12-13--|-12h13p12----12--13--15--------------|
|-------9--11-12-----------|----------14-------------------------|
|-10-12--------------------|-------------------------------------|
|--------------------------|-------------------------------------|
|--------------------------|-------------------------------------|

  A5                                    B5 bar dives
|-17-15-14----------19-17-15----------|---------------|--------------|
|----------17-15-13----------19-17-15-|-a16------0----|--a16---------|
|-------------------------------------|---------------|--------------|
|-------------------------------------|---------------|--------------|
|-------------------------------------|---------------|--------------|
|-------------------------------------|---------------|--------------|

  E5    w/bar fluttering
|-/19----22-/19----22--|-/19------------------22b(24)-------|
|----------------------|-------22b(24)r22-20----------------|
|----------------------|---------------------------------16-|
|----------------------|------------------------------------|
|----------------------|------------------------------------|
|----------------------|------------------------------------|

  G5
|------------------------------------------------|
|------------------------------------------------|
|-19p16----------16-19p16----------16-19-p16-----|
|-------17p16-17----------17p16-17------------17-|
|------------------------------------------------|
|------------------------------------------------|

  B5         E5         B/D#       /F#
|-----------------------14h17p14---19\---|
|-16h19p16---17h20p17--------------------|
|----------------------------------------|
|----------------------------------------|
|----------------------------------------|
|----------------------------------------|

  E5
|-15-12-14-15-17-14-15-17-19-15-17-19-20-19-17----|
|----------------------------------------------20-|
|-------------------------------------------------|
|-------------------------------------------------|
|-------------------------------------------------|
|-------------------------------------------------|


|-------19-17-------------------------------------|
|-19-17-------20-19-17----------------------------|
|----------------------19-17-16-------------------|
|-------------------------------19-17-16----------|
|----------------------------------------19-17-15-|
|-------------------------------------------------|

  Bb5
|----------------------------------------------15-|
|-------------------------------------15-17-18----|
|----------------------------14-15-17-------------|
|----------14-15-17-14-15-17----------------------|
|-13-15-17----------------------------------------|
|-------------------------------------------------|


|----------/18\------/22\---|(-/24\)
|-18\-----------------------|
|---------------------------|
|---------------------------|
|---------------------------|
|---------------------------|


|-------------|---------------|-------------|----------------|
|-------------|---------------|-------------|----------------|
|-------------|---------------|-------------|----------7---7-|
|-2-----------|---------5---0-|-2-----------|----------7---7-|
|-2-----------|---------5---0-|-2-----------|----------5---5-|
|-0-----------|---------3-----|-0-----------|----------------|


Riff A (repeat 1st verse)

Riff B

Riff C (play 5th chords instead of muted triplets)


|-------------|-------------|
|-------------|-------------|
|-8-----------|-------5--7--|
|-8-----------|-------5--7--|
|-6-----------|-------3--5--|
|-------------|-------------|

Riff D

D5                F5
|-------------13-17-20--17-----------|-15b(17)r15-------------|------|------|
|----------15---------------17-------|-------------18-17------|------|------|
|-------14----------------------17---|----------------5-------|------|------|
|----15-------------3---3---3---3----|-3--2-----------5-------|------|------|
|-17----------------3---3---3---3----|-------------5--3-------|------|------|
|-------------------1---3---1---1----|------------------------|------|------|



|-----------------|--------------------|--------------------|---------------|
|-----------------|--------------------|--------------------|---------------|
|*-7------7-------|-3----------5----7--|-------7--5-s7----5-|------3-------*|
|*-7------7-------|-3----------5----7--|-------7--5-s7----5-|------3-------*|
|--5--555-5-------|-1-------3--3----5--|----55-5--3-s5----3-|------1--------|
|-----------------|---------1----------|--------------------|---------------|

                                                              1.
|-----------------|--------------------|--------------------|---------------|
|-----------------|--------------------|--------------------|---------------|
|*----------------|--------------------|--------------------|---------------|
|*-5--------------|-2------2--4----5---|-------5--4-s5----4-|--5-4-2--------|
|-----------------|--------------------|--------------------|---------------|
|-----------------|--------------------|--------------------|---------------|

|-----------------|--------------------|--------------------|---------------|
|-----------------|--------------------|--------------------|---------------|
|*-9------9-------|-5----------7----9--|-------9--7-s9----7-|------5-------*|
|*-9------9-------|-5----------7----9--|-------9--7-s9----7-|------5-------*|
|--7--777-7-------|-3-------5--5----7--|----77-7--5-s7----5-|------3--------|
|-----------------|---------3----------|--------------------|---------------|

  2.
|-----------------|-----------------|-------------------|
|-----------------|-----------------|-------------------|
|-----------------|-----------------|-------------------|
|---5-4-2---4-5-4-|---5-4-2---4-5-2-|-------------------|
|-----------------|-----------------|-------------------|
|-----------------|-----------------|---0-00-0---0-00-0-|
|
|-----------------|-----------------|-------------------|
|-----------------|-----------------|-------------------|
|-------5-------7-|-------5---------|-------------------|
|-------5-------7-|-------5---------|-------------------|
|-------3-------5-|-------3---------|-------------------|
|-----------------|---------------0-|---0-00-0---0-00-0-|

-------------------------------------------------------------

2. Silent Night, Bodom Night

Tune down one whole step

4/4 time, 215 bpm
Triplet feel

  Riff A (2 guitars, 8 bars)
|-----------------|-----------------|-----------------|-----------------|
|-----------------|-----------------|-----------------|-----------------|
|-----------------|-----------------|-----------------|-----------------|
|-222-222-222-222-|-2-------5---4---|-5---2---4-------|-2---------------|
|-----------------|-----2-----------|-------------5---|-----------------|
|-----------------|-----------------|-----------------|-----------------|
|
|-----------------|-----------------|-----------------|-----------------|
|-----------------|-----------------|-----------------|-----------------|
|-----------------|-----------------|-----------------|-----------------|
|-----------------|---------12--11--|-9-------7-------|-9---------------|
|-777-777-777-777-|-777-777-10--9---|-7-------5-------|-7---------------|
|-----------------|-----------------|-----------------|-----------------|


|-----------------|-----------------|------------------------|--------------|
|-----------------|-----------------|-10b(12)r10----8--------|--------------|
|-----------------|---------9--11---|-------------------11---|-9------------|
|-222-222-222-222-|-2---9-----------|------------------------|--------------|
|-----------------|-----------------|------------------------|--------------|
|-----------------|-----------------|------------------------|--------------|
|
|-----------------|-----------------|------------------------|--------------|
|-----------------|-----------------|------------------------|--------------|
|-----------------|-----------------|------------------------|--------------|
|-----------------|---------9---7---|------------------------|-9------------|
|-777-777-777-777-|-777-777-7---5---|-3------------------5---|-7------------|
|-----------------|-----------------|----------3-----7-------|--------------|

   (2 lead guitars)                      (in unison)             (in voices)
|--3-0-0-0-0-0-5-0-0-0-0-0-|-7-0-0-0-0-0-----------|-------------|-------0-|
|--5-0-0-0-0-0-7-0-0-0-0-0-|-8-0-0-0-0-0-7----10---|-8-----7-----|-8-----0-|
|*-------------------------|-----------------------|----9-----7--|-9-------|
|*-------------------------|-----------------------|-------------|---------|
|--------------------------|-----------------------|-------------|---------|
|--------------------------|-----------------------|-------------|---------|
|
|--------------------------|-----------------------|-------------|---------|
|--------------------------|-----------------------|-------------|---------|
|*-------------------------|-----------------------|-------------|---------|
|*-------------------------|-------------12---11---|-9-----7-----|-9-------|
|--7-7-7-7-7-7-7-7-7-7-7-7-|-7-7-7-7-7-7-10---9----|-7-----5-----|-7-------|
|--------------------------|-----------------------|-------------|---------|

                                                    1.
|-3-0-0-0-0-0-5-0-0-0-0-0-|-7-0-0-0-0-0-----------|----------10-|-10b(12)~0-|
|-5-0-0-0-0-0-7-0-0-0-0-0-|-8-0-0-0-0-0-7----10---|-8-----7-----|---------0-|
|-------------------------|-----------------------|----9-----7--|-9--------*|
|-------------------------|-----------------------|-------------|----------*|
|-------------------------|-----------------------|-------------|-----------|
|-------------------------|-----------------------|-------------|-----------|
|
|-------------------------|-----------------------|-------------|-----------|
|-------------------------|-----------------------|-------------|-----------|
|-------------------------|-----------------------|-------------|----------*|
|-------------------------|-------------9----7----|-5-----7-----|-9--------*|
|-7-7-7-7-7-7-7-7-7-7-7-7-|-7-7-7-7-7-7-7----5----|-3-----5-----|-7---------|
|-------------------------|-----------------------|-------------|-----------|

  2.
|----------/15-|-12~--------|
|-8-----7------|------------|
|----9------7--|-9----------|
|--------------|------------|
|--------------|------------|
|--------------|------------|
|
|--------------|------------|
|--------------|------------|
|--------------|------------|
|-5-----7------|-9----------|
|-3-----5------|-7----------|
|--------------|------------|

Verse
Riff A 1 1/2 times (=12 bars)


|-----------------|-----------------|-------------|------------|
|-----------------|-----------------|-------------|------------|
|-----------------|-----------------|-------------|------------|
|-----------------|-----------------|-2--2--2--2--|-2--2-------|
|-777-777-777-777-|-777-777-777-777-|-2--2--2--2--|-2--2-------|
|-----------------|-----------------|-0--0--0--0--|-0--0-------|


|--------------|---------------------|-------------|-------------|
|--------------|---------------------|-------------|-------------|
|--------------|---------------------|-------------|-------------|
|--------------|---------------------|-------------|-------------|
|-10-----------|-10---9b(10)r9---7---|-6-----------|----6--7--9--|
|--------------|---------------------|-------------|-7-----------|
|
|--------------|---------------------|-------------|-------------|
|--------------|---------------------|-------------|-------------|
|--------------|---------------------|-------------|-------------|
|--------------|---------------------|-------------|-------------|
|-7------------|-7--------9-------7--|-6-----------|-------------|
|--------------|---------------------|-------------|-7-----------|


|---------------|---------------------|-------------|-------------------|
|---------------|---------------------|----------7--|-7b(8)r7-----------|
|---------------|---------------------|----7--9-----|-----------9---7---|
|---------------|---------------------|-9-----------|-------------------|
|-10------10-10-|-10---9b(10)r9---7---|-------------|-------------------|
|---------------|---------------------|-------------|-------------------|
|
|---------------|---------------------|-------------|-------------------|
|---------------|---------------------|-------------|-------------------|
|---------------|---------------------|-------------|-------------------|
|---------------|-5--------7-------5--|-4-----------|-4-----4---4---4---|
|-7-------------|---------------------|-------------|-2-----2---2---2---|
|---------------|---------------------|-------------|-------------------|

Riff B (2 guitars, 16 bars)
|-----------------|--------------------|-----------------|-----------------|
|-----------------|--------------------|-----------------|-----------------|
|-----------------|--------------------|-----------------|-----------------|
|-5---5---4-----4-|----4---4-----------|-----------------|-----------------|
|-------------7---|------------7---5-7-|-----7-7-7---7-7-|-7---7-7-7-7-7-7-|
|-----------------|--------------------|-----------------|-----------------|
|
|-----------------|--------------------|-----------------|-----------------|
|-----------------|--------------------|-----------------|-----------------|
|---------5-------|--------7-----------|-----------------|-----------------|
|-----5---5-------|----7---7-----------|-----------------|-----------------|
|-3-------3-----5-|--------5-------5-7-|-----7-7-7---7-7-|-7---7-7-7-7-7-7-|
|-----------------|--------------------|-----------------|-----------------|


|-----------------|-----------------|------------7----8-|-7-----------------|
|-----------------|-----------------|---8-7-10-8---10---|---8-10-7---8------|
|---------7-----7-|---------------9-|-------------------|----------9---11-7-|
|-9-----------9---|-----------------|-------------------|-------------------|
|-----------------|-----------------|-------------------|-------------------|
|-----------------|-----------------|-------------------|-------------------|
|
|-----------------|-----------------|-------------------|-------------------|
|-----------------|-----------------|-------------------|-------------------|
|---------5-------|-----7-----------|-------------------|-------------------|
|-----5---5-------|-7---7-----------|-------------------|-------------------|
|-3-------3-----5-|-----5-------5-7-|-----7-7--7---7--7-|-7---7--7-7-7-7--7-|
|-----------------|-----------------|-------------------|-------------------|


|-----------------|--------------------|-----------------|-----------------|
|-----------------|--------------------|-----------------|-----------------|
|-----------------|--------------------|-----------------|-----------------|
|-5---5---4-----4-|----4---4-----------|-----------------|-----------------|
|-------------7---|------------7---5-7-|-----7-7-7---7-7-|-7---7-7-7-7-7-7-|
|-----------------|--------------------|-----------------|-----------------|
|
|-----------------|--------------------|-----------------|-----------------|
|-----------------|--------------------|-----------------|-----------------|
|---------5-------|--------7-----------|-----------------|-----------------|
|-----5---5-------|----7---7-----------|-----------------|-----------------|
|-3-------3-----5-|--------5-------5-7-|-----7-7-7---7-7-|-7---7-7-7-7-7-7-|
|-----------------|--------------------|-----------------|-----------------|


|------------------------|-----14--15--17--|-17b(19)---17~------|----------|
|-15b(17)r15---13---15---|-17--------------|--------------------|----------|
|------------------------|-----------------|--------------------|----------|
|------------------------|-----------------|--------------------|----------|
|------------------------|-----------------|--------------------|----------|
|------------------------|-----------------|--------------------|----------|
|
|------------------------|-----------------|--------------------|----------|
|------------------------|-----------------|--------------------|----------|
|-9-------------5--------|-----------------|------------7-------|----------|
|-9-------------5--------|-----------------|-5----------7-------|----------|
|-7-------------3--------|-----------------|-5----------5-------|----------|
|------------------------|-----------------|-3------------------|----------|

  E5
|-15-0-0-0-0-0-17-0-0-0-0-0-|-19-0-0-0-0-0-15-0-0-0-0-0-|
|---------------------------|---------------------------|
|---------------------------|---------------------------|
|---------------------------|---------------------------|
|---------------------------|---------------------------|
|---------------------------|---------------------------|

  E5                D5                  E5
|----15-19p15-------------14-17p14-17-|-15--------------------0---|
|-17----------17-------15-------------|---------------------------|
|----------------16-14----------------|---------------------------|
|-------------------------------------|---------------------------|
|-------------------------------------|---------------------------|
|-------------------------------------|---------------------------|

E5
|-15-0-0-0-0-0-17-0-0-0-0-0-|-19-0-0-0-0-0-15-0-0-0-0-0-|
|---------------------------|---------------------------|
|---------------------------|---------------------------|
|---------------------------|---------------------------|
|---------------------------|---------------------------|
|---------------------------|---------------------------|

  C5                D5                  E5
|----12-15p12-------------14-17p14-17-|-15--------------------0---|
|-13----------13-------15-------------|---------------------------|
|----------------12-14----------------|---------------------------|
|-------------------------------------|---------------------------|
|-------------------------------------|---------------------------|
|-------------------------------------|---------------------------|

E5                                         G5     D/F#
|-15-0-0-0-0-0-17-0-0-0-0-0-|-19-0-0-0-0-0-15-----------|
|---------------------------|---------------------17----|
|---------------------------|---------------------------|
|---------------------------|---------------------------|
|---------------------------|---------------------------|
|---------------------------|---------------------------|

  E5                D5                  E5
|----------17----17-19-17-19-17-------|-----------------------0---|
|-20-19-20----20----------------20-19-|-20------------------------|
|-------------------------------------|---------------------------|
|-------------------------------------|---------------------------|
|-------------------------------------|---------------------------|
|-------------------------------------|---------------------------|

E5                                         E5     D5
|-15-0-0-0-0-0-17-0-0-0-0-0-|-19-0-0-0-0-0-15-----------|
|---------------------------|---------------------19----|
|---------------------------|---------------------------|
|---------------------------|---------------------------|
|---------------------------|---------------------------|
|---------------------------|---------------------------|

E5                D5                  E5
|----------17-19-21----------19-20-22-|-22b(24)-------------/14---|
|-17-19-20----------19-20-22----------|---------------------------|
|-------------------------------------|---------------------------|
|-------------------------------------|---------------------------|
|-------------------------------------|---------------------------|
|-------------------------------------|---------------------------|

  F#5                                                     A5     E/G#
|-17-14-14-14-14-14-19-14-14-14-14-14-|-21-14-14-14-14-14-17-----16-----|
|-------------------------------------|---------------------------------|
|-------------------------------------|---------------------------------|
|-------------------------------------|---------------------------------|
|-------------------------------------|---------------------------------|
|-------------------------------------|---------------------------------|

  F#5               E5                  F#5
|----17-21p17-------------16-19p16-19-|-17--------------------14--|
|-19----------19-------17-------------|---------------------------|
|----------------18-16----------------|---------------------------|
|-------------------------------------|---------------------------|
|-------------------------------------|---------------------------|
|-------------------------------------|---------------------------|

F#5                                                     A5     G#5
|-17-14-14-14-14-14-19-14-14-14-14-14-|-21-14-14-14-14-14-17-14--16-----|
|-------------------------------------|---------------------------------|
|-------------------------------------|---------------------------------|
|-------------------------------------|---------------------------------|
|-------------------------------------|---------------------------------|
|-------------------------------------|---------------------------------|

  D5                E5                  F#5
|----14-17p14-------------16-19p16-19-|-17--------------------0---|
|-15----------15-------17-------------|---------------------------|
|----------------14-16----------------|---------------------------|
|-------------------------------------|---------------------------|
|-------------------------------------|---------------------------|
|-------------------------------------|---------------------------|

  E5                                       G5     F#5
|-15-0-0-0-0-0-17-0-0-0-0-0-|-19-0-0-0-0-0-15-0-0-0-0-0-|
|---------------------------|---------------------------|
|---------------------------|---------------------------|
|---------------------------|---------------------------|
|---------------------------|---------------------------|
|---------------------------|---------------------------|

  E5                D5                  E5
|----15-19p15-------------14-17p14-17-|-15--------------------0---|
|-17----------17-------15-------------|---------------------------|
|----------------16-14----------------|---------------------------|
|-------------------------------------|---------------------------|
|-------------------------------------|---------------------------|
|-------------------------------------|---------------------------|

  E5
|-15-0-0-0-0-0-17-0-0-0-0-0-|-19-0-0-0-0-0-15-0-0-0-0-0-|
|---------------------------|---------------------------|
|---------------------------|---------------------------|
|---------------------------|---------------------------|
|---------------------------|---------------------------|
|---------------------------|---------------------------|

                                        C5
|-20-19-17----------19-17-15----------|---------------------------|
|----------20-19-17----------19-17-15-|-17~-----------------------|
|-------------------------------------|---------------------------|
|-------------------------------------|---------------------------|
|-------------------------------------|---------------------------|
|-------------------------------------|---------------------------|


Riff A lead 1 3/4 times (14 bars), rhythm 2 times
  Lead
  C5            D5          E5
|--------------------10---|-10b(12)~--------------|
|-10b(12)r10----8---------|-----------------------|
|-------------------------|-----------------------|
|-------------------------|-----------------------|
|-------------------------|-----------------------|
|-------------------------|-----------------------|


|--------|--------|--------|--------|--------|--------|--------|--------|
|--------|--------|--------|--------|--------|--------|--------|--------|
|--------|--------|--------|--------|--------|--------|-5------|--------|
|-2------|--------|-2------|--------|-2------|--------|-5------|--------|
|-2------|--------|-2------|--------|-2------|--------|-3---/X-|---X\---|
|-0------|--------|-0------|--------|-0------|--------|-----/X-|---X\---|


|-----------------|-----------------|-----------------|-----------------|
|-----------------|-----------------|-----------------|-----------------|
|-----------------|-----------------|-----------------|-----------------|
|-----------------|-----------------|-----------------|-----------------|
|-2---------------|-----------------|-2---------------|-------------3---|
|-0---0-0-0---0-0-|-0---0-0-0-0-0-0-|-0---0-0-0---0-0-|-0---0-0-0-0-1---|


|-----------------|-----------------|-----------------|-----------------|
|-----------------|-----------------|-----------------|-----------------|
|-----------------|-----------------|-5---------------|-----------------|
|-----------------|-----------------|-5---------------|-----------------|
|-2---------------|-----/5------/4--|-3-----------/X--|--------X\-------|
|-0---0-0-0---0-0-|-0-0-/3--0-0-/2--|-------------/X--|--------X\-------|


|-----------------|-----------------|-----------------|-----------------|
|-----------------|-----------------|-----------------|-----------------|
|-----------------|-----------------|-----------------|-----------------|
|-----------------|-----------------|-----------------|-----------------|
|-2---------------|-----------------|-2---------------|-------------3---|
|-0---0-0-0---0-0-|-0---0-0-0-0-0-0-|-0---0-0-0---0-0-|-0---0-0-0-0-1---|

                                                       (lead on right)
|-----------------|-----------------|-----------------|-----------------|
|-----------------|-----------------|-----------------|-----------------|
|-2---------------|-4---------------|-5---------------|-7---------------|
|-2---------------|-4---------------|-5---------------|-7/4-------------|
|-0---------------|-2---------------|-3---------------|-5---------------|
|-----------------|-----------------|-----------------|-----------------|


|-------------19----17----|-------------19-17-------|
|-17-19-20-17----20----19-|-17-19-20-17-------20-19-|
|-------------------------|-------------------------|
|-------------------------|-------------------------|
|-------------------------|-------------------------|
|-------------------------|-------------------------|
|
|-------------------------|-------------------------|
|-------------------------|-------------------------|
|-------------------------|-------------------------|
|-9-----------------------|-------------7-----7-----|
|-7-----7--7--7--7--7--7--|-7--7--7--7--5-----5-----|
|-------------------------|-------------------------|


|-------------19----17----|-------------------------|
|-17-19-20-17----20----19-|-20-19-17-16-17~---------|
|-------------------------|-------------------------|
|-------------------------|-------------------------|
|-------------------------|-------------------------|
|-------------------------|-------------------------|
|
|-------------------------|-------------------------|
|-------------------------|-------------------------|
|-------------------------|-------------------------|
|-9-----------------------|-5-----7-----9-----------|
|-7-----7--7--7--7--7--7--|-3-----5-----7-----------|
|-------------------------|-------------------------|


|-------------19----17----|-------------19-17-------|
|-17-19-20-17----20----19-|-17-19-20-17-------20-19-|
|-------------------------|-------------------------|
|-------------------------|-------------------------|
|-------------------------|-------------------------|
|-------------------------|-------------------------|
|
|-------------------------|-------------------------|
|-------------------------|-------------------------|
|-------------------------|-------------------------|
|-9-----------------------|-------------7-----7-----|
|-7-----7--7--7--7--7--7--|-7--7--7--7--5-----5-----|
|-------------------------|-------------------------|


|-------------19----17----|-------------------------|
|-17-19-20-17----20----19-|----20-19-20-17-20-15-17-|
|-------------------------|-17----------------------|
|-------------------------|-------------------------|
|-------------------------|-------------------------|
|-------------------------|-------------------------|
|
|-------------------------|-------------------------|
|-------------------------|-------------------------|
|-------------------------|-5-----------------------|
|-9-----------------------|-5-----------------------|
|-7-----7--7--7--7--7--7--|-3-----------------------|
|-------------------------|-------------------------|


|-------------------------------------|----------17-19-20----------19-20-22-|
|-------------------------------------|-17-19-20----------19-20-22----------|
|----------------------------16-17-19-|-------------------------------------|
|-------------------16-17-19----------|-------------------------------------|
|----------12-14-15-------------------|-------------------------------------|
|-12-14-15----------------------------|-------------------------------------|
|
|-------------------------------------|-------------------------------------|
|-------------------------------------|-------------------------------------|
|-9------------------7----------------|-9------------------7----------------|
|-9------------------7----------------|-9------------------7----------------|
|-7------------------5----------------|-7------------------5----------------|
|-------------------------------------|-------------------------------------|


|-22b(24)-----------------------|----------r22--19----------24-|
|-------------------------------|------------------------------|
|-------------------------------|------------------------------|
|-------------------------------|------------------------------|
|-------------------------------|------------------------------|
|-------------------------------|------------------------------|
|
|-------------------------------|------------------------------|
|-------------------------------|------------------------------|
|-5-----------------------------|------------------------------|
|-5-----------------------------|---------------------------9--|
|-3-----------------------------|---------------------------7--|
|-------------------------------|------------------------------|

  E5
|----24--24p22s19---22--22--22p19s17--|-19--19--19p17s15---17--17-17p15s14--|
|-------------------------------------|-------------------------------------|
|-------------------------------------|-------------------------------------|
|-------------------------------------|-------------------------------------|
|-------------------------------------|-------------------------------------|
|-------------------------------------|-------------------------------------|

                                                     D5
|-15--15--15p14s12---14---14---14---12--|------------------------------------
|---------------------------------------|-15--b(17)--r15----------------/17--
|---------------------------------------|------------------------------------
|---------------------------------------|------------------------------------
|---------------------------------------|------------------------------------
|---------------------------------------|------------------------------------

  C5                                 D5
|-19--17--15----------17--15-------|-17---15---------------------17-19-20-|
|-------------17--19----------17---|----------19---15---17-19-20----------|
|----------------------------------|--------------------------------------|
|----------------------------------|--------------------------------------|
|----------------------------------|--------------------------------------|
|----------------------------------|--------------------------------------|

  E5                                 B5              drop w/bar
|-22--20--19----------20--19-------|--------------------------------------|
|-------------20--22----------20---|-22b(24)---------\/--\/---------------|
|----------------------------------|--------------------------------------|
|----------------------------------|--------------------------------------|
|----------------------------------|--------------------------------------|
|----------------------------------|--------------------------------------|

  C5                                    D5
|-15-12-14-15-14-12-17-14-15-17-15-14-|-19-17-15-------------------17-19-20-|
|-------------------------------------|----------19-17-15/17-19-20----------|
|-------------------------------------|-------------------------------------|
|-------------------------------------|-------------------------------------|
|-------------------------------------|-------------------------------------|
|-------------------------------------|-------------------------------------|

  E5                                    B5
|-22-19-20-22-20-19-24-20-22-24-22-20-|-24b(27)----------24b(27)------------|
|-------------------------------------|-------------------------------------|
|-------------------------------------|-------------------------------------|
|-------------------------------------|-------------------------------------|
|-------------------------------------|-------------------------------------|
|-------------------------------------|-------------------------------------|

  C5
|--------------------------|----------------------------|
|-17-----------------17----|-17------19------17h19p17---|
|--------------------------|----------------------------|
|--------------------------|----------------------------|
|--------------------------|----------------------------|
|--------------------------|----------------------------|

  B5
|---------------20--19--17------|-19--17----------17--------------|
|-16------------------------20--|---------20--19------20--19--17--|
|-------------------------------|---------------------------------|
|-------------------------------|---------------------------------|
|-------------------------------|---------------------------------|
|-------------------------------|---------------------------------|

  C5
|-------------------------------|----------------------------------|
|-\13-------------------13--15--|-17------15a(27)b(29)r(27)--------|
|-------------------------------|-----------------------------17---|
|-------------------------------|----------------------------------|
|-------------------------------|----------------------------------|
|-------------------------------|----------------------------------|

  B5
|----------------14---|-14b(15)-r14-------------|
|------15---17--------|---------------17---15---|-(13\)-
|-16------------------|-------------------------|
|---------------------|-------------------------|
|---------------------|-------------------------|
|---------------------|-------------------------|


Riff B


|-------------------------------------|----------17-19-20----------19-20-22-|
|-------------------------------------|-17-19-20----------19-20-22----------|
|----------------------------16-17-19-|-------------------------------------|
|-------------------16-17-19----------|-------------------------------------|
|----------12-14-15-------------------|-------------------------------------|
|-12-14-15----------------------------|-------------------------------------|
|
|-------------------------------------|-------------------------------------|
|-------------------------------------|-------------------------------------|
|-9------------------7----------------|-9------------------7----------------|
|-9------------------7----------------|-9------------------7----------------|
|-7------------------5----------------|-7------------------5----------------|
|-------------------------------------|-------------------------------------|


|-24-----------------24----19---------|-------------------------------------|
|-------------------------------20----|-17~---------------------------------|
|-------------------------------------|-------------------------------------|
|-------------------------------------|-------------------------------------|
|-------------------------------------|-------------------------------------|
|-------------------------------------|-------------------------------------|
|
|-------------------------------------|-------------------------------------|
|-------------------------------------|-------------------------------------|
|-9-----------------------------------|-------------------------------------|
|-9-------------------2-----2----2----|-2-----------------------------------|
|-7-------------------2-----2----2----|-2-----------------------------------|
|---------------------0-----0----0----|-0-----------------------------------|

-----------------------------------------------------------------------------

3.Hatebreeder 

Hatebreeder Tab by Children Of Bodom, www.Ultimate-Guitar.Com

|-------------------------------------------------------------------------------------------|Gtr1
|-------------------------------------------------------------------------------------------|
|-------------------------------------------------------------------------------------------|
|---------------------3-----------------------------------------------4---------------5-4-2-|
|-2-----2-----2-----5-2-0-2-----2-----2-----5-5-5-2-----2-----2-----5-2-0-2-----2-----5-4-2-|
|-0-000-0-000-0-000-3---0-0-000-0-000-0-000-3-3-3-0-000-0-000-0-000-3---0-0-000-0-000-3-2-0-|
|   ...   ...   ...         ...   ...   ...         ...   ...   ...         ...   ...
|
|
|-------------------------------------------------------------------------------------------|Gtr2
|-------------------------------------------------------------------------------------------|
|-------------------------------------------------------------------------------------------|
|---------------------4-----------------------------------------------3---------------5-4-2-|
|-------------------5-2-0-2-----------------5-5-5-2-----------------5-2-0-2-----------5-4-2-|
|-------------------3---0-0-----------------3-3-3-0-----------------3---0-0-----------3-2-0-|



Riff B
|-------------------------------------------------------------------------------------
|-------------------------------------------------------------------------------------
|-------------------12-12-------------------------------------------12----------------
|-9-----9-----9-----12-12-9-----9-------------444-9-----9-----9-----12----------------
|-7-777-7-777-7-777-10-10-7-777-7-999222222555----7-777-7-777-7-777-10--7-7-7-10-10-10
|-------------------------------------------------------------------------------------
|   ...   ...   ...         ...   ...............   ...   ...   ...     . . . .  .  . 
|
|
|-------------------------------------------------------------------------------------
|-------------------------------------------------------------------------------------
|-------------------12-12-------------------------------------------12----------------
|-9-----9-----9-----12-12-9-----9-----------------9-----9-----9-----12----------------
|-7-777-7-777-7-777-10-10-7-777-7-999222222222222-7-777-7-777-7-777-10--7-7-7-10-10-10
|-------------------------------------------------------------------------------------
    ...   ...   ...         ...   ...............   ...   ...   ...     . . . .  .  . 

------------------------------|Gtr1
------------------------------|    
-------------5-5-5-8-8-8-9ph~-|    
-6-6-6-9-9-9------------------|    
------------------------------|    
------------------------------|    
 . . . . . . . . . . . .           
                                   
                                   
------------------------------|Gtr2
------------------------------|    
-------------5-5-5-8-8-8-9ph~-|    
-6-6-6-9-9-9------------------|    
------------------------------|    
------------------------------|    
 . . . . . . . . . . . .           


Riff C
|-------------14-15-14-15-------------14-17-14-17-----------------------|Gtr1
|----------13----------------------15-----------------------------------|
|-------12----------------------14--------------------------------------|
|-10-14-------------------12-16-------------------9------9-8-9------9-8-|
|-------------------------------------------------7-7777-7-6-7-7777-7-6-|
|-----------------------------------------------------------------------|
|                                                   ....       ....    
|                                                                       
|                                                                       
|-----------------------------------------------------------------------|Gtr2
|-----------------------------------------------------------------------|
|-----------------------------------------------------------------------|
|-5-----------------------7-----------------------9------9-8-9------9-8-|
|-3-----------------------5-----------------------7-7777-7-6-7-7777-7-6-|
|-----------------------------------------------------------------------|
                                                    ....       ....     
                                                                        
                                                                         
|-------------------------/14-11-----------------------------------------|Gtr1
|-------------13-17-13-17--------13--------------------------------------|
|----------12-----------------------14-11--------------------------------|
|----10-14--------------------------------13-10-----9---------9-12-11-9--|
|-12--------------------------------------------12--7-7777777-7-10--9-7--|
|------------------------------------------------------------------------|
| .  .  .  .                                          .......            
|                                                                        
|                                                                        
|------------------------------------------------------------------------|Gtr2
|------------------------------------------------------------------------|
|-5------------------------5---------------------------------------------|
|-5------------------------5------------------------9---------9-12-11-9--|
|-3------------------------3------------------------7-7777777-7-10--9-7--|
|------------------------------------------------------------------------|
                                                      .......



Riff D                               1st ending   2nd ending
|-----------------------------------|------------|-------------|Gtr1
|-------6--------------8------------|-5--------6-|-------------|
|-------5--------------7------------|-4--------5-|-------------|
|-2-----3--------2-----5--------2---|-2--------3-|-2-------3---|
|-0--------------0--------------0---|------------|-2-------3---|
|-----------------------------------|------------|-------------|
|
|
|
|--------------------------------------------------------------|Gtr2
|--------------------------------------------------------------|
|--------------------------------------------------------------|
|--------------------------------------------------------------|
|-777777101010999777777555101010777777101010999------777101010-|
|----------------------------------------------888888----------|
  ............................................................



Riff E
|----------------------------------------|Gtr1
|----6"-------4"-------------------------|
|----5"-------3"-------------------------|
|-5"-3"----5"-1"----5"-0--------------8"-|
|-5"-------5"-------5"-0-----6"----9"----|
|-3"-------3"-------3"-------------------|
|
|
|
|----------------------------------------|Gtr2
|----------------------------------------|
|-------------------------------------8"-|
|-5"-8"-7"-5"-3"-8"-5"-8"-7"----7"-8"----|
|----------------------------9"----------|
|----------------------------------------|



Riff F
|-----------------------------------------------------------------|Gtr1
|-----------------------------------------------------------------|
|-----------------------------------------------------------------|
|-5-x-5-x-5-5-5-3--5-x-5-x-5--1--5--3-----------------------------|
|-5-x-5-x-5-5-5-3--5-x-5-x-3--1--5--3-----------------------------|
|-3-x-3-x-3-3-3-1--3-x-3-x-3--------------------------------------|
|      
|
|
|-------------------------|-------------|-------------------------|Gtr2
|-------------------------|-------------|-------------18-18b(20)~-|
|-12-12/15-14-15b(17)-15~-|-15-14-------|-12-12/15-14-------------|
|-------------------------|-------15-12-|-------------------------|
|-------------------------|-------------|-------------------------|
|-------------------------|-------------|-------------------------|



then Riff B (1.5x)



Riff G
|--8p5-------5s11-8---------8s14-11---------11s17-14-----------------12-15s17
|------7---7-------10----10--------13----13---------16-------------13--------
|--------8------------11--------------14--------------17---------12----------
|-------------------------------------------------------19-----14------------
|---------------------------------------------------------18s15--------------
|----------------------------------------------------------------------------
|
|
|
|----------------------------------------------------------------------------
|----------------------------------------------------------------------------
|----------------------------------------------------------------------------
|------------------------------------------------------------5-------------7-
|--5-5-5-5-5-5--2-2-2-2-2-2---4-4-4-4-4-4----0-0-0-0-0-0-----3-------------5-
|----------------------------------------------------------------------------
   . . . . . .  . . . . . .   . . . . . .    . . . . . .                                      


-14-----------------15-19-24--|Gtr1
---15-------------17----------|    
-----14---------16------------|    
-------16-----17--------------|    
---------17s19----------------|    
------------------------------|    
                                   
                                   
                                   
------------------------------|Gtr2
------------------------------|    
--------------------------9---|    
------------9------7------9---|    
------------7------5------7---|    
------------------------------|    




then Riff D (2x)




Riff H
|---------------------|Gtr1 & 2
|---------------------|
|---------------------|
|-----2-------------2-|
|-000-0-000-3-5-000-0-|
|-----------1-3-------|
  ...   ...     ...



Riff I                                                          1st ending             
|--------------------------------------------------------------|----------------------|
|--------------------------------------------------------------|----------------------|
|--------------------------------------------------------------|----------------------|
|--------------------------------------------------------------|-5--------------------|
|-3----------5------------7------------5-----------3-----------|-3-5-7----------------|
|-1----------3------------5------------3-----------1-----------|---3-5-55555555555555-|
|                                                                      ............... 
|
|
|--------------------------------------------------------------|----------------------|
|--------------------------------------------------------------|----------------------|
|--------------------------------------------------------------|----------------------|
|-3---3---3-----------------------------------------5\3--------|-5--------------------|
|-3---3---3--3p2---2-3p2--5p3---3-5p3--3p2---2-3p2--5\3--------|-3-5-7----------------|
|-1-1-1-1-1--3---3-3-3----5---5-5-5----3---3-3-3----3\1--1-0-1-|---3-5-55555555555555-|
    .   .        .            .            .             . . .        ...............  

2nd ending           *dive w/bar
-------------------------|Gtr1  
-------------------------|      
---------------------9\--|      
-5----7----9-----------\-|      
-3-33-5-33-7-7777777-----|      
-------------------------|      
             .......            
                                
                                
-------------------------|Gtr2  
-------------------------|      
-------------------------|      
-5----7----9---------9---|      
-3-33-5-33-7-7777777-7---|      
-------------------------|      
    ..  ..   ....... .          


Riff J                                                1st&2nd ending   next 4 endings    
|--------------------|--------------|--------------| |--------------| |------------------------|Gtr1
|--------------------|--------------|--------------| |--------------| |---------10-12----10----|
|-9--7-7--9-9--------|--------12-12-|-12-12--11-11-| |--------------| |-9-11-12-------12----11-|
|-9--7-7--9-9--10-10-|-12-12--12-12-|-12-12--11-11-| |--------------| |------------------------|
|-7--5-5--7-7--10-10-|-12-12--10-10-|-10-10---9--9-| |-7-9-10-9-7---| |------------------------|
|---------------8--8-|-10-10--------|--------------| |-----------10-| |------------------------|
|
|
| *                             variation               1st&2nd ending
|-------------------|----------|---------------------| |--------------------------------------| 
|-------------------|----------|---------------------| |--------------------------------------| 
|-------------------|----------|---------------------| |--------------------------------------| 
|-9--7-7--9-9-------|-9-9-7-7--|-12-12-7-7-----------| |-----------4--------------------------| 
|-7--5-5--7-7-10-10-|-7-7-5-5--|-10-10-5-5-----------| |-------5-7---7-7777777777777777777777-| 
|--------------8--8-|----------|---------------------| |-3-5-7--------------------------------| 
  *only play this first chord on 1st time                             .......................

|---------------|Gtr2
|---------------|    
|-5---7---9---7-|    
|-5---7---9---7-|    
|-3---5---7---5-|    
|---------------|    


 
Riff K                                                                                 *dive&raise w/bar 
|--------------------------------------------------------------------------------------9\--/--13\--/-|Gtr1
|---------------------------------------------------------------------------------8-10---\/------\/--|
|-----------------------------7-----------------------------------------------7-9--------------------|
|--------7-9-7---------7-9-10---10-9-7-9-----------------7-9-7---------7-9-10------------------------|
|-7-9-10-------10-9-10----------------------------7-9-10-------10-9-10-------------------------------|
|----------------------------------------------------------------------------------------------------|
|
|
|
|----------------------------------------------------------------------------------------------------|Gtr2
|----------------------------------------------------------------------------------------------------|
|-------------------7-----------------------------------------------7--------------------------------|
|-9--------5--------5---------8--------4----------9--------5--------5---------8--------6-------------|
|-7--------3------------------6--------2----------7--------3------------------6--------4-------------|
|----------------------------------------------------------------------------------------------------|




Riff L (1.5x)                                                                    2nd ending
|------------------------------------|------------------------------------------|-------------------|Gtr1
|-----------555555222222-------------|------------------------------------------|-------------------|
|-----------------------444444-------|------------------------------------------|-------------------|
|-----------------------------555555-|------------------------------------------|-4-4-4-4-4-4-4-4-2-|
|------------------------------------|-4-5-4-3-4-5-4-5-4-3-4-5-4-5-4-3-4-5-4ph~-|-2-2-2-2-2-2-2-2-2-|
|------------------------------------|------------------------------------------|-----------------0-|
|           ........................
|
|                                                                                2md ending
|------------------------------------|------------------------------------------|-------------------|Gtr2
|-----------555555222222-------------|-4-5-4-3-4-5-4-5-4-3-4-5-4-5-4-3-4-5-4ph~-|-------------------|
|-----------------------444444-------|------------------------------------------|-------------------|
|-----------------------------555555-|------------------------------------------|-4-4-4-4-4-4-4-4-2-|
|------------------------------------|------------------------------------------|-2-2-2-2-2-2-2-2-2-|
|------------------------------------|------------------------------------------|-----------------0-|
            ........................
          


Riff M                  
|---------12-7-8-------|
|---10-12--------10-12-|
|-9--------------------|
|----------------------|
|----------------------|
|----------------------|
|                      |
|                      |
|----------------------|
|----------------------|
|----------------------|
|----------------------|
|----------------------|
|----------------------|

                                                                       *dive&raise w/bar          
|---------12-7-12-10-8----10-8------8---------------------------------------------------------|Gtr1
|---10-12--------------10------12-8---12-10----12-10-8---------------/---/---/--------/-------|    
|-9-----------------------------------------11-----------9---10---12/-15/-12/--9/\-10/-15\----|    
|-----------------------------------------------------------------------------------------\---|    
|---------------------------------------------------------------------------------------------|    
|---------------------------------------------------------------------------------------------|    
|                                                                                             |    
|                                                                                             |    
|---------------------------------------------------------------------------------------------|Gtr2
|---------------------------------------------------------------------------------------------|    
|-------------------------7---------5----------3--------------------------------------------2-|    
|---------3----5----7-----7-----5---5----3-----3-----5---2---3------------------3---2----2--2-|    
|---------3----5----7-----5-----5---3----3-----1-----5---2---3------------------3---2----2--0-|    
|---------1----3----5-----------3--------1-----------3---0---1------------------1---0----0----|    
                                                                                                  




then first part of Riff A



Riff N
|-------------------------------------|Gtr1
|-------------------------------------|
|-------------------------------------|
|-7-x-7-x-7-7-7-5--7-x-7-x-7----------|
|-7-x-7-x-7-7-7-5--7-x-7-x-7-----5--3-|
|-5-x-5-x-5-5-5-3--5-x-5-x-5--1-------|
|
|
|
|
|--------------------------|------------|-------------15b(17)~--|Gtr2
|--10-10/13-12-13b(15)-13~-|-13-12------|-10-10/13-12-----------|
|--------------------------|-------12-9-|-----------------------|
|--------------------------|------------|-----------------------|
|--------------------------|------------|-----------------------|
|--------------------------|------------|-----------------------|





Guitar Solo 1


Under the solos, Gtr 2 plays the Gtr 2 part of Riff I, then plays the Gtr 1 part of Riff I




|---------------------------------------15----17--------17----19---|Gtr1
|-------10----13-10---------------15-------17----17--17----17------|
|-10-10----10---------10-10s12-12----12----------------------------|
|------------------------------------------------------------------|
|------------------------------------------------------------------|
|------------------------------------------------------------------|





|-----19b(20)r19-17------------17---20-17-19-20-19-17--------------------------------|Gtr1
|--17---------------20-20b(22)------------------------20-17-19-20-19-17--------------|
|-----------------------------------------------------------------------21-17-19-21--|
|------------------------------------------------------------------------------------|
|------------------------------------------------------------------------------------|
|------------------------------------------------------------------------------------|



|---------------------------------------------------17--19--20--22--24--24---|Gtr1
|----------------------------------------------------------------------------|
|--19-17------------------------17--21------17--21---------------------------|
|--------21-17-19-21-19-17--19----------19-----------------------------------|
|----------------------------------------------------------------------------|
|----------------------------------------------------------------------------|




Synth solo, both guitars play the Gtr 1 part of Riff I


Guitar Solo 2, Continued after synth:



   dive  
|--w/bar-------------17-----------17-----------17-----------17\---/17-15-13--------------------|Gtr1
|-----------------17-----------17-----------17-----------17-----------------17-15-13s10--------|
|--2-\-----19b(21)------19b(21)------19b(21)------19b(21)-------------------------------12-10--|
|-----\----------------------------------------------------------------------------------------|
|------\---------------------------------------------------------------------------------------|
|----------------------------------------------------------------------------------------------|


                                                           
|-----------------------------------------------------------------------------------|Gtr1
|--------------------------------------------------------------------------------13-|
|--9-\--7--------------------------------------9------10--9--12--10--14--12--14-----|
|---------10-9-7----------------10--9--12--10-----12--------------------------------|
|----------------10-8-10/---12------------------------------------------------------|
|-----------------------------------------------------------------------------------|



|--15----------15----------------15-16-17-19-17-16-15----------------15----15-17ph-----|Gtr1
|-----15-16-17----17-16-15-16-17----------------------17-16-15-16-17----17-------------|
|--------------------------------------------------------------------------------------|
|--------------------------------------------------------------------------------------|
|--------------------------------------------------------------------------------------|
|--------------------------------------------------------------------------------------|




Synth solo, both guitars play the Gtr 1 part of Riff I 



Synth and Guitar end solo:



|--------------13-15-17-13-15-17-15-13-15----13-15-13----13-------13------------------|Gtr1
|-----13-15-17----------------------------17----------17----15-17----17-15-13---------|
|--16-------------------------------------------------------------------------16-14---|
|-------------------------------------------------------------------------------------|
|-------------------------------------------------------------------------------------|
|-------------------------------------------------------------------------------------|



|-----------/18-17-15-13--------------------|Gtr1
|--18-17-15-------------17-15-13------------|
|---------------------------------15--14----|
|-------------------------------------------|
|-------------------------------------------|
|-------------------------------------------|
|
|
|-------------------------------------------|Gtr2
|-------------------------------------------|
|-------------------------------------------|
|---------------------------------2---7-----|
|---------------------------------2---7-----|
|---------------------------------0---5-----|
 
---------------------------------------------------------------------------

4. Bed of Razors

Tune down one whole step
4/4 time, 150 bpm

(Keyboards)
|------------|------------|------------|----------------------------|
|------------|------------|------------|----------------------------|
|------------|------------|------------|----------------------------|
|------------|------------|------------|----------------------------|
|------------|------------|------------|----------------------------|
|------------|------------|------------|----------------------------|
|-------------------------------|-----------------10-8--------------|
|-12-8---------8-11-8---------8-|-12-8----8-10-12------12-10-8------|
|------11-9-11--------11-9-11---|------11----------------------11---|
|-------------------------------|-----------------------------------|
|-------------------------------|-----------------------------------|
|-------------------------------|-----------------------------------|
|
|-------------------------------|---------------------------------|
|-------------------------------|---------------------------------|
|-------------------------------|-----------------5-------7-------|
|-2--------------3--------------|-2---------------5-------7-------|
|-2--------------3--------------|-2---------------3-------5-------|
|-0--------------1--------------|-0-------------------------------|


|-------------------------------|-----------------10-8------------|
|-12-8---------8-11-8---------8-|-12-8----8-10-12------12-10-8----|
|------11-9-11--------11-9-11---|------11----------------------11-|
|-------------------------------|---------------------------------|
|-------------------------------|---------------------------------|
|-------------------------------|---------------------------------|
|
|-------------------------------|---------------------------------|
|-------------------------------|---------------------------------|
|----------------3--------------|-----------------5-------7-------|
|-2--------------3-------3-3-3--|-2---------------5-------7-------|
|-2-------2-2-2--1-------1-1-1--|-2-------2-2-2---3-------5-------|
|-0-------0-0-0-----------------|-0-------0-0-0-------------------|

  dive w/bar                       raise w/bar
|----------|----------|----------|----------|
|----------|----------|----------|----------|
|-0-\------|-\--------|-\--------|-a2.3/----|
|----------|----------|----------|----------|
|----------|----------|----------|----------|
|----------|----------|----------|----------|
|
|----------|----------|----------|----------|
|----------|----------|----------|----------|
|----------|----------|----------|----------|
|-2--------|----------|----------|----------|
|-2--------|----------|----------|----------|
|-0--------|----------|----------|----------|

                                   1.2.3.
|--------------------------------|-----------------10-8-------------|
|--12-8---------8-11-8---------8-|-12-8----8-10-12------12-10-8-----|
|*------11-9-11--------11-9-11---|------11----------------------11-*|
|*-------------------------------|---------------------------------*|
|--------------------------------|----------------------------------|
|--------------------------------|----------------------------------|
|
|--------------------------------|----------------------------------|
|--------------------------------|----------------------------------|
|*-------------------------------|---------------------------------*|
|*-9--------------10-------------|-9---------------5-------7-------*|
|--7--------------8--------------|-7---------------3-------5--------|
|--------------------------------|----------------------------------|

  4.
|-15-------------14s13-------------12-|----------------------------------|
|----14-------13-------12-------11----|----------------------------------|
|-------15----------------13----------|-------------12-14-15~------------|
|----------16----------------14-------|----------12----------------------|
|-------------------------------------|-10-12-13-------------------------|
|-------------------------------------|----------------------------------|
|
|-12-------------11s10-------------9--|----------------------------------|
|----11-------10-------9---------8----|----------------------------------|
|-------12----------------10----------|--------------9-10-12~------------|
|----------13----------------11-------|-----------9----------------------|
|-------------------------------------|-7--9--10-------------------------|
|-------------------------------------|----------------------------------|

  Verse
|-------------------------|-------------------------|
|-------------------------|-------------------------|
|-------------------------|---------------2---------|
|-------------------------|---------------0---------|
|-------------------------|---------------0---------|
|-0-0-0-0-0-0-0-0-0-0-0-0-|-0-0-0-0-0-0-0-----------|
|
|-------------------------|-------------------------|
|-------------------------|-------------------------|
|-------------------------|-------------------------|
|-------10--9-------7---9-|-------10--9---7-7-7-7-7-|
|-------8---7-------5---7-|-------8---7---5-5-5-5-8-|
|-0-0-0---0---0-0-0---0---|-0-0-0---0---0-----------|


|-------------------------|-------------------------|
|-------------------------|-------------------------|
|-------------------------|-------------------------|
|-------------------------|-------------------------|
|-------------------------|-------------0-2-3-2-----|
|-0-0-0-0-0-0-0-0-0-0-0-0-|-0-0-0-0-0-0-------------|
|
|-------------------------|-------------------------|
|-------------------------|-------------------------|
|-------------------------|-------------------------|
|-------10--9-------7---9-|-------10--9-------------|
|-------8---7-------5---7-|-------8---7-5-7-8-5-----|
|-0-0-0---0---0-0-0---0---|-0-0-0---0---------------|


|-------------------------|-------------------------|
|-------------------------|-------------------------|
|-------------------------|-------------------------|
|-------------------------|-------------------------|
|-3-3-3-3-3-3-3-3-3-3-3-3-|-------------2-2-2-2-2-2-|
|-------------------------|-2-2-2-2-2-2-------------|
|
|-8-----7-----------------|-------------------------|
|-------------10----8-----|-7h8p7-------------------|
|-------------------------|--------9----8-----11----|
|-------------------------|-------------------------|
|-------------------------|-------------------------|
|-------------------------|-------------------------|


|-------------------------|-------------------------|
|-------------------------|-------------------------|
|-------------------------|---------------2---------|
|-------3---2-------0---2-|-------3---2---0---------|
|-------3---2-------0---2-|-------3---2---0---------|
|-0-0-0---0---0-0-0---0---|-0-0-0---0---0-----------|
|
|-------------------------|-------------------------|
|-------------------------|-------------------------|
|-------------------------|-------------------------|
|-------10--9-------7---9-|-------10--9---7-7-7-7-7-|
|-------8---7-------5---7-|-------8---7---5-5-5-5-8-|
|-0-0-0---0---0-0-0---0---|-0-0-0---0---0-----------|


|-------------------------|-------------------------|
|-------------------------|-------------------------|
|-------------------------|-------------------------|
|-------3---2-------0---2-|-------3---2-2-----------|
|-------3---2-------0---2-|-------3---2-3---2-2-----|
|-0-0-0---0---0-0-0---0---|-0-0-0---0---------0-----|
|
|-------------------------|-------------------------|
|-------------------------|-------------------------|
|-------------------------|-------------9---7-9-----|
|-------10--9-------7---9-|-------10--9-------------|
|-------8---7-------5---7-|-------8---7-7---5-7-----|
|-0-0-0---0---0-0-0---0---|-0-0-0---0---------------|

                                   1.2.3.
|--------------------------------|-----------------10-8-------------|
|--12-8---------8-11-8---------8-|-12-8----8-10-12------12-10-8-----|
|*------11-9-11--------11-9-11---|------11----------------------11-*|
|*-------------------------------|---------------------------------*|
|--------------------------------|----------------------------------|
|--------------------------------|----------------------------------|
|
|--------------------------------|----------------------------------|
|--------------------------------|----------------------------------|
|*-------------------------------|---------------------------------*|
|*-9--------------10-------------|-9---------------5-------7-------*|
|--7--------------8--------------|-7---------------3-------5--------|
|--------------------------------|----------------------------------|


|----------------12-14b(15)--14~--------|
|-12-13-15-13-15------------------------|
|---------------------------------------|
|---------------------------------------|
|---------------------------------------|
|---------------------------------------|
|
|---------------------------------------|
|-------12----12-13-15b(17)--15~--------|
|-12-14----14---------------------------|
|---------------------------------------|
|---------------------------------------|
|---------------------------------------|

  Chorus
|-------------------------|-------------------------|
|-------------------------|-------------------------|
|-------------------------|-------------------------|
|-9---9-9-9---4---4-4-4---|-9---9-9-9---4---4-4-4---|
|-7---7-7-7---2---2-2-2---|-7---7-7-7---2---2-2-2---|
|-------------------------|-------------------------|
|
|-------------------------|-------------------------|
|-------------------------|-------------------------|
|-------------------------|-------------------------|
|-9---9-9-9---4---4-4-4---|-9---9-9-9---4---4-4-4---|
|-7---7-7-7---2---2-2-2---|-7---7-7-7---2---2-2-2---|
|-------------------------|-------------------------|


|-------------------------|-------------------------|
|-------------------------|-------------------------|
|-------------------------|-------------------------|
|-5---5-5-5---4---4-4-4---|-5---5-9-7-5-4-----------|
|-3---3-3-3---5---5-5-5---|-------------5-----------|
|-------------------------|-------------------------|
|
|-------------------------|-------------------------|
|-------------------------|-------------------------|
|-------------------------|-------------------------|
|-5---5-5-5---7---7-7-7---|-------------7---7-7-7---|
|-3---3-3-3---5---5-5-5---|-5---5-5-5---5---5-5-5---|
|-------------------------|-3---3-3-3---------------|


|----------------------------|----------------------------|
|----------------------------|----------------------------|
|-9---9-9-11-12-11\7-7---7-7-|-9---9-9-11-12-11\7-7---7-7-|
|----------------------------|----------------------------|
|----------------------------|----------------------------|
|----------------------------|----------------------------|
|
|----------------------------|----------------------------|
|----------------------------|----------------------------|
|----------------------------|----------------------------|
|-9---9-9--9----4----4-4-4---|-9---9-9--9----4----4-4-4---|
|-7---7-7--7----2----2-2-2---|-7---7-7--7----2----2-2-2---|
|----------------------------|----------------------------|


|--------------------------------|---------------------------------|
|-----------------------------10-|-12---12-12-10-------------------|
|-9---9-9-11-12-11---11-11-12----|---------------12-11-------------|
|--------------------------------|---------------------------------|
|--------------------------------|---------------------------------|
|--------------------------------|---------------------------------|
|
|--------------------------------|---------------------------------|
|--------------------------------|---------------------------------|
|--------------------------------|---------------------------------|
|-5---5-5-5-----7----7--7--7-----|------------------7----7--7-7----|
|-3---3-3-3-----5----5--5--5-----|-5----5--5--5-----5----5--5-5----|
|--------------------------------|-3----3--3--3--------------------|


|-------------------------|-------------------------|
|-------------------------|-------------------------|
|-------------------------|-------------------------|
|-9---9-9-9---4---4-4-4---|-9---9-9-9---4---4-4-4---|
|-7---7-7-7---2---2-2-2---|-7---7-7-7---2---2-2-2---|
|-------------------------|-------------------------|
|
|-------------------------|-------------------------|
|-------------------------|-------------------------|
|-------------------------|-------------------------|
|-9---9-9-9---4---4-4-4---|-9---9-9-9---4---4-4-4---|
|-7---7-7-7---2---2-2-2---|-7---7-7-7---2---2-2-2---|
|-------------------------|-------------------------|


|-------------------------|-------------------------|
|-------------------------|-------------------------|
|-------------------------|-------------------------|
|-------------------------|-------------7-5-4-------|
|-5---5-5-5---7---7-7-7---|-5---5-9-7-5-------7-5-4-|
|-3---3-3-3---5---5-5-5---|-------------------------|
|
|-------------------------|-------------------------|
|-------------------------|-------------------------|
|-------------------------|-------------------------|
|-------------------------|-7---7-7-7---------------|
|-5---5-5-5---7---7-7-7---|-5---5-5-5---7---7-7-7---|
|-3---3-3-3---5---5-5-5---|-------------5---5-5-5---|


|----------------------------|----------------------------|
|----------------------------|----------------------------|
|-9---9-9-11-12-11\7-7---7-7-|-9---9-9-11-12-11\7-7---7-7-|
|----------------------------|----------------------------|
|----------------------------|----------------------------|
|----------------------------|----------------------------|
|
|----------------------------|----------------------------|
|----------------------------|----------------------------|
|----------------------------|----------------------------|
|-9---9-9--9----4----4-4-4---|-9---9-9--9----4----4-4-4---|
|-7---7-7--7----2----2-2-2---|-7---7-7--7----2----2-2-2---|
|----------------------------|----------------------------|


|--------------------------------|------------------------------|
|--------------------------------|------------------------------|
|-----------------------------9--|-11---11-11-9-----------------|
|-9---9-9-11-12-11---11-11-12----|---------------12-11----------|
|--------------------------------|------------------------------|
|--------------------------------|------------------------------|
|
|--------------------------------|------------------------------|
|--------------------------------|------------------------------|
|--------------------------------|------------------------------|
|--------------------------------|-7----7--7--7-----------------|
|-5---5-5-5-----7----7--7--7-----|-5----5--5--5--7----7--7-7----|
|-3---3-3-3-----5----5--5--5-----|---------------5----5--5-5----|


|----------------------------|--------------------------------|
|----------------------------|-----------------------------10-|
|-9---9-9-11-12-11\7-7---7-7-|-9---9-9-11-12-11---11-11-12----|
|----------------------------|--------------------------------|
|----------------------------|--------------------------------|
|----------------------------|--------------------------------|
|
|----------------------------|--------------------------------|
|----------------------------|--------------------------------|
|----------------------------|--------------------------------|
|-9---9-9--9----4----4-4-4---|-9---9-9--9----4----4--4--4-----|
|-7---7-7--7----2----2-2-2---|-7---7-7--7----2----2--2--2-----|
|----------------------------|--------------------------------|


|--------------------------------12-|-14---14-17-15-14---------------|
|-12---12-12-14-15-14---14-14-15----|------------------17------------|
|-----------------------------------|--------------------------------|
|-----------------------------------|--------------------------------|
|-----------------------------------|--------------------------------|
|-----------------------------------|--------------------------------|
|
|-----------------------------------|--------------------------------|
|-----------------------------------|--------------------------------|
|-----------------------------------|--------------------------------|
|-----------------------------------|-7-----7--7--7------------------|
|-5----5--5--5-----7-----7--7--7----|-5-----5--5--5-----7----7-7-7---|
|-3----3--3--3-----5-----5--5--5----|-------------------5----5-5-5---|


|----------------15-------------------|----------------15-------------15-17-|
|-17----17-17-19----19~--\15----15-15-|-17----17-17-19----19~--\15----------|
|-------------------------------------|-------------------------------------|
|-------------------------------------|-------------------------------------|
|-------------------------------------|-------------------------------------|
|-------------------------------------|-------------------------------------|
|
|-------------------------------------|-------------------------------------|
|-------------------------------------|-------------------------------------|
|-------------------------------------|-------------------------------------|
|-9-----9--9--9-----4-----4--4--4-----|-9-----9--9--9-----4-----4--4--4-----|
|-7-----7--7--7-----2-----2--2--2-----|-7-----7--7--7-----2-----2--2--2-----|
|-------------------------------------|-------------------------------------|


|-19-17-15-17-15----15----------------|-------------------------------------|
|----------------19----19-17----17-19-|-17-15-------------------------------|
|----------------------------16-------|-------16-14----14-16----------------|
|-------------------------------------|-------------17-------14-14-14-------|
|-------------------------------------|-------------------------------------|
|-------------------------------------|-------------------------------------|
|
|-------------------------------------|-------------------------------------|
|-------------------------------------|-------------------------------------|
|-------------------------------------|-------------------------------------|
|-----------7-------9--------4--------|-5--------7--------9-----------------|
|-5---------5-------7--------2--------|-3--------5--------7--------2--------|
|-3--------(2)------------------------|----------------------0--0--0--------|


2nd Verse


Bridge
Riff A
|-------------------------------------|-------------------------------------|
|-------------------------------------|-------------------------------------|
|*------------------------------------|------------------------------------*|
|*---------5-----4--2--2--2--5--2--4--|----------5-----4-----------5-----4-*|
|-3--3--3-----3-----------------------|-------------------2--2--2-----2-----|
|-------------------------------------|-3--3--3-----3-----------------------|

w/Riff A (twice)
|-------------12-15/19p15-------------|-------------7--10/14p10-------------|
|----------13-------------17----------|----------8--------------12----------|
|-------12-------------------16-------|-------7--------------------11-------|
|----14-------------------------------|----9--------------------------------|
|-15----------------------------------|-10----------------------------------|
|-------------------------------------|-------------------------------------|


|-------------12-15/19p15-------------|-------------------------------------|
|----------13-------------17----17-20-|-20p15----------15-19p15----------15-|
|-------12-------------------16-------|-------16----16----------16----16----|
|----14-------------------------------|----------17----------------16-------|
|-15----------------------------------|-------------------------------------|
|-------------------------------------|-------------------------------------|

Guitar solo
     C5                E5                      G5                 B5
---|-------12--------------------------------|---------------------------------|
---|----12----15-12----12------12-15-12------|-12----12-----------16-----v-----|
-14|b(16)----------14b(16)-14b(16)----14b(16)|---14b(15)-15-14-12--------------|
---|-----------------------------------------|---------------------------------|
---|-----------------------------------------|---------------------------------|
---|-----------------------------------------|---------------------------------|

  C5                E5                  G5                B5
|-15-14-12\11-12-14/15-14-12/19-17-15-|/20-19-17----------------------------|
|-------------------------------------|----------20-19-17-19~---------------|
|-------------------------------------|-------------------------------------|
|-------------------------------------|-------------------------------------|
|-------------------------------------|-------------------------------------|
|-------------------------------------|-------------------------------------|

  C5                E5                  G5                B5
|----------19----------22-20-19-20----|-19-20-22-24-22-20-19-22----19-------|
|-17-19-20----20-19-20-------------22-|-------------------------19-------19-|
|-------------------------------------|-------------------------------19----|
|-------------------------------------|-------------------------------------|
|-------------------------------------|-------------------------------------|
|-------------------------------------|-------------------------------------|

  C5                E5                  G5
|-19-24----19-------------------------|----------19-15----------------------|
|-------20-------20-------------------|----17----------17-------------------|
|-------------21----16-21----16-------|-16----16----------16-------14-------|
|-------------------------17-------17-|----------------------17-14----17-16-|-14
|-------------------------------19----|-------------------------------------|
|-------------------------------------|-------------------------------------|

Keyboard solo                1.2.3.                       4.
|--------------------------|--------------------------|  -----------|
|--------------------------|--------------------------|  -----------|
|*-------------------------|-------------------------*|  -4---------|
|*-2-2-2-2-2-4-5-2-2-5-2-4-|-------5---4-------5---4-*|  -2---------|
|--------------------------|-------------5-5-5---5----|  -----------|
|--------------------------|-3-3-3---3----------------|  -----------|


Repeat Chorus
Repeat the two last bars of the chorus

----------------------------------------------------------------------------

5. Towards Dead End

Tune down one whole step
4/4 time, 212 bpm

 (Drums)      Riff A (2 gtrs)                           Sweep on repeat
|-----------|--------------15----17----|-------------------------------|
|-----------|--17----------------------|-15~------------------------12-|
|-----------|*-------------------------|-------------------------12----|
|-----------|*-------------------------|----------------------14-------|
|-----------|--------------------------|-------------------14----------|
|-----------|--------------------------|-------------12h15-------------|
|
|-----------|--------------------------|-------------------------------|
|-----------|--------------------------|-------------------------------|
|-----------|*-------------------------|-------------------------------|
|-----------|*-9-----------9-----------|-9-----------9---------9-------|
|-----------|--7---7-7-7-7-7---7-7-7-7-|-7---7-7-7-7-7---------7-------|
|-----------|--------------------------|-------------------------------|


|-15----------------18-------20-------|-------------------------------------|
|-------------------------------------|-18~---------------------------------|
|-------------------------------------|---------------------------17--------|
|-------------------------------------|-------------------------------------|
|-------------------------------------|-------------------------------------|
|-------------------------------------|-------------------------------------|
|
|-------------------------------------|-------------------------------------|
|-------------------------------------|-------------------------------------|
|-------------------------------------|-------------------------------------|
|-12----------------12----------------|-12----------------12-------5--------|
|-10----10-10-10-10-10----10-10-10-10-|-10----10-10-10-10-10-------3--------|
|-------------------------------------|-------------------------------------|


|-------17-22p17----------17-22p17----|-------17-22p17----------17-22p17\---|
|----18----------18----18----------18-|----18----------18----18-------------|
|-19----------------19----------------|-19----------------19----------------|
|-------------------------------------|-------------------------------------|
|-------------------------------------|-------------------------------------|
|-------------------------------------|-------------------------------------|
|
|-------------------------------------|-------------------------------------|
|-------------------------------------|-------------------------------------|
|-------------------------------------|-------------------------------------|
|-------------------------------------|-------------------------------------|
|-5--5--5--5--5--5--5--5--5--5--5--5--|-5--5--5--5--5--5--5--5--5--5--5--5--|
|-------------------------------------|-------------------------------------|


|-------12-17p12----------12-17p12----|-------12-17p12----------12-17p12----|
|----13----------13----13----------13-|----13----------13----13----------13-|
|-14----------------14----------------|-14----------------14----------------|
|-------------------------------------|-------------------------------------|
|-------------------------------------|-------------------------------------|
|-------------------------------------|-------------------------------------|
|
|-------------------------------------|-------------------------------------|
|-------------------------------------|-------------------------------------|
|-------------------------------------|-------------------------------------|
|-------------------------------------|-------------------------------------|
|-0--0--0--0--0--0--0--0--0--0--0--0--|-0--0--0--0--0--0--0--0--0--0--0--0--|
|-------------------------------------|-------------------------------------|

                                        dive w/bar
|-------------------13-------15-------|-------------------------------------|
|-15----------------------------------|-13\---------------------------------|
|-------------------------------------|-------------------------------------|
|-------------------------------------|-------------------------------------|
|-------------------------------------|-------------------------------------|
|-------------------------------------|-------------------------------------|
|
|-------------------------------------|-------------------------------------|
|-------------------------------------|-------------------------------------|
|-------------------------------------|-------------------------------------|
|-3-----------------3-----------------|-5-----------------5--------5--------|
|-1-----1--1--1--1--1-----1--1--1--1--|-3-----3--3--3--3--3--------3--------|
|-------------------------------------|-------------------------------------|

                                         (2nd time)
|-------------------13-------15-------|-(13)-----(12)-----------------------|
|-15----------------------------------|-15---------------(15)-----(13)------|
|-------------------------------------|-------------------------------------|
|-------------------------------------|-------------------------------------|
|-------------------------------------|-------------------------------------|
|-------------------------------------|-------------------------------------|
|
|-------------------------------------|-------------------------------------|
|-------------------------------------|-------------------------------------|
|-------------------------------------|-------------------------------------|
|-3-----------------3-----------------|-------------------------------------|
|-1-----1--1--1--1--1-----1--1--1--1--|-5-----5--5--5--5--5-----5--5--5--5--|
|-------------------------------------|-------------------------------------|


|-------------------13-------15-------|-------------------------------------|
|-15----------------------------------|-13----------------------------------|
|-------------------------------------|---------------------------14--------|
|-------------------------------------|-------------------------------------|
|-------------------------------------|-------------------------------------|
|-------------------------------------|-------------------------------------|
|
|-------------------------------------|-------------------------------------|
|-------------------------------------|-------------------------------------|
|-------------------------------------|-------------------------------------|
|-3-----------------3-----------------|-5-----------------5-----------------|
|-1-----1--1--1--1--1-----1--1--1--1--|-3-----3--3--3--3--3--------5--------|
|-------------------------------------|----------------------------3--------|


  1.
|-------12-17p12----------12-17p12----|-------12-15p12-15-18-17-15-----------|
|----15----------15----15----------15-|----14----------------------18-17-15--|
|-14----------------14----------------|-14----------------------------------*|
|-------------------------------------|-------------------------------------*|
|-------------------------------------|--------------------------------------|
|-------------------------------------|--------------------------------------|
|
|-------------------------------------|--------------------------------------|
|-------------------------------------|--------------------------------------|
|-------------------------------------|-------------------------------------*|
|-------------------------------------|-------------------------------------*|
|-0-----0--0--0--0--0-----0--0--0--0--|-0-----0--0--0--0--0-----0--0--0--0---|
|-------------------------------------|--------------------------------------|

  2.                                                          (end of Riff A)
|-------12-17p12----------12-17p12----|-------12-17p12----------12-17p12-17-|
|----15----------15----15----------15-|----15----------15----15-------------|
|-14----------------14----------------|-14----------------14----------------|
|-------------------------------------|-------------------------------------|
|-------------------------------------|-------------------------------------|
|-------------------------------------|-------------------------------------|
|
|-------------------------------------|-------------------------------------|
|-------------------------------------|-------------------------------------|
|-------------------------------------|-------------------------------------|
|-------------------------------------|-------------------------------------|
|-0-----0--0--0--0--0-----0--0--0--0--|-0-----0--0--0--0--0-----0--0--0--0--|
|-------------------------------------|-------------------------------------|


|-18-17-15----------18-17-15----------|-18-17-15----------------------------|
|----------18-17-15----------18-17-15-|----------18-17-15-14~---------------|
|-------------------------------------|-------------------------------------|
|-------------------------------------|-------------------------------------|
|-------------------------------------|-------------------------------------|
|-------------------------------------|-------------------------------------|
|
|-------------------------------------|-------------------------------------|
|-------------------------------------|-------------------------------------|
|-------------------------------------|-------------------------------------|
|-------------------------------------|-------------------------------------|
|-0-----0--0--0--0--0-----0--0--0--0--|-0-----0--0--0--0--0-----0--0--0--0--|
|-------------------------------------|-------------------------------------|

  D5
  dive w/bar                     raise
|------------------|------------------|------------------|------------------|
|------------------|------------------|------------------|------------------|
|------------------|------------------|------------------|------------------|
|-0-\--------------|-------------0----|-/------ha3.3-/---|--------\---------|
|------------------|------------------|------------------|------------------|
|------------------|------------------|------------------|------------------|

  Riff B
|------------------|------------------|------------------|-------------------|
|------------------|------------------|------------------|-------------------|
|*-----------------|------------------|-x-x-10---x-x-9---|-x-x-14----x-x-12-*|
|*-7---------------|-10--------5------|------------------|------------------*|
|------------------|------------------|------------------|-------------------|
|------------------|------------------|------------------|-------------------|
|
|------------------|------------------|------------------|-------------------|
|--------10--------|-11---------------|------------------|-------------------|
|*-----7------7----|----10-------5----|------------------|------------------*|
|*-7------------7--|-------8---5---5--|-----7------------|-----10--------5--*|
|------------------|------------------|-5-5-5--------7---|-8-8-8-----3-3-3---|
|------------------|------------------|----------5-5-5---|-------------------|

  Riff C
|------------------|--------------------|-----7-12-10-8-------|----------------|
|--------7-----8---|-10---8b(10)r8---7--|---8-----------12-10-|-8-7--8-7h8p7---|
|*-9---------------|--------------------|-9-------------------|-----9--------7*|
|*-----------------|--------------------|---------------------|---------------*|
|------------------|--------------------|---------------------|----------------|
|------------------|--------------------|---------------------|----------------|
|
|------------------|--------------------|---------------------|----------------|
|------------------|--------------------|---------------------|----------------|
|*-9---------------|-5----------7-------|---------------------|---------------*|
|*-9---------------|-5----------7-------|-----9---------------|------12------7*|
|--7---------------|-3----------5-------|-7-7-7----------9----|10-10-10--5-5-5-|
|------------------|--------------------|-----------7-7--7----|----------------|


Rhythm Gtr w/Riff C 2 times
Lead Gtr w/Riff C 1 1/2 times           1.
|------------------|------------------|-------------------|------------------|
|------------------|------------------|-------------------|------------------|
|*-----------------|------------------|-x-x-12---x-x-11---|-x-x-16---x-x-14-*|
|*-9---------------|-12-------7-------|-------------------|-----------------*|
|------------------|------------------|-------------------|------------------|
|------------------|------------------|-------------------|------------------|

  2.
|---12-11-12-14-12-11----|---------------------|
|---------------------13-|-12---10-------------|
|-9----------------------|-----------12---11---|
|------------------------|---------------------|
|------------------------|---------------------|
|------------------------|---------------------|
|
|------------------------|------11---12---14---|-(15\)
|------------------------|---------------------|
|-x--x--12---x--x--11----|-9-------------------|
|------------------------|---------------------|
|------------------------|---------------------|
|------------------------|---------------------|

  Pre-Chorus
|-------------------|------------------|------------------|-----------------|
|-------------------|------------------|------------------|-----------------|
|*-12--12--11--12---|-9---9---7---9----|-8---8---7---8----|-----------------|
|*------------------|------------------|------------------|-9---------------|
|-------------------|------------------|------------------|-----------------|
|-------------------|------------------|------------------|-----------------|
|
|-------------------|------------------|------------------|-----------------|
|-------------------|------------------|------------------|-----------------|
|*------------------|------------------|------------------|-----------------|
|*-5---5---5---5----|-2---2---2---2----|------------------|-9---------------|
|--3---3---3---3----|-0---0---0---0----|-3---3---5---6----|-7---------------|
|-------------------|------------------|------------------|-----------------|

                                        1. (2 leads)
|------------------|------------------|------------------|------------------|
|------------------|------------------|-8-------10-------|-12~--------------|
|-7---7------------|------------------|-9-------11-------|-12~-------------*|
|---------10--9----|-7-----------7----|------------------|-----------------*|
|------------------|-----9---10-------|------------------|------------------|
|------------------|------------------|------------------|------------------|
|
|------------------|------------------|------------------|------------------|
|------------------|------------------|------------------|------------------|
|------------------|------------------|------------------|-----------------*|
|------------------|-7---7---7---7----|-9---9---9---9----|-9---9---9--9--7-*|
|-5---5---5---5----|-5---5---5---5----|-7---7---7---7----|-7---7---7--7--5--|
|-3---3---3---3----|------------------|------------------|------------------|

  2.                                   (don't play this on 2nd time)  dive w/bar
|-----------------|-----------------|-------------------------------|--------|
|-----------------|-----------------|----17-17-17-17-12-12-12-8-8-8-|--------|
|-----------------|-----------------|-------------------------------|-9\-----|
|-----------------|-----------------|-------------------------------|--------|
|-777-777-555-555-|-777-777-333-333-|-7-----------------------------|--------|
|-----------------|-----------------|-------------------------------|--------|

  Chorus
|--------------------------|-------------------------|
|--------------------------|-------------------------|
|*-------------9-----11----|-12----------16----------|
|*-10----12----------------|-------------------------|
|--------------------------|-------------------------|
|--------------------------|-------------------------|
|
|--------------------------|-------------------------|
|--------------------------|-------------------------|
|*-------------------------|-------------------------|
|*-------------------------|-------------------------|
|--3-3-3-3-3-3-3-3-3-3-3-3-|-------------------------|
|--------------------------|-3-3-3-3-3-3-3-3-3-3-3-3-|

                                (2 leads)
|-----------------------------|-------------------------|
|-----------------------------|-8-----------------------|
|-14---14--12h14-12-----11----|-9-----------------------|
|-----------------------------|-------------------------|
|-----------------------------|-------------------------|
|-----------------------------|-------------------------|
|
|-----------------------------|-------------------------|
|-----------------------------|-------------------------|
|-----------------------------|-------------------------|
|-----------------------------|-------------------------|
|-2-2-2-2-2-2-----2-2-2-2-2-2-|-------------------------|
|-----------------------------|-0-0-0-0-0-0-0-0-0-0-0-0-|

  1.
|-------------------------|-------------------------|
|-12----12----13----15----|-------------------------|
|-12----12----14----16----|-14----14----12----11----|
|-------------------------|-16----16----14----12----|
|-------------------------|-------------------------|
|-------------------------|-------------------------|
|
|-------------------------|-------------------------|
|-------------------------|-------------------------|
|-------------------------|-------------------------|
|-------------------------|-------------------------|
|-------------------------|-5-5-5-5-5-5-5-5-5-5-5-5-|
|-3-3-3-3-3-3-3-3-3-3-3-3-|-------------------------|


|-------------------------|----------------------------------|
|-------------------------|-12-10-8--13-12-10-12-10-8--------|
|-12----------------------|-12-11-9--14-12-11-12-11-9--11---*|
|-14----------------------|----------------------------12---*|
|-------------------------|----------------------------------|
|-------------------------|----------------------------------|
|
|-------------------------|----------------------------------|
|-------------------------|----------------------------------|
|-------------------------|---------------------------------*|
|-------------------------|----------10-9--7----------------*|
|-7---7-7-7-7-7---7-7-7-7-|-10-9--7-----------10-9--7--5-----|
|-------------------------|----------------------------------|


  2.
|-------------------------|----------------------19-20-22-|
|-15----15----13----12----|-------------19-20-22----------|
|-------------------------|-14----------------------------|
|-------------------------|-------------------------------|
|-------------------------|-------------------------------|
|-------------------------|-------------------------------|
|
|-------------------------|----------------------15-17-19-|
|-------------------------|-------------15-17-19----------|
|-16----16----14----12----|-------------------------------|
|-------------------------|-16----------------------------|
|-------------------------|-------------------------------|
|-------------------------|-------------------------------|
|
|-------------------------|-------------------------------|
|-------------------------|-------------------------------|
|-------------------------|-------------------------------|
|-------------------------|-------------------------------|
|-------------------------|-5-5-5-5-5-5-5--5--5--5--5--5--|
|-3-3-3-3-3-3-3-3-3-3-3-3-|-------------------------------|



|-24-22-20----------22-20-19----------|-19-17-15----------15-14-12----------|
|----------24-22-20----------22-20-19-|----------19-17-15----------15-13-12-|
|-------------------------------------|-------------------------------------|
|-------------------------------------|-------------------------------------|
|-------------------------------------|-------------------------------------|
|-------------------------------------|-------------------------------------|
|
|-20-19-17----------19-17-15----------|-15-14-12----------12-10-8-----------|
|----------20-19-17----------19-17-15-|----------15-13-12----------12-10-8--|
|-------------------------------------|-------------------------------------|
|-------------------------------------|-------------------------------------|
|-------------------------------------|-------------------------------------|
|-------------------------------------|-------------------------------------|
|
|-------------------------------------|-------------------------------------|
|-------------------------------------|-------------------------------------|
|-------------------------------------|-------------------------------------|
|-9-----------------7-----------------|-5-----------------4-----------------|
|-7-----------------5-----------------|-3-----------------2-----------------|
|-------------------------------------|-------------------------------------|


|-12-10-8-----------------------------|-------------------19~---------------|
|----------12-10-8--------------------|-------------------------------------|
|-------------------11-9--7-----------|-------------------------------------|
|----------------------------10-9--7--|-------------------------------------|
|-------------------------------------|-10-9--7-----------------------------|
|-------------------------------------|----------10-7-----------------------|
|
|-8--7--5-----------------------------|-------------------------------------|
|----------8--7--5--------------------|-------------------16~---------------|
|-------------------7--5--4-----------|-------------------------------------|
|----------------------------7--5--4--|-------------------------------------|
|-------------------------------------|-7--5--3-----------------------------|
|-------------------------------------|----------7--3-----------------------|
|
|-------------------------------------|-------------------------------------|
|-------------------------------------|-------------------------------------|
|-------------------------------------|-------------------------------------|
|-2-----------------4-----------------|-4-----------------------------------|
|-0-----------------1-----------------|-2-----------------------------------|
|-------------------------------------|-------------------------------------|


w/Riff A


|-------------------------|-------------------------|
|-------------------------|-------------10----------|
|-------------------10----|---9---------------8-----|
|-8--------7--------------|-------------------------|
|-------------------------|-------------------------|
|-------------------------|-------------------------|
|
|-------------------------|-------------------------|
|-------------------------|-------------------------|
|-------------------------|-------------------------|
|-7--------7--------5-----|---5---------10----5-----|
|-5--------5--------3-----|---3---------8-----3-----|
|-------------------------|-------------------------|

w/Riff B (twice)

w/Riff C (rhythm only)
|------------------|------------------|-------------------|------------------|
|------------------|------------------|-------------------|------------------|
|*-----------------|------------------|-x-x-12---x-x-11---|-x-x-9-----------*|
|*-9---------------|-12-------7-------|-------------------|-----------x-x-12*|
|------------------|------------------|-------------------|------------------|
|------------------|------------------|-------------------|------------------|

                                                 swell in
|--------|--------|--------|--------|--------|--------|--------|--------|
|--------|--------|--------|--------|--------|--------|--------|--------|
|--------|--------|--------|--------|--------|----12--|--------|--------|
|-2------|--------|--------|--------|--------|---(14)-|--------|--------|
|-2------|--------|--------|--------|--------|--------|--------|-X\-----|
|-0------|--------|--------|--------|--------|--------|--------|-X\-----|


|----------------|----------------|----------------|----------------|
|----------------|----------------|----------------|----------------|
|-------------5--|--------7-------|------------4---|----------------|
|-2-----------5--|--------7-------|-2----------4---|--------5-------|
|-2-----------3--|-----33-5-------|-2----------2---|--------5-------|
|-0--------00----|-------------00-|-0-------00-----|-----00-3-------|


|----------------|----------------|----------------|----------------|
|----------------|----------------|----------------|----------------|
|-------------5--|--------7-------|------------4---|----------------|
|-2-----------5--|--------7-------|-2----------4---|----------------|
|-2-----------3--|-----33-5-------|-2----------2---|----5---4---3---|
|-0--------00----|-------------00-|-0-------00-----|----3---2---1---|


|----------------|----------------|----------------|----------------|
|----------------|----------------|----------------|----------------|
|----------------|----------------|----------------|----------------|
|----------------|----------------|----------------|----------------|
|-2---2---2---2--|-2---2---2---2--|-2---2---2---2--|-2---2---2---2--|
|-0---0---0---0--|-0---0---0---0--|-0---0---0---0--|-0---0---0---0--|


|----------------|----------------|-----------------|-----------------|
|----------------|----------------|-----------------|-----------------|
|-------------5--|--------7-------|-----5-------6---|-----7-------8---|
|-2-----------5--|--------7-------|---5---5---7---7-|---7---7---9---9-|
|-2-----------3--|-----33-5-------|-3-------4-------|-5-------6-------|
|-0--------00----|----------------|-----------------|-----------------|

  E5       D5   E5  (2 gtrs)
|-----------------|-----------------|
|-----------------|-----------------|
|-9---------------|---4-2-4-5-4-2---|
|-9---------------|---5-4-5-7-5-4-5-|
|-7---------------|---------------7-|
|-----------------|-----------------|


Play Pre-Chorus

Play Chorus, replace second ending with this:

|-------------------------|-------------------------|
|-15----15----13----12----|-------------------------|
|-16----16----14----12----|-14----14----12----14----|
|-------------------------|-16----16----14----16----|
|-------------------------|-------------------------|
|-------------------------|-------------------------|
|
|-------------------------|-------------------------|
|-------------------------|-------------------------|
|-------------------------|-------------------------|
|-------------------------|-------------------------|
|-------------------------|-5-5-5-5-5-5-5-5-5-5-5-5-|
|-3-3-3-3-3-3-3-3-3-3-3-3-|-------------------------|

    raise w/bar     dive
|-19/-----------|(20)---\-19----|-\(17)--\(15)--|-\(14)-------|
|-20/-----------|(22)---\-20----|-\(19)--\(17)--|-\(16)-------|
|---------------|---------------|---------------|-------------|
|---------------|---------------|---------------|-------------|
|---------------|---------------|---------------|-------------|
|---------------|---------------|---------------|-------------|
|
|---------------|---------------|---------------|-------------|
|---------------|---------------|---------------|-------------|
|---------------|---------------|---------------|-------------|
|-9------7------|-5------4------|-2------4------|-4-----------|
|-7-7777-5-5555-|-3-3333-2-2222-|-0-0000-1-1111-|-2-----------|
|---------------|---------------|---------------|-------------|


Solo  240 bpm
w/chorus
|-7---------b(8)-r7-b(8)-r7-|-7h8p7---------7-----------|
|---------------------------|--------10--8----10--8--7--|
|---------------------------|---------------------------|
|---------------------------|---------------------------|
|---------------------------|---------------------------|
|---------------------------|---------------------------|
|
|---------------------------|---------------------------|
|---------------------------|---------------------------|
|---------------------------|---------------------------|
|---------------------------|---------------------------|
|--------2------------------|-2-------------------------|
|-0------0-------------0----|-0----------0--0--0--0--0--|


|------------------------|---------------------------|
|-8--7--------7----------|---------------------------|
|-------9--8-----9--7----|-9--7---------7------------|
|---------------------10-|-------10--9-----9--7------|
|------------------------|-----------------------10--|
|------------------------|---------------------------|
|
|------------------------|---------------------------|
|------------------------|---------------------------|
|------------------------|---------------------------|
|-------5----------------|-5-------------------------|
|-3-----3------------3---|-3---------3--3--3--3--3---|
|------------------------|---------------------------|


|-------------------------|-------------------------|
|-------------------------|-------------------------|
|-------------7-----------|-------------------------|
|-9--7--------------------|-------------------------|
|-------10-9-----10-9--7--|-10-9--7--5--7-----------|
|-------------------------|-------------------------|
|
|-------------------------|-------------------------|
|-------------------------|-------------------------|
|-------------------------|-------------------------|
|-------9-----------------|-9-----------------------|
|-7-----7-----------7-----|-7--------7--7--7--7--7--|
|-------------------------|-------------------------|


|-------------------------|------------h15t17p12--15t17-|
|-------------------------|-16--------------------------|
|-------12-------12s14s15-|---------15------------------|
|-10s12-------------------|-----------------------------|
|-------------------------|-----------------------------|
|-------------------------|-----------------------------|
|
|-------------------------|-----------------------------|
|-------------------------|-----------------------------|
|-------------------------|-----------------------------|
|-------------------------|-8---------------------------|
|-------5-----------------|-6------6--6--6---6---6------|
|-3-----3----------3------|-----------------------------|


|-15p12-t17p15p12-------------------|------------------------------------|
|----------------t17p15p12t17p15p12-|------------------------------------|
|-----------------------------------|-t16p14p12t16p14p12-----------------|
|-----------------------------------|-------------------t14p12p9---------|
|-----------------------------------|---------------------------t14p12p9-|
|-----------------------------------|------------------------------------|
|
|-----------------------------------|------------------------------------|
|-----------------------------------|------------------------------------|
|-----------------------------------|------------------------------------|
|--------9--------------------------|-9----------------------------------|
|-7------7-----------------7--------|-7-------------7---7---7----7---7---|
|-----------------------------------|------------------------------------|


|---------------------------------|----------12-13-15-17-------12-------|
|---------------------------------|-11h13h15----------------------------|
|-------------------------9-11-12-|-------------------------------------|
|-----------------9-10-12---------|-------------------------------------|
|---------9-10-12-----------------|-------------------------------------|
|-8-10-12-------------------------|-------------------------------------|
|
|---------------------------------|-------------------------------------|
|---------------------------------|-------------------------------------|
|---------------------------------|-------------------------------------|

|--------5------------------------|-3-----------------------------------|
|-3------3----------------3-------|-1-------------1----1---1----1---1---|
|---------------------------------|-------------------------------------|


|-15p12-------19p15-------|-20p17s15------22-19-------|-22b(24)~-----|---------|
|-------12----------19-15-|---------17-15-------22-20-|--------------|---------|
|----------12-------------|---------------------------|--------------|---------|
|-------------------------|---------------------------|--------------|---------|
|-------------------------|---------------------------|--------------|---------|
|-------------------------|---------------------------|--------------|---------|
|
|-12-p7-------15p10-------|-15--p12-------17p14-------|-15~----------|---------|
|-------8-----------12----|---------13----------15----|--------------|---------|
|----------9-----------12-|------------12----------14-|--------------|---------|
|-------------------------|---------------------------|--------------|---------|
|-------------------------|---------------------------|--------------|---------|
|-------------------------|---------------------------|--------------|---------|
|
|-------------------------|---------------------------|--------------|---------|
|-------------------------|---------------------------|--------------|---------|
|-------------------------|-5-------------7-----------|-9------------|---------|
|-2-----------5-----------|-5-------------7-----------|-9------------|---------|
|-2-----------5-----------|-3-------------5-----------|-7------------|---------|
|-0-----------3-----------|---------------------------|--------------|---------|

  (2 leads)
|-------------------------|---------------------------|--------------|-10\-----|
|-10--b(12)-10---8-----8--|-10--b(12)-10---8h10p8-----|-8---10--8-10-|-12\-----|
|-11--b(12)-11---9--11-9--|-11--b(12)-11---9h11p9-11--|-9---11--9-11-|---------|
|-------------------12----|-----------------------12--|--------------|---------|
|-------------------------|---------------------------|--------------|---------|
|-------------------------|---------------------------|--------------|---------|
|
|-------------------------|---------------------------|--------------|---------|
|-------------------------|---------------------------|--------------|---------|
|-5-----------------------|-7-------------------------|-9------------|---------|
|-5-----------------------|-7-------------------------|-9------------|---------|
|-3-----------------------|-5-------------------------|-7------------|---------|
|-------------------------|---------------------------|--------------|-------2-|

  (1 lead)                                            (2 leads)
|-19p15----------------15-|-------------------------|-/15\-/17\-/19\|/24\-----|
|-------15----------15----|----------15-------------|-/17\-/19\-/20\|/24\-----|
|----------16----16-------|-------14----14----------|---------------|---------|
|-------------17----------|-12h16----------16-12----|---------------|---------|
|-------------------------|-------------------------|---------------|---------|
|-------------------------|-------------------------|---------------|---------|
|
|-------------------------|-------------------------|---------------|---------|
|-------------------------|-------------------------|---------------|---------|
|-------------------------|-7-----------------------|-9-------------|---------|
|-5-----------------------|-7-----------------------|-9-------------|---------|
|-5-----------------------|-5-----------------------|-7-------------|---------|
|-3-----------------------|-------------------------|---------------|---------|

 (keyboards)
Riff D
|----------------|----------------|----------------|----------------|
|----------------|----------------|----------------|----------------|
|-9--------------|----------------|----------------|----7---9-------|
|-9--------------|----------------|----------------|----7---9-------|
|-7--------------|----------------|----------------|----5---7-------|
|----------------|----------------|----------------|----------------|

 w/Riff D
 Riff E (2 gtrs)
|-7-0-8--0-7-0-10-0-|-8--0-7-0-5-0-8--0-|-7-0-5-0-3-0-7-0-|-5-0-2-3-0-------|
|-8-0-10-0-8-0-12-0-|-10-0-8-0-7-0-10-0-|-8-0-7-0-5-0-8-0-|-7-0-4-5-0-------|
|-------------------|-------------------|-----------------|-----------------|
|-------------------|-------------------|-----------------|-----------------|
|-------------------|-------------------|-----------------|-----------------|
|-------------------|-------------------|-----------------|-----------------|

 w/Riff E
|-------------------|-------------------|-----------------|-----------------|
|-------------------|-------------------|-----------------|-----------------|
|*------------------|-------------------|-----------------|---------9------*|
|*------------------|-------------------|-----------------|-----7---9------*|
|-------------------|-------------------|-----------------|-----5---7-------|
|-0---0------0-0-0--|-0---0------0-0-0--|0---0-----0-0-0--|-0---------------|

 Riff F
 B5                              B5    E5                              E5
|-----------------|------------------|-----------------|-------------------|
|-4-0-7-0-4-0-7-0-|-7-0-10-0-8-0-7-0-|-5-0-8-0-5-0-8-0-|-8-0-12-0-10-0-8-0-|
|-----------------|------------------|-----------------|-------------------|
|-----------------|------------------|-----------------|-------------------|
|-----------------|------------------|-----------------|-------------------|
|-----------------|------------------|-----------------|-------------------|

  B5                                   B5      /D#       E5
|-----------------|------------------|-8---------------|-------------------|
|-4-0-7-0-4-0-7-0-|-7-0-10-0-8-0-7-0-|---------4-------|-5-----------------|
|-----------------|------------------|-----------------|-------------------|
|-----------------|------------------|-----------------|-------------------|
|-----------------|------------------|-----------------|-------------------|
|-----------------|------------------|-----------------|-------------------|

 w/Riff F, single B
|-------------------|---------------------|-------------------|
|-7-0-10-0-7-0-10-0-|-10-0-13-0-12-0-10-0-|-8-0-12-0-8-0-12-0-|
|-------------------|---------------------|-------------------|
|-------------------|---------------------|-------------------|
|-------------------|---------------------|-------------------|
|-------------------|---------------------|-------------------|

                                       B5      /D#       E5
|---------------------|-------------------|---------------------|-5--2--|-3----|
|-12-0-15-0-13-0-12-0-|-7-0-10-0-7-0-10-0-|-10-0-13-0-12-0-10-0-|-------|------|
|---------------------|-------------------|---------------------|-------|------|
|---------------------|-------------------|---------------------|-------|------|
|---------------------|-------------------|---------------------|-------|------|
|---------------------|-------------------|---------------------|-------|------|

w/Riff F
  B5                                        E5
|-------------------|---------------------|-------------------|
|-7-0-10-0-7-0-10-0-|-10-0-13-0-12-0-10-0-|-8-0-12-0-8-0-12-0-|
|-------------------|---------------------|-------------------|
|-------------------|---------------------|-------------------|
|-------------------|---------------------|-------------------|
|-------------------|---------------------|-------------------|

  B5
|---------------------|-------------------|---------------------|
|-12-0-15-0-13-0-12-0-|-7-0-10-0-7-0-10-0-|-10-0-13-0-12-0-10-0-|
|---------------------|-------------------|---------------------|
|---------------------|-------------------|---------------------|
|---------------------|-------------------|---------------------|
|---------------------|-------------------|---------------------|

                                      E5
|-----------------------------------|-12----------------|
|--------------------------12-13-15-|-------------------|
|-----------------11-12-14----------|-------------------|
|---------9-10-12-------------------|-------------------|
|-9-10-12---------------------------|-------------------|
|-----------------------------------|-------------------|

                    B5                  E5
|-20-19-17----------22-20-19----------|-24--------------|
|----------20-19-17----------22-20-19-|-----------------|
|-------------------------------------|-----------------|
|-------------------------------------|-----------------|
|-------------------------------------|-----------------|
|-------------------------------------|-----------------|

-----------------------------------------------------------------------------

6. Black Widow

Tune down one whole step :  D G C F A D
4/4 time
tempo: 190

          Riff 1
|---------|------------------|-----------------|------------------|-----------------------|
|---------|------------------|-----------------|------------------|-----------------------|
|---------|------------------|-----------------|------------------|-----------------------|
|---------|---9-------9------|---9---9-8----9--|-------9-------9--|-----------12/11/12----| G1
|---------|---7-------7------|---7-------10-7--|-------7-------7--|-----------10/9 /10----|
|-0--15/--|-0---0-0-0---0-0--|-0---0-----------|-0-0-0---0-0-0----|-0-0-0-0-0----------0--|

                                                                 end Riff 1
|------------------|----------------|----------------|---------------------|
|------------------|----------------|----------------|---------------------|
|------------------|----------------|----------------|---------------------|
|---9-------9------|---9---9-8-5-9--|-------9--------|---2-----2--4--------|  G1
|---7-------7------|---7---------7--|-------7-----3--|-5---5---------------|
|-0---0-0-0---0-0--|-0---0----------|-0-0-0---0-0----|---------------0-(0)-|
|
|------------------|----------------|----------------|---------------------|
|------------------|----------------|----------------|---------------------|
|------------------|----------------|----------------|---------------------|
|------------------|----------------|----------------|---------------------|  G2
|------------------|----------------|-------------7--|-9-10-9--10-12-------|
|------------------|----------------|----------------|---------------0-(0)-|

G1 plays Riff 1
||-------------------|-----------------|------------------|-----------------------|
||*------------------|-----------------|------------------|-----------------------|
||-------------------|-------9-8-------|------------------|-----------------------|
||----9-------9------|---9-------10-9--|-------9-------9--|-----------12/11/12----|  G2
||*---7-------7------|---7----------7--|-------7-------7--|-----------10/9-/10----|
||--0---0-0-0---0-0--|-0---0-----------|-0-0-0---0-0-0----|-0-0-0-0-0----------0--|

                                                     1.
|------------------|-----------------|---------------|--------------------||
|------------------|-----------------|---------------|-------------------*||
|------------------|-------9-8-------|---------------|--------------------||
|---9-------9------|---9-------10-9--|-------9-------|--------------------|| G2
|---7-------7------|---7----------7--|-------7-----7-|-9-10-9-10-12------*||
|-0---0-0-0---0-0--|-0---0-----------|-0-0-0---0-0---|--------------0-(0)-||

 2.
|------------------|------------|
|------------------|------------|
|------------------|------------|
|------------------|------------|  G2
|-9-10-9-10-12--2--|------------|
|---------------0--|------------|


||---------------|--------------|--------------|---------------------||
||*--------------|--------------|--------------|--------------------*||
||---------------|--------------|--------------|---------------------||
||----------9-10-|---------9-7--|---------9-10-|-----------9---------||  G1
||*---------7-8--|---------7-5--|---------7-8--|-7-10-9-7----7-9-10-*||
||--000--0-------|-000--0-------|-000--0-------|---------------------||
|
||---------------|--------------|--------------|---------------------||
||*--------------|--------------|--------------|--------------------*||
||---------------|--------------|--------------|---------------------||
||----------9-10-|---------9-7--|---------9-10-|---9--8------9-8-9---||  G2
||*---------7-8--|---------7-5--|---------7-8--|-7------10-7--------*||
||--000--0-------|-000--0-------|-000--0-------|---------------------||

 Riff 2
||-------------|---------------|-----------------|-----------------|-------------------||
||*--17--------|--------131313-|-131212---101010-|-10-8-8---7-10-7-|------------------*||
||-----16-12-9-|-10------------|-----------------|-----------------|--9-12-9---8-11-8--||
||-------------|---------------|-----------------|-----------------|-------------------|| G1
||*------------|---------------|-----------------|-----------------|------------------*||
||-------------|---------------|-----------------|-----------------|-------------------||
|
||-------------|---------------|-----------------|-----------------|-------------------||
||*------------|---------------|-----------------|-----------------|------------------*||
||-------------|---------------|-----------------|-----------------|-------------------||
||---9---------|-10------------|-9-------4-------|-5-------2-------|-4--------8--------|| G2
||*--7---------|-8-------------|-7-------2-------|-3-------0-------|-2--------6-------*||
||-------------|---------------|-----------------|-----------------|-------------------||
|(*) play the note the second time
||-------------|---------------|-----------------|-----------------|----7--------------||
||*--8(*)------|---------------|-----------------|----------7-10-7-|--8----8---7-10-7-*||
||-------------|---------------|---------8-8-8---|-8-9-9-----------|-------------------||
||---9---------|-15------------|-----------------|-----------------|-------------------|| G3
||*--7---------|---15-12---8---|-7---------------|-----------------|------------------*||
||-------------|---------------|-----------------|-----------------|-------------------||

          end Riff 2
|-------------------|---12-10-8-------------|--------------|--------------|
|-------------------|-8---------12-10-8-----|--------------|--------------|
|---9-12-9---8-11-8-|-------------------8---|-9------------|--------------|
|-------------------|-----------------------|--------------|--------------|  G1
|-------------------|-----------------------|--------------|--------------|
|-------------------|-----------------------|--------------|--------------|
|
|-------------------|-----------------------|--------------|--------------|
|-------------------|-----------------------|--------------|--------------|
|-------------------|-----------------------|--------------|--------------|
|-9--------4--------|-9----7----5-----4-----|---------9-10-|---------9-7--|  G2
|-7--------2--------|-7----5----3-----2-----|---------7-8--|---------7-5--|
|-------------------|-----------------------|-0-0-0-0------|-0-0-0-0------|


|--------------|--------------------|--------------|--------------|
|--------------|--------------------|--------------|--------------|
|--------------|--------------------|--------------|--------------|
|--------------|-----------9--------|---------9-10-|---------9-7--|  G1
|--------------|-7-10-9-7----7-9-10-|---------7-8--|---------7-5--|
|--------------|--------------------|--------------|--------------|
|
|--------------|--------------------|--------------|--------------|
|--------------|--------------------|--------------|--------------|
|--------------|--------------------|--------------|--------------|
|---------9-10-|---9--8------9-8-9--|---------9-10-|---------9-7--|  G2
|---------7-8--|-7------10-7--------|---------7-8--|---------7-5--|
|-0-0-0-0------|--------------------|-0-0-0-0------|-0-0-0-0------|



|--------------|--------------------||---------------|--------------|
|--------------|--------------------||*--------------|--------------|
|--------------|--------------------||---------------|--------------|
|---------9-10-|-----------9--------||----------9-10-|---------9-7--|  G1
|---------7-8--|-7-10-9-7---7-9-10--||*---------7-8--|---------7-5--|
|--------------|--------------------||--0-0-0-0------|-0-0-0-0------|
|
|--------------|--------------------||---------------|--------------|
|--------------|--------------------||*--------------|--------------|
|--------------|--------------------||---------------|--------------|
|---------9-10-|---9--8------9-8-9--||----------9-10-|---------9-7--|  G2
|---------7-8--|-7------10-7--------||*---------7-8--|---------7-5--|
|-0-0-0-0------|--------------------||--0-0-0-0------|-0-0-0-0------|



|--------------|---------------------------|||---------------|--------------|
|--------------|--------------------------*|||*--------------|--------------|
|--------------|---------------------------|||---------------|--------------|
|---------9-10-|-----------9---------------|||----------9-10-|---------9-7--|  G1
|---------7-8--|-7-10-9-7----7-7-9-9-10-10*|||*---------7-8--|---------7-5--|
|-0-0-0-0------|---------------------------|||--000--0-------|-000--0-------|
|
|--------------|---------------------------|||---------------|--------------|
|--------------|--------------------------*|||*--------------|--------------|
|--------------|---------------------------|||---------------|--------------|
|---------9-10-|---9-8-------9-9-8-8-9--9--|||----------9-10-|---------9-7--|  G2
|---------7-8--|-7------10-7--------------*|||*---------7-8--|---------7-5--|
|-0-0-0-0------|---------------------------|||--000--0-------|-000--0-------|



|--------------|---------------------|||---------------|--------------|
|--------------|--------------------*|||*--------------|--------------|
|--------------|---------------------|||---------------|--------------|
|---------9-10-|-----------9---------|||------------7--|--------------|  G1
|---------7-8--|-7-10-9-7----7-9-10-*|||*-4-4-------5--|-----------7--|
|-000--0-------|---------------------|||--2-2-2-2-2----|-2-2-2-2-2-5--|
|
|--------------|---------------------|||---------------|--------------|
|--------------|--------------------*|||*--------------|--------------|
|--------------|---------------------|||---------------|---------4-6--|
|---------9-10-|---9--8------9-8-9---|||--4-4-7-6---4--|-4---6-7------|  G2
|---------7-8--|-7------10-7--------*|||*---------7----|--------------|
|-000--0-------|---------------------|||---------------|--------------|



|--------------|----------------|--------------|--------------|--------------|
|--------------|----------------|--------------|--------------|--------------|
|--------------|----------------|--------------|--------------|--------------|
|--------------|----------------|-----------7--|--------------|--------------| G1
|-----------7--|-------7---6----|-4-4-------5--|-----------7--|-----------7--|
|-5-5-5-5-5-4--|-4-4-4-5---4----|-2-2-2-2-2----|-2-2-2-2-2-5--|-5-5-5-5-5-4--|
|
|--------------|----------------|--------------|--------------|--------------|
|--------------|---5---7---5----|--------------|--------------|--------------|
|-6-6-6-4---4--|-4---4---4---4--|--------------|---------4-6--|-6-6-6-4---4--|
|---------7----|----------------|-4-4-7-6---4--|-4---6-7------|---------7----| G2
|--------------|----------------|---------7----|--------------|--------------|
|--------------|----------------|--------------|--------------|--------------|


                   Riff 3
|----------------||------------|----------------|------------|-----------------------------|
|---------------*||------------|----------------|------------|-----------------------------|
|----------------||------------|-----11119-9----|-------4-6--|-----------------------------|
|-------7---9----||-5-5---7-9--|-9-9-9-9-9-9-9--|-5-5---2-4--|-4-4-4-4-4-4-4-4-4-4-4-4-4-4-|G1
|-------5---7---*||-3-3-5-5-7--|-7-7---------7--|-3-3-3------|-----------------------------|
|-4-4-4----------||------------|----------------|------------|-----------------------------|
|
|----------------||------------|----------------|------------|-----------------------------|
|---5---7---5---*||------------|----------------|------------|-----------------------------|
|-4---4---4---4--||------------|----------------|------------|-----------------------------|
|----------------||-5-5---7-9--|----------------|-5-5--------|-----------------------------|G2
|---------------*||-3-3-5-5-7--|-7-7-7-7-7-7-7--|-3-3---2-4--|-----------------------------|
|----------------||------------|----------------|-----0-0-2--|-2-2-2-2-2-2-2-2-2-2-2-2-2-2-|


                                                  end Riff 3
|-------------|----------------|------------------|---------|
|-------------|----------------|------------------|---------|
|-------------|----------------|------------------|---------|
|-5-5-------4-|----------------|--------5------4--|(4)------|  G1
|-3-3-----4-2-|-2-2-2-2-2-2-2--|-2------3------2--|(2)------|
|------0--2---|----------------|-0----------------|---------|
|
|-------------|----------------|------------------|---------|
|-------------|----------------|------------------|---------|
|-------------|----------------|------------------|---------|
|-5-5-5-----4-|----------------|--------7-9-10-9--|(9)------|  G2
|-3-3-3---4-2-|-2-2-2-2-2-2-2--|-7-9-10-----------|---------|
|------0--2---|----------------|------------------|---------|

Riff 2 (G1,G2,G3)

|---12-10-8------------|---14-12-10-------------|--------|--------|-------|--------|
|-8---------12-10-8----|------------14-12-10----|--------|--------|-------|--------|
|-------------------11-|-9-------------------13-|-3----3-|-4----4-|3----3-|-4------|
|----------------------|------------------------|-4----4-|-4----4-|4----4-|-4------| G1
|----------------------|------------------------|--------|--------|-------|--------|
|----------------------|------------------------|--------|--------|-------|--------|
|
|----------------------|------------------------|--------|--------|-------|--------|
|----------------------|------------------------|--------|--------|-------|--------|
|----------------------|------------------------|-3----3-|-4----4-|3----3-|4-------|
|-9----7----5-----4----|-11---9-----7-----6-----|-4----4-|-4----4-|4----4-|4-------|  G2
|-7----5----3-----2----|-9----7-----5-----4-----|--------|--------|-------|--------|
|----------------------|------------------------|--------|--------|-------|--------|


                                       x4                                      x3
||-141214151412-----|---------------12-|||-141214151412-----|---------------12-||
||*------------1514-|-12--1214121415--*|||*------------1514-|-12--1214121415--*||
||------------------|---15-------------|||------------------|---15-------------||
||------------------|------------------|||------------------|------------------||  G1
||*-----------------|-----------------*|||*-----------------|-----------------*||
||------------------|------------------|||------------------|------------------||
|
||------------------|------------------|||------------------|------------------||
||*-----------------|-----------------*|||*-----------------|-----------------*||
||------------------|------------------|||------------------|------------------||
||-4-2-4-5-4-2------|---------------2--|||-4-2-4-5-4-2------|---------------2--||  G2
||*------------5-4--|-2-2-2-2-2-4-5---*|||*------------5-4--|-2-2-2-2-2-4-5---*||
||------------------|------------------|||------------------|------------------||
                                        |
                                        ||-9-------9-----9--|-10--9-10----9----||
                                        ||*--121112---1112--|---12----1211--11*||
                                        ||------------------|------------------||
                                        ||------------------|------------------||  G3
                                        ||*-----------------|-----------------*||
                                        ||------------------|------------------||


|-14-141210----------10-|-13---|-10-----|-------------------|-------||-----------------|
|----------12------12---|------|---1310-|-1213tr~--1012tr~--|-9-----||*----------------|
|------------11--11-----|------|--------|-------------------|-------||--------------5--|
|--------------12-------|------|--------|-------------------|-------||--2-----------3--| G1
|-----------------------|------|--------|-------------------|-------||*-0-0-0-0-0-0----|
|-----------------------|------|--------|-------------------|-------||-----------------|
|
|-----------------------|------|--------|-------------------|-------||-----------------|
|-----------------------|------|--------|-------------------|-------||*----------------|
|-----------------------|------|--------|-------------------|-------||--------------5--|
|-4---------------------|-10---|-7------|-9-----------------|-------||*-2-----------3--| G2
|-----------------------|-8----|-5------|-7-----------------|-2-----||--0-0-0-0-0-0----|
|-----------------------|------|--------|-------------------|-0-----||-----------------|
|
|-----------------------|------|--------|-------------------|-------|
|-----------------------|------|--------|-------------------|-------|
|-----------------------|------|--------|-------------------|-------|
|-4---------------------|-10---|-----7--|-6-7tr~----------/-|-9-----| G3
|-----------------------|-8----|-8-8----|-------------------|-------|
|-----------------------|------|--------|-------------------|-------|


|--------------|--------------|-------------|----------------|--------------|
|--------------|--------------|-------------|----------------|--------------|
|--------------|--------------|-------------|-------------5--|--------------|
|-----------5--|-----------4--|--------5-4--|-2-----------3--|-----------5--|  G1
|-0-0-0-0-0-3--|-3-3-3-3-3-2--|-2-2-2--3-2--|-0-0-0-0-0-0----|-0-0-0-0-0-3--|
|--------------|--------------|-------------|----------------|--------------|
|
|--------------|--------------|-------------|----------------|--------------|
|--------------|--------------|-------------|----------------|--------------|
|--------------|--------------|-------------|-------------5--|--------------|
|-----------5--|-----------7--|-------------|-2-----------3--|-----------5--|  G2
|-0-0-0-0-0-3--|-7-7-7-7-7-5--|-5-5-5--7-5--|-0-0-0-0-0-0----|-0-0-0-0-0-3--|
|--------------|--------------|-------------|----------------|--------------|



|--------------|-------------||
|--------------|------------*||
|--------------|--------5-7--||
|-----------4--|--------3-5--|| G1
|-3-3-3-3-3-2--|-2-2-2------*||
|--------------|-------------||
|
|--------------|-------------||
|--------------|------------*||
|--------------|--------5-7--||
|-----------7--|--------3-5--|| G2
|-7-7-7-7-7-5--|-5-5-5------*||
|--------------|-------------||


G1 play riff 3
|------------|----------------|--------------|-----------------------------|
|------------|----------------|--------------|-----------------------------|
|------------|----------------|---------4--3-|-3-3-3-3-3-3-3-4-4-4-4-4-4-4-|
|-5-5---7-9--|----------------|-5-5-----2--4-|-----------------------------|G2
|-3-3-5-5-7--|-7-7-7-7-7-7-7--|-3-3--3-------|-----------------------------|
|------------|----------------|--------------|-----------------------------|


|-------------|----------------|------------------|---------|
|-------------|----------------|------------------|---------|
|-------------|----------------|------------------|---------|
|-5-5-5-----4-|----------------|--------7-9-10-9--|(9)------|  G2
|-3-3-3---4-2-|-2-2-2-2-2-2-2--|-7-9-10-----------|---------|
|------0--2---|----------------|------------------|---------|
1.


 Riff 4 (for G1 only)                     1.
||-------------------|------------------|----------------|----------------------||
||*------------------|------------------|----------------|---------------------*||
||-------------------|---------9-8------|----------------|----------------------||
||------9-------9----|-----9--------109-|-------9-----9--|--------------121112--|| G1
||*-----7-------7----|-----7----------7-|-------7-----7--|--------------109-10-*||
||--0-0---0-0-0---0--|-0-0---0----------|-0-0-0---0-0----|-0-0-0-0-0-0----------||
|
||--1215151414----12-|-15151415b(17)1412|-15151414-------|----------------------||
||*-----------1515---|------------------|---------15-----|-----------22--------*||
||-------------------|------------------|----------------|-----19--19-----------||
||-------------------|------------------|----------------|---17--17-------------|| G2
||*------------------|------------------|-------------15-|---------------------*||
||-------------------|------------------|----------------|----------------------||
|
||--1519191717----15-|-19191719b(21)1715|-19191717-------|-----------21---------||
||*-----------1919---|------------------|---------19-----|-----20--20----------*||
||-------------------|------------------|----------------|---19--19-------------||
||-------------------|------------------|-------------17-|----------------------|| G3
||*------------------|------------------|----------------|---------------------*||
||-------------------|------------------|----------------|----------------------||

2.            end Riff 4 of G1
|----------------|------------|----|--|----|--|----|--|----|--|----|
|----------------|------------|----|--|----|--|----|--|----|--|----|
|----------------|------------|----|--|----|--|----|--|----|--|----|
|-------9--------|------------|----|--|-5--|--|----|--|-7--|--|----| G1
|-------7-----7--|-9-109-1012-|-2--|--|-3--|--|-2--|--|-5--|--|-2--|
|-0-0-0---0-0----|------------|-0--|--|----|--|-0--|--|----|--|-0--|
|
|-15151414----15-|-1412--1214-|----|--|----|--|----|--|----|--|----|
|---------15-----|-----15-----|----???????SOLO????????|----|--|----|
|----------------|------------|----|--|----|--|----|--|----|--|----|
|----------------|------------|----???????SOLO?????????----|--|----| G2
|----------------|------------|----|--|----|--|----|--|----|--|----|
|----------------|------------|----|--|----|--|----|--|----|--|----|
|                              G3 plays Riff 4
|-19191717----19-|-1715--1517-|----|--|----|--|----|--|----|--|----|
|---------19-----|-----19-----|----|--|----|--|----|--|----|--|----|
|----------------|------------|----|--|----|--|----|--|----|--|----|
|----------------|------------|----|--|----|--|----|--|----|--|----| G3
|----------------|------------|----|--|----|--|----|--|----|--|----|
|----------------|------------|----|--|----|--|----|--|----|--|----|

|--|--|------|
|--|--|------|
|--|--|------|
|--|--|---9--| G1
|--|--|-9-7--|
|--|--|-7----|

-----------------------------------------------------------------------------

7. Wrath Within

Guitar fills and solos
Tab by Siroa : death_50@hotmail.com


D||------|------|-------------------|-------------------|
A||------|------|-------------------|-------------------|
F||------|------|-------------------|-------------------|
C||------|------|----------9/-------|-------------------|
G||------|------|-------------------|--9/---------------|
D||------|------|-------------------|-------------------|

---------------------------|-------------------|----------------------------|
---------------------------|-------------------|---------------------10-----|
------------------------8--|------8------------|-------------------------6--|
-----7--8--10--8--7--6-----|-------------------|-----7--8--10--8--7---------|
--0------------------------|-------------------|--0-------------------------|
---------------------------|-------------------|----------------------------|

-------------------|---------------------------|------------------|
-------------------|---------------------------|------------------|
------6------------|------------------------8~-|------------------|
-------------------|-----7--8--10--8--7--6-----|------------------|
-------------------|--0------------------------|------------------|
-------------------|---------------------------|------------------|

---------------------------|---------------------|---------------------------|
---------------------------|---------------------|---------------------------|
---------------------------|---------------------|------------------------8--|
-----7--9--10--9--7--6--6~-|--------------6/-18/-|-----7--9--10--9--7--6-----|
--0------------------------|---------------------|--0------------------------|
---------------------------|---------------------|---------------------------|

-------------------|----------------------------|-------------------|
-------------------|---------------------10-----|-------------------|
------8------------|-------------------------6--|------6------------|
-------------------|-----7--9--10--9--7---------|-------------------|
-------------------|--0-------------------------|-------------------|
-------------------|----------------------------|-------------------|

---------------------------|------------------|---------------------------|
---------------------------|------------------|---------------------------|
---------------------------|------------------|---------------------------|
-----7--9--10--9--7--6--5~-|------------------|-----7--9--10--9--7--6--6~-|
--0------------------------|------------------|--0------------------------|
---------------------------|------------------|---------------------------|

------------------|---------------------------|------------------------|
------------------|---------------------------|------------------------|
------------------|------------------------8--|------8--8--8--8--8--8--|
------------------|-----7--8--10--8--7--6-----|------------------------|
------------------|--0------------------------|------------------------|
------------------|---------------------------|------------------------|

----------------------------|-------------------|---------------------------|
---------------------10-----|-------------------|---------------------------|
-------------------------6--|------6------------|------------------------8~-|
-----7--8--10--8--7---------|-------------------|-----7--8--10--8--7--6-----|
--0-------------------------|-------------------|--0------------------------|
----------------------------|-------------------|---------------------------|

------------------|---------------------------|------|------|------|------|
------------------|---------------------------|------|------|------|------|
------------------|---------------------------|------|------|------|------|
------------------|-----7--9--10--9--7--6--6--|------|------|------|------|
------------------|--0------------------------|------|------|------|------|
------------------|---------------------------|------|------|------|------|

------|------|------|------|------|------|------|------|------|------|------|
------|------|------|------|------|------|------|------|------|------|------|
------|------|------|------|------|------|------|------|------|------|------|
------|------|------|------|------|------|------|------|------|------|------|
------|------|------|------|------|------|------|------|------|------|------|
------|------|------|------|------|------|------|------|------|------|------|

------|------|------|------|------|------|------|------|------|------|------|
------|------|------|------|------|------|------|------|------|------|------|
------|------|------|------|------|------|------|------|------|------|------|
------|------|------|------|------|------|------|------|------|------|------|
------|------|------|------|------|------|------|------|------|------|------|
------|------|------|------|------|------|------|------|------|------|------|

------|------|------|---------------------|--------------------------------|
------|------|------|---------------------|------------------------5-5-5-5-|
------|------|------|---------------------|-----------------4--4-4---------|
------|------|------|--5----4----5--------|--5-5-5-5-5--5-5----------------|
------|------|------|---------------------|--------------------------------|
------|------|------|---------------------|--------------------------------|

--------------------------------|------------------------------------|
-----------------5--5-5-8-8-8-8-|----------5--5-5-8--8-8-12-12-12-12-|
-------------4-4----------------|--4-4-4-4---------------------------|
--5-5-5-5-5---------------------|------------------------------------|
--------------------------------|------------------------------------|
--------------------------------|------------------------------------|

----------------------13--10--12~---|----------------------------------|
--8-8-8-8-12-12-12-12---------------|--------------------------5-5-5-5-|
------------------------------------|------------------4-4-4-4---------|
------------------------------------|--2-2-2-2-5-5-5-5-----------------|
------------------------------------|----------------------------------|
------------------------------------|----------------------------------|

----------------------------------|------|------|------|------|------|------|
------------------5-5-5-5-8-8-8-8-|------|------|------|------|------|------|
----------4-4-4-4-----------------|------|------|------|------|------|------|
--5-5-5-5-------------------------|------|------|------|------|------|------|
----------------------------------|------|------|------|------|------|------|
----------------------------------|------|------|------|------|------|------|

------|------|------|------|------|------|------|------|------|------|------|
------|------|------|------|------|------|------|------|------|------|------|
------|------|------|------|------|------|------|------|------|------|------|
------|------|------|------|------|------|------|------|------|------|------|
------|------|------|------|------|------|------|------|------|------|------|
------|------|------|------|------|------|------|------|------|------|------|

------|------|---------------------|----17----------------------|
------|------|--0/-------------16--|--------13------------------|
------|------|---------------------|------------14--------------|
------|------|---------------------|----------------13------13--|
------|------|---------------------|----------------------------|
------|------|---------------------|----------------------------|

------------------------------|--8-12-8---------8-12-10-14-10----------10-14-|
--------------13r-13----------|---------10---10---------------12----12-------|
--14--------------------14----|------------9---------------------11----------|
------13----------------------|----------------------------------------------|
----------12------------------|----------------------------------------------|
------------------------------|----------------------------------------------|

--12-17-12----------12-17-24----5/-17--|----17------17------17------17--|
-----------15----15--------------------|--------20b-----20b-----20b-----|
--------------14-----------------------|--------------------------------|
---------------------------------------|--------------------------------|
---------------------------------------|--------------------------------|
---------------------------------------|--------------------------------|

--20b---20--20r-----5/-12--|--13-12-10----------------10-12-13-15-13-12-10----|
---------------------------|-----------13-12-10-12-13----------------------13-|
---------------------------|--------------------------------------------------|
---------------------------|--------------------------------------------------|
---------------------------|--------------------------------------------------|
---------------------------|--------------------------------------------------|

--------------10-12-13-12/---------|------------------------------|
--12-10-12-13----------------------|--------------12/-13--13--15--|
-----------------------------------|--------7/-9------------------|
-----------------------------------|-----7------------------------|
--------------------------------5/-|--7---------------------------|
-----------------------------------|------------------------------|

----------------------------|--------------------------------------------------|
--15--15--13--12--13r-------|--------------------------------------------------|
----------------------------|-----------------------------------------------14-|
----------------------------|--------------------------14----------14-15-17----|
----------------------------|-----------------13-15-17----17-15-17-------------|
----------------------------|--17-15-13-15-17----------------------------------|

-----------------------------------15-17-19-20-22-|--24--------24~-------|
-----------------------15-18-17-18----------------|----------------------|
--16-14----14-17-16-17----------------------------|----------------------|
--------17----------------------------------------|----------------------|
--------------------------------------------------|----------------------|
--------------------------------------------------|----------------------|

--22b-20----------------------|--15----14--12--15----14----12----|
---------22-------------------|--18----17--15--18----17----15----|
-------------20--17b----------|----------------------------------|
------------------------------|----------------------------------|
------------------------------|----------------------------------|
---------------------15/------|----------------------------------|

--14------x--20-23-20----------|------|------|------|------|-------------------|
--17------x-----------21-------|------|------|------|------|-------------------|
----------x--------------20----|------|------|------|------|--5/---------------|
----------x--------------------|------|------|------|------|--5/---------------|
-------------------------------|------|------|------|------|-------------------|
-------------------------------|------|------|------|------|-------------------|

------|------|------|------|------|------|------|------|
------|------|------|------|------|------|------|------|
------|------|------|------|------|------|------|------|
------|------|------|------|------|------|------|------|
------|------|------|------|------|------|------|------|
------|------|------|------|------|------|------|------|

--12----------12----------12------|--19----------19--20------------|
------13----------13----------13--|------20--------------22--------|
----------14----------14----------|----------19--------------21----|
----------------------------------|--------------------------------|
----------------------------------|--------------------------------|
----------------------------------|--------------------------------|

--20----------------------20------|--19--15------19--17--------|
------22--------------22------22--|----------15----------------|
----------21------21--------------|----------------------------|
--------------22------------------|----------------------------|
----------------------------------|----------------------------|
----------------------------------|----------------------------|

--12----------12----------12------|--19----------19--20------------|
------13----------13----------13--|------20--------------22--------|
----------14----------14----------|----------19--------------21----|
----------------------------------|--------------------------------|
----------------------------------|--------------------------------|
----------------------------------|--------------------------------|

--20----------------------20------|--19--15------19--17-19-17-15-17----|
------22--------------22------22--|----------15------------------------|
----------21------21--------------|------------------------------------|
--------------22------------------|------------------------------------|
----------------------------------|------------------------------------|
----------------------------------|------------------------------------|

--------------------------13--10--12--13--12--10--|
--13--10--12--13--12--10--------------------------|
--------------------------------------------------|
--------------------------------------------------|
--------------------------------------------------|
--------------------------------------------------|

------------------------12--8--10--12--10--8--|
--12--8--10--12--10--8------------------------|
----------------------------------------------|
----------------------------------------------|
----------------------------------------------|
----------------------------------------------|

----------------------10--7--8--10--8--7/-|--16--------------------------------|
--10--6--8--10--8--6----------------------|------17--15--17--13--15--13--------|
------------------------------------------|------------------------------------|
------------------------------------------|------------------------------------|
------------------------------------------|------------------------------------|
------------------------------------------|------------------------------------|

--12----------12----------12------|--19----------19--20------------|
------13----------13----------13--|------20--------------22--------|
----------14----------14----------|----------19--------------21----|
----------------------------------|--------------------------------|
----------------------------------|--------------------------------|
----------------------------------|--------------------------------|

--20----------------------20----------------------|
------22--------------22------22--------------20--|
----------21------21--------------21------21------|
--------------22----------------------22----------|
--------------------------------------------------|
--------------------------------------------------|

--19------------------19--17--------|--12----------12----------12------|
------20----------------------------|------13----------13----------13--|
----------21------21----------------|----------14----------14----------|
--------------21--------------------|----------------------------------|
------------------------------------|----------------------------------|
------------------------------------|----------------------------------|

--19----------19--20------------|
------20--------------22--------|
----------19--------------21----|
--------------------------------|
--------------------------------|
--------------------------------|

-----------10-12-13-12-10-12-10----------------10-|
--10-12-13----------------------13-12-10-12-13----|
--------------------------------------------------|
--------------------------------------------------|
--------------------------------------------------|
--------------------------------------------------|

--12-13-15-13-12-10-----------------|--------------------------|
--------------------13-12-10--------|--------------------------|
------------------------------------|--------------------------|
------------------------------------|--9--------9--------9-----|
------------------------------------|--9--------9--------9-----|
------------------------------------|--7--7--7--7--7--7--7--7--|

------------------------|--------------------------|----------------------|
------------------------|--------------------------|----------------------|
------------------------|--------------------------|----------------------|
--7-----7----9----------|--9--------9--------9-----|--7----12----9--------|
--7-----7----9----------|--9--------9--------9-----|--7----12----9--------|
--5--5--5----7----7--7--|--7--7--7--7--7--7--7--7--|--5----10----7--------|

--------------------------|------------------------|
--------------------------|------------------------|
--------------------------|------------------------|
--9--------9--------9-----|--7----12----9----11----|
--9--------9--------9-----|--7----12----9----11----|
--7--7--7--7--7--7--7--7--|--5----10----7----9-----|

----------------------------------|---------------------|
----------------------------------|---------------------|
----------------------------------|-------9-------------|
--12----------12----------12------|--7----9----9--------|
--12----------12----------12------|--7----7----9--------|
--10--10--10--10--10--10--10--10--|--5---------7--------|

--------------------------|------------------------|--------------------------|
--------------------------|------------------------|--------------------------|
--9--------9--------9-----|--7-----7----9----------|--9--------9--------9-----|
--9--------9--------9-----|--7-----7----9----------|--9--------9--------9-----|
--7--7--7--7--7--7--7--7--|--5--5--5----7----7--7--|--7--7--7--7--7--7--7--7--|
--------------------------|------------------------|--------------------------|

----------------------|--------------------------|------------------------|
----------------------|--------------------------|------------------------|
--7----12----9--------|--9--------9--------9-----|--7-----7----9----------|
--7----12----9--------|--9--------9--------9-----|--7-----7----9----------|
--5----10----7--------|--7--7--7--7--7--7--7--7--|--5--5--5----7----7--7--|
----------------------|--------------------------|------------------------|

------|------|------|------|------|------|------|------|------|------|------|
------|------|------|------|------|------|------|------|------|------|------|
------|------|------|------|------|------|------|------|------|------|------|
------|------|------|------|------|------|------|------|------|------|------|
------|------|------|------|------|------|------|------|------|------|------|
------|------|------|------|------|------|------|------|------|------|------|

------|------|------|------|------|------|------|------|------|------|------||
------|------|------|------|------|------|------|------|------|------|------||
------|------|------|------|------|------|------|------|------|------|------||
------|------|------|------|------|------|------|------|------|------|------||
------|------|------|------|------|------|------|------|------|------|------||
------|------|------|------|------|------|------|------|------|------|------||

----------------------------------------------------------------------------

8. Children of Bodom 

Tune down one whole step
4/4 time, 204 bpm

 guitar 1          Riff A1
|-----------------|-----------------|-----------------|-----------------|
|-----------------|-----------------|-----------------|-----------------|
|-----------------|-----------------|---------------7-|-----7---6s7---7-|
|---------------9-|-----9---------9-|-----9---7h9---9-|-----9---9-----9-|
|---------------7-|---7-7-7-7-7-7-7-|---7-7-7-7---x---|-----------------|
|----/12\---------|-----------------|-----------------|---7---7-----7---|


|-----------------|-----------------|-----------------|-----------------|
|-----------------|-----------------|-----------------|-----------------|
|-----7---6s7---5-|-----5---4s5-----|-----------------|-----------------|
|-----9---9-----7-|-----7---6s7-----|-----5-------4---|-----0-2-3-2-----|
|-----------------|---------------3-|-3-3-3-3-5-5-5-5-|-----0-2-3-2-----|
|-7-7---7-----7---|---5---5-----x---|-----------------|-0-0---------0-0-|

      (end Riff A1) w/Riff A1
           2 gtrs  gtr.2
|-----------------|-----------------|-----------------|-----------------|
|-----------------|-----------------|-----------------|-----------------|
|-----------------|-----------------|-----------------|-----------------|
|-0-2-3-2---7---9-|-----------------|-----------------|-----------------|
|-0-2-3-2---5---7-|-----------------|-----------7-8-9-|-----------------|
|---------0---0---|-----------------|-----------5-6-7-|-----------------|


|-----------------|-----------------|-----------------|-----------------|
|-----------------|-----------------|-----------------|-----------------|
|-----------------|-----------------|-----------------|-----------------|
|-----------------|---------------5-|-------7-------9-|-----0-2-3-2-----|
|-----------9-8-7-|---------------3-|-------5-------7-|-----0-2-3-2-----|
|-----------7-6-5-|-----------------|-----------------|-0-0---------0-0-|

                   w/bar                          (lead)
|-----------------|-----------------|---------------0-|
|-----------------|-----------------|-------/17\------|
|---------------3-|-----/(5)----\3--|-----------------|
|-0-2-3-2---------|-----------------|-----------------|
|-0-2-3-2---------|-----------------|-----------------|
|---------0-0-0---|-----------------|-----------------|
|                                              (both rh. gtrs.)
|-----------------|-----------------|-----------------|
|-----------------|-----------------|-----------------|
|---------------6-|-----/(8)----\6--|-------/15\------|
|-0-2-3-2---------|-----------------|---------------9-|
|-0-2-3-2---------|-----------------|---------------7-|
|---------0-0-0---|-----------------|-----------------|

 w/Riff A1 (2 rhythm gtrs)
 Riff A2
|---14-15-0-14-12-0-10-|-12-12-0-10-12-10-------|------------------------|
|----------------------|------------------10-12-|---15-14-15-12-15-10-15-|
|*---------------------|------------------------|------------------------|
|*---------------------|------------------------|------------------------|
|----------------------|------------------------|------------------------|
|----------------------|------------------------|------------------------|


|-------------------------|-------------------0----|---0--------------|
|-12-15-14-15-12-15-14-10-|-12-13-12-10-12-10---8~-|------------5-7-5-|
|-------------------------|------------------------|-----4-7~---------|
|-------------------------|------------------------|------------------|
|-------------------------|------------------------|------------------|
|-------------------------|------------------------|------------------|

 1.               dive w/bar
|-----------------|--------------0--|
|-----------------|-----------------|
|-------------7-4-|----------------*|
|-----------------|----------------*|
|-----------------|-----------------|
|-----------------|-----------------|

  2.
|-----------------|-------------------|
|-(5)-------------|-------------------|
|-----------------|-------------------|
|-----------------|-------------------|
|-----------------|-------------------|
|-----------------|-------------------|
|
|-----------------|-------------------|
|-----------------|-------------------|
|-----------------|-------------------|
|-----0-2-3-2-----|-9-7-5-10-9-7----9-|
|-----0-2-3-2-----|--------------10-7-|
|-0-0---------0-0-|-------------------|
|
|-----------------|-------------------|
|-----------------|-------------------|
|-----------------|-------------------|
|-----0-2-3-2-----|--------7--------9-|
|-----0-2-3-2-----|-10-9-7---10-9-7-7-|
|-0-0---------0-0-|-------------------|

 Verse
|-----------------|-----------------|-----------------|-----------------|
|-----------------|-----------------|-----------------|-----------------|
|-----------------|-----------------|-----------------|-----------------|
|-----------------|---------------4-|-----------------|---------------2-|
|---7-7-7-7-7-7-7-|-7-7-7-7-7-7-7-2-|-2-2-2-2-2-2-2-2-|-2-2-2-2-2-2-2-0-|
|-----------------|-----------------|-----------------|-----------------|
|
|-----------------|-----------------|-----------------|-----------------|
|-----------------|-----------------|-----------------|-----------------|
|-----------------|-----------------|-----------------|-----------------|
|-(9)-------------|-----------------|-4---------------|-----------------|
|-(7)-------------|-----------------|-2---------------|-----------------|
|-----------------|-----------------|-----------------|-----------------|


|-----------------|-----------------|-----------------|-----------------|
|-----------------|-----------------|-----------------|-----------------|
|-----------------|-----------------|-----------------|-----------------|
|-----------------|-5-------7-------|-9---------------|-9-4---5---------|
|-0-0-0-0-0-0-0-0-|-3---3-3-5---5-5-|-7---7-7-7-7-7-7-|-7-2-x-3-x-------|
|-----------------|-----------------|-----------------|-----------3-3-2-|
|
|-----------------|-----------------|-----------------|-----------------|
|-----------------|-----------------|-----------------|-----------------|
|-----------------|-----------------|-----------------|-----------------|
|-2---------------|-5-------7-------|-9---------------|-9-4---5---------|
|-0---------------|-3-------5-------|-7---------7-7-7-|-7-2-x-3-x-------|
|-----------------|-----------------|-----------------|-----------3-3-2-|

 (both gtrs)
|-----------------|-----------------|-----------------|-----------------|
|-----------------|-----------------|-----------------|-----------------|
|-----------------|-----------------|-----------------|-----------------|
|-----------------|---------------4-|---4-------------|---------------2-|
|-2---------------|---------------2-|---2-2-2-2-2-2-2-|-2-2-2-2-2-2-2-0-|
|-0---0-0-0-0-0-0-|-0-0-0-0-0-0-0---|-----------------|-----------------|

                                                       (one guitar only)
|-----------------|-----------------|-----------------|-----------------|
|-----------------|-----------------|-----------------|-----------------|
|-----------------|-----------------|-----------------|-----------------|
|-2---------------|-5-------7-------|-9---------------|-----------------|
|-0---0-0-0-0-0-0-|-3-------5-------|-7---------------|-7---2---3---5---|
|-----------------|-----------------|-----------------|-----------------|

 16th note tremolo picking (both)
|------------------|-----------------|-----------------|-----------------|
|------------------|-----------------|-----------------|-----------------|
|*-----------------|-----------------|-7---------------|-----------------|
|*-9---------------|---------9-------|-----------------|-----------------|
|------------------|-10--------------|-----------------|-----------------|
|------------------|-----------------|-----------------|-----------------|
|                                     (2nd time)
|------------------|-----------------|-----------------|-----------------|
|------------------|-----------------|-----------------|-----------------|
|*-----------------|-----------------|-----------------|-----------------|
|*-----------------|-----------------|(9)--------------|-----------------|
|--7---------------|-----------------|-2---------------|-----------------|
|------------------|-----------------|-----------------|-----------------|

                                      1.
|-----------------|-----------------|-----------------|-----------------|
|-----------------|-----------------|-------------7---|-8---7-----------|
|-----------------|-----------------|-----7---9-------|---------9---7--*|
|-10--------------|-----------------|-----------------|----------------*|
|-----------------|-10------9-------|-7---------------|-----------------|
|-----------------|-----------------|-----------------|-----------------|
|
|-----------------|-----------------|-----------------|-----------------|
|-----------------|-----------------|-----------------|-----------------|
|-----------------|-----------------|-----------------|----------------*|
|(7)--------------|-----------------|-------------7---|-9---7----------*|
|-0---------------|-3-------5-------|-7---9---10------|---------10--9---|
|-----------------|-----------------|-----------------|-----------------|


|-----------------|-----------------|
|-----------------|-----------------|
|-----------------|-----------------|
|-------------7---|-9---------------|
|-7---9---10------|-----------------|
|-----------------|-----------------|
|
|-----------------|-----------------|
|-----------------|-----------------|
|-------------7---|-9ah-------------|
|-5---7---9-------|-----------------|
|-----------------|-----------------|
|-----------------|-----------------|


|-------------------------|-------------------------|-------------------------|
|-------------------------|-------------------------|-------------------------|
|-------------6-----------|-------------------------|-------------------------|
|-5-----------4-----5-----|-------------4-4-4-4-4-4-|-5-----------7-----------|
|-3---3-3-3-3-------3-----|-3-3-3-3-3-3-------------|-3-3-3-3-3-3-5-5-5-5-5-5-|
|-------------------------|-------------------------|-------------------------|
|
|-------------------------|-------------------------|-------------------------|
|-------------------------|-------------------------|-------------------------|
|-------------------------|-------------------------|-------------------------|
|-5-----------------------|-------------------------|-5-----------7-----------|
|-3-----------------------|-------------------------|-3-----------5-----------|
|-------------------------|-------------------------|-------------------------|


|-------------------------|-------------------------|-------------------------|
|-------------------------|-------------------------|-------------------------|
|-------------------------|-------------6-----------|-------------------------|
|-9-----------7-----------|-5-5-5-5-5-5-4-----5-5-5-|-5-5-5-5-5-5-8-8-8-8-8-8-|
|-7-7-7-7-7-7-5-5-5-5-5-5-|-------------------------|-------------------------|
|-------------------------|-------------------------|-------------------------|
|
|-------------------------|-------------------------|-------------------------|
|-------------------------|-------------------------|-------------------------|
|-------------------------|-------------6-----------|-------------------------|
|-9-----------7-----------|-------------4-----5-----|-------------4-4-4-4-4-4-|
|-7-----------5-----------|-3-3-3-3-3-3-------3-----|-3-3-3-3-3-3-------------|
|-------------------------|-------------------------|-------------------------|

                                           w/bar
|-------------------------|-------------------------|
|-------------------------|-------------------------|
|-------------------------|----------7-9-11ah\------|
|-5-5-5-5-5-5-7-7-7-7-7-7-|-7s9-9-10----------------|
|-------------------------|-------------------------|
|-------------------------|-------------------------|
|
|-------------------------|-------------------------|
|-------------------------|-------------------------|
|-------------------------|-------------------------|
|-3-----------5-----------|-9-----------7-----------|
|-3-3-3-3-3-3-5-5-5-5-5-5-|-7-7-7-7-7-7-5-5-5-5-5-5-|
|-------------------------|-------------------------|

  Riff B (upper part)                                 1.
|-------------------------|-------------------------|-------------------------|
|-------------------------|-------------------------|-------------------------|
|*------------------------|-------------------------|-------------------------|
|*9-----------7-----9-----|-------------------------|-5-----------------------|
|-7-7-7-7-7-7-5-----7-----|-7-7-7-7-7-7-5-5-5-5-5-5-|-3-----------5-----------|
|-------------------------|-------------------------|-------------3-----------|
|
|-------------------------|-------------------------|-------------------------|
|-------------------------|-------------------------|-------------------------|
|*------------------------|-------------------------|-------------------------|
|*9-----------7-----9-----|-------------------------|-------------5-5-5-5-5-5-|
|-7-7-7-7-7-7-5-----7-----|-7-7-7-7-7-7-5-5-5-5-5-5-|-3-3-3-3-3-3-------------|
|-------------------------|-------------------------|-------------------------|

                            2.                                   (end Riff B)
|-------------------------| -------------------------|-------------------------|
|-------------------------| -------------------------|-------------------------|
|-------------------------| -------------------------|-------------------------|
|-7-----------9-----------| -5-----------------------|-4-----------------------|
|-5-----------7-----------| -3-----------5-----------|-2-----------2-----------|
|-------------------------| -------------3-----------|-------------0-----------|
|
|-------------------------| -------------------------|-------------------------|
|-------------------------| -------------------------|-------------------------|
|-------------------------| -------------------------|-------------------------|
|-------------------------| -------------------------|-------------------------|
|-5-5-5-5-5-5-7-7-7-7-7-7-| -3-3-3-3-3-3-------------|-2-2-2-2-2-2-------------|
|-------------------------| -------------3-3-3-3-3-3-|-------------0-0-0-0-----|

  Riff C (upper part)
|--------------------------|-------------------------------------|
|--------------------------|-------------------------------------|
|*-------------------------|-------------------------------------|
|*-11----------9-----11----|-------------------------------------|
|--9-9-9-9-9-9-7-----9-----|-9--9--9--9--9--9--7--7--7--7--7--7--|
|--------------------------|-------------------------------------|
|
|--------------------------|-------------------------------------|
|--------------------------|-------------------------------------|
|*-------------------------|-------------------9--9--9--9--9--9--|
|*-11----------9-----11----|-11-11-11-11-11-11-------------------|
|--9-9-9-9-9-9-7-----9-----|-------------------------------------|
|--------------------------|-------------------------------------|

 1.                                   2.                           (end Riff C)
|-----------------|-----------------| -----------------------|-----------------|
|-----------------|-----------------| -----------------------|-----------------|
|-----------------|----------------*| -----------------------|-----------------|
|-7---------------|-9-------11-----*| -7---------------------|-6---------------|
|-5-------7-------|-7-------9-------| -5-----------7---------|-4-------4-------|
|---------5-------|-----------------| -------------5---------|---------2-------|
|
|-----------------|-----------------| -----------------------|-----------------|
|-----------------|-9---10----------| -----------------------|-----------------|
|-11------9-------|---------11ah---*| -6-6-6-6-6-6-7----6----|-----------------|
|-----------------|----------------*| -----------------------|-9---6---4ah-----|
|-----------------|-----------------| -----------------------|-----------------|
|-----------------|-----------------| -----------------------|-----------------|

 (both)
|-------------------------|-------------------------|-------------------------|
|-------------------------|-------------------------|-------------------------|
|-------------------------|-------------------------|-------------------------|
|-------------------------|-------------------------|-------------------------|
|-------------------------|-------------------0-2-3-|-------------------------|
|-0-0-0-0-----0-0-0-0-----|-0-0-0-0-----0-2-3-------|-0-0-0-0-----0-0-0-0-----|

  (div.)                    (both)
|--------------------------|-------------------------|-------------------------|
|-------------------7-8-10-|-------------------------|-------------------------|
|-------------5-7-9-5-7-9--|-------------------------|-------------------------|
|-------5-7-9-5-7-9--------|-------------------------|-------------------------|
|-5-7-9-5-7-9--------------|-------------------------|-------------------------|
|-5-7-8--------------------|-0-0-0-0-----0-0-0-0-----|-0-0-0-0-----0-0-0-0-0-0-|

                                     (gtr1/gtr2) drop w/bar
|-------------------------|-------------------------|-------------------------|
|-------------------------|-------------------------|-------------------------|
|-------------------------|------------a2.3/a5---\--|--/----------------------|
|-------------------------|-------------------------|-------------------------|
|-------------------------|-------------------------|-------------------------|
|-0-0-0-0-----0-0-0-0-----|-0-0-0-0-----------------|-------0-0-0-0-----0-0-0-|

                           (div.)
|-------------------------|--------------------------|-------------8-----------|
|-------------------------|-------------------7-8-10-|-------7-----10----7-----|
|-------------------------|-------------5-7-9-5-7-9--|-8-----8-----------8-----|
|-------------------------|-------5-7-9-5-7-9--------|-10ah--------------------|
|-------------------0-2-3-|-5-7-9-5-7-9--------------|-------------------------|
|-0-----0-0-0-0-2-3-------|-5-7-8--------------------|-------------------------|

 Chorus
|-----------------------|-----------------------|-----------------------|
|--------------10-12----|-10--------------------|--------------10-12----|
|*9-11-12-9-12-------12-|----12-11---12-11-9----|-9-11-12-9-12-------12-|
|*----------------------|-----------------------|-----------------------|
|-----------------------|-----------------------|-----------------------|
|-----------------------|-----------------------|-----------------------|
|
|-----------------------|-----------------------|-----------------------|
|-----------------------|-----------------------|-----------------------|
|*5---------------------|-7----------9----------|-5---------------------|
|*5---------5-----------|-7----------9----------|-5---------5-----------|
|-3---------5-----------|-5----------7----------|-3---------5-----------|
|-----------3-----------|-----------------------|-----------3-----------|

  1.3.                       2.4.
|-10---------------------|  -----------------------|-----------------------|
|----13-12-10------------|  --------------12-10----|-----------------------|
|-------------12--------*|  -9-11-12-9-12-------12-|-12-------------------*|
|-----------------------*|  -----------------------|----------------------*|
|------------------------|  -----------------------|-----------------------|
|------------------------|  -----------------------|-----------------------|
|
|------------------------|  -----------------------|-----------------------|
|------------------------|  -----------------------|-----------------------|
|-4---------------------*|  -5---------------------|-8--------------------*|
|-4-----------2---------*|  -5---------5-----------|-8--------------------*|
|-2-----------2----------|  -3---------5-----------|-6---------------------|
|-------------0----------|  -----------3-----------|-----------------------|


|---------------------|-15s18-------18s21-------|-------------------------|
|---------------------|-------17----------20----|-------------------15-17-|
|---------------------|----------18----------21-|----15-------15----------|
|---------------------|-------------------------|-14----17-14----17-------|
|---------------------|-------------------------|-------------------------|
|---------------------|-------------------------|-------------------------|
|
|---------------------|-12s15-------15s18-------|-------------------------|
|---------------------|-------14----------17----|-------------------------|
|---------------------|----------15----------18-|-------------------------|
|---------------------|-------------------------|-17-14-------------------|
|---------------------|-------------------------|-------17-14/12-10-------|
|---------------------|-------------------------|-------------------10-12-|


w/Riffs A1 & A2


|--------------------|--------------------|
|--------------------|--------------------|
|--------------------|--------------------|
|--------------------|--------------------|
|--------------------|--------------------|
|--------------------|--------------------|

 tremolo picking
|-----------------|-----------------|-----------------|-----------------|
|-----------------|-----------------|-----------------|-----------------|
|-9---------------|-----------------|-4---------------|-----------------|
|-9---------------|-----------------|-4---------------|-----------------|
|-7---------------|-----------------|-2---------------|-----------------|
|-----------------|-----------------|-----------------|-----------------|

                                                         bar dive
|-17--------------|-15------14------|-12--------------|-15-\------------|
|-----------------|-----------------|-----------------|-----------------|
|-2---------------|-5-------7-------|-9---------------|-----------------|
|-2---------------|-5-------7-------|-9---------------|-----------------|
|-0---------------|-3-------5-------|-7---------------|-----------------|
|-----------------|-----------------|-----------------|-----------------|


|------------------|------------------|------------------|------------------|
|------------------|------------------|------------------|------------------|
|------------------|------------------|------------------|------------------|
|-9----------------|------------------|-4----------------|------------------|
|-7-77777777777777-|-7777777777777777-|-2-22222222222222-|-2222222222222222-|
|------------------|------------------|------------------|------------------|


|------------------|------------------|------------------|
|------------------|------------------|------------------|
|------------------|------------------|------------------|
|-2----------------|-5-------7--------|-9----------------|
|-0-22222222222222-|-3-3333335-555555-|-7-77777777777777-|
|------------------|------------------|------------------|


|---------------------------|
|---------------------------|
|-5-4-2-------7--5-4--------|
|-------5-4-2--------7--5-4-|
|---------------------------|
|---------------------------|
|
|---------------------------|
|---------------------------|
|-9-7-5-------11-9-7--------|
|-------9-7-5--------10-9-7-|
|---------------------------|
|---------------------------|


w/Riff B
|-12---------------14-------15-------|-19-17-15----------15-14-12----------|
|-15b(17)----------17b(19)--18b(20)--|----------19-17-15----------15-13-12-|
|------------------------------------|-------------------------------------|
|------------------------------------|-------------------------------------|
|------------------------------------|-------------------------------------|
|------------------------------------|-------------------------------------|
|
|-12---------------10-------12-------|-15-14-12----------------------------|
|-15b(17)----------13b(15)--15b(17)--|----------15-13-12-17-15-13----------|
|------------------------------------|----------------------------16-14-12-|
|------------------------------------|-------------------------------------|
|------------------------------------|-------------------------------------|
|------------------------------------|-------------------------------------|


|-------------12-15-------------------|-------------14-17/19p15-------------|
|----------13-------15p12----------12-|----------15-------------17----------|
|-12----12----------------12----12----|-------14-------------------16-------|
|----14----------------------12-------|----16-------------------------17-14-|
|-------------------------------------|-17----------------------------------|
|-------------------------------------|-------------------------------------|
|
|----------------12-------------------|----------------14-15----------------|
|-------------13----12----------------|-------------15-------17-------------|
|----------12----------12----------12-|----------14-------------16----------|
|-14----14----------------12----12----|-------16-------------------17-------|
|----15----------------------14-------|-12h17-------------------------19-14-|
|-------------------------------------|-------------------------------------|

Someone please tell me, how this goes...
|-------------------------|-17----17s19-24----0-----|
|----------------15----15-|----15-------------------|
|----------16-12----12----|-------------------------|
|-------14----------------|-------------------------|
|----14-------------------|-------------------------|
|-15----------------------|-------------------------|
|
|-------------------------|-------------19----------|
|-------------------------|-15----15s17-------------|
|----------------12----12-|----14-------------------|
|----------14-12----12----|-------------------------|
|-------14----------------|-------------------------|
|-12h15-------------------|-------------------------|


|-24-22-20----------------------------|----------------------------------------|
|----------24-22-20-------------------|----------------------------15s17-19-20-|
|-------------------23-21-19----------|----------------------17-19-------------|
|----------------------------22-21-19-|-------------17-19-21-------------------|
|-------------------------------------|-22-21-19-21----------------------------|
|-------------------------------------|----------------------------------------|
|
|-20-19-17----------------------------|-------------------------------------|
|----------20-19-17-------------------|----------------------------------17-|19
|-------------------19-17-16----------|-------------------------16-17-19----|
|----------------------------19-17-16-|----------------16-17-19-------------|
|-------------------------------------|-19-17-15-17-19----------------------|
|-------------------------------------|-------------------------------------|

 w/Riff C                              flutter w/bar
|-17------------v--16-----v-17-------|-16---17---24---21-----------------|
|------------------------------------|--------------------------------17-|
|------------------------------------|-----------------------------------|
|------------------------------------|-----------------------------------|
|------------------------------------|-----------------------------------|
|------------------------------------|-----------------------------------|
|
|-14------------v--12-----v-14-------|
|------------------------------------|
|------------------------------------|
|------------------------------------|
|------------------------------------|
|------------------------------------|


|---------------14-------14---------------------|----------------------------|
|-14---------14----17-14-------17b(19)----17-14-|----------------------------|
|----16b(18)------------------------------------|-16b(18)--16--14------------|
|-----------------------------------------------|------------------16~-------|
|-----------------------------------------------|----------------------------|
|-----------------------------------------------|----------------------------|


|-------------------------------------|----------------------------------16-|
|----------------------------19-------|-------------------------15-17-19----|
|-14-16-17-18-17-16-14-16-17----17-16-|-14-16-17-18-17-16-17-18-------------|
|-------------------------------------|-------------------------------------|
|-------------------------------------|-------------------------------------|
|-------------------------------------|-------------------------------------|


|-17p14----------14-21p17----------17-|-21-20-19-------------------19-21-22-|
|-------15----15----------17----17----|----------22-21-20-19-21-22----------|
|----------14----------------18-------|-------------------------------------|
|-------------------------------------|-------------------------------------|
|-------------------------------------|-------------------------------------|
|-------------------------------------|-------------------------------------|
|
|-14p10----------10-17p12----------12-|-------------------------------------|
|-------10----10----------14----14----|-17-16-15-14----------------15-17-19-|
|----------11----------------14-------|-------------17-16-14-16-18----------|
|-------------------------------------|-------------------------------------|
|-------------------------------------|-------------------------------------|
|-------------------------------------|-------------------------------------|

  dive
|-24----------------------------------|-\(22)-------------------------------|
|-------------------------------------|-------------------------------------|
|-------------------------------------|-------------------------------------|
|-------------------------------------|-------------------------------------|
|-------------------------------------|-------------------------------------|
|-------------------------------------|-------------------------------------|
|
|-15----------------------------------|-\(14)-------------------------------|
|-------------------------------------|-------------------------------------|
|-------------------------------------|-------------------------------------|
|-------------------------------------|-------------------------------------|
|-------------------------------------|-------------------------------------|
|-------------------------------------|-------------------------------------|
|
|-------------------------------------|-------------------------------------|
|-------------------------------------|-------------------------------------|
|-------------------------------------|-------------------------------------|
|-------------------------------------|-------------------------------------|
|-------------------------------------|-------------------------------------|
|-0--0--0--0--------0--0--0--0--------|-0--0--0--0--------0--0--0--0--0--0--|


Rhythm gtrs repeat previous 2 bars 10 times
On 9th time w/ this
|-----------------|-----------------|-----------------|-----------------|
|-----------------|-----------------|-----------------|-----------------|
|-----------------|-----------------|-----------------|-----------------|
|-----------------|-----------------|-----------------|----------5------|
|-7---------------|---------6-------|-3---------------|-----------------|
|-----------------|-----------------|-----------------|-----------------|


|-----------------|-----------------|-----------------|-----------------|
|-----------------|-----------------|-----------------|-----------------|
|-----------------|-----------------|-----------------|-----------------|
|-----------------|---------8-------|-11--------------|-----------------|
|-7---------------|-----------------|-----------------|-----------------|
|-----------------|-----------------|-----------------|-----------------|
|
|-----------------|-----------------|-----------------|-----------------|
|-----------------|-----------------|-----------------|-----------------|
|-----------------|-----------------|-----------------|-----------------|
|-----------------|---------2-------|-5---------------|-----------------|
|-----------------|---------1-------|-4---------------|-----------------|
|-000-0---000-0---|-000-0-----------|-----------------|-----------------|


Keyboards (8 bars)
 Riff D (upper part)
|-----------------|-----------------|-------8-7--------|----------7-------|
|-----------------|-------5---------|-----7-----10-8-7-|---7-8-10---------|
|-------5-4-------|-----4---7-5-4---|---8--------------|-9----------------|
|-----4-----7-5-4-|---5-----------7-|-9----------------|------------------|
|-2-6-------------|-7---------------|------------------|------------------|
|-----------------|-----------------|------------------|------------------|
|
|-----------------|-----------------|------------------|------------------|
|-----------------|-----------------|------------------|------------------|
|-----------------|-----------------|------------------|------------------|
|-4---------------|-9---------------|-4----------------|------------------|
|-2---------------|-7---------------|-2----------------|-2---5----5-------|
|-----------------|-----------------|------------------|-0---2----3-------|


|-----------------|-----------------|---------------------|-------------------|
|-----------------|-----------------|----------8-12-10-12-|-8-12----12--------|
|-----------------|-------5-4-------|-9-8-9-11------------|------11----9------|
|-----2-5-3-2-----|-----4-----7-5-4-|---------------------|-------------------|
|-0-3---------5-3-|-2-6-------------|---------------------|-------------------|
|-----------------|-----------------|---------------------|-------------------|
|
|-----------------|-----------------|---------------------|-------------------|
|-----------------|-----------------|---------------------|-------------------|
|-----------------|-----------------|---------------------|-------------------|
|-2---------------|-4---------------|---------------------|-------------------|
|-0---------------|-2---------------|---------------------|-------------------|
|-----------------|-----------------|---------------------|-------------------|

 w/Riff D
|-----------------|-----------------|-----------------|-----------------|
|-----------------|-----------------|-----------------|-----------------|
|-----------------|-----------------|-----------------|-----------------|
|-4-4-------------|-9-9-------------|-4-4-------------|-4---------------|
|-2-2-------------|-7-7-------------|-2-2-------------|-2-----5-----5---|
|-----------------|-----------------|-----------------|---0-0-2-2-2-3-3-|


|-----------------|-----------------|-----------------|-----------------|
|-----------------|-----------------|-----------------|-----------------|
|-2-----2-----2---|-4-----4-----4---|-----------------|-----------------|
|-2-----2-----2---|-4-----4-----4---|-----------------|-----4---2-------|
|-0-0-0-0-0-0-0-0-|-2-2-2-2-2-2-2-2-|---------2-3-2---|-----2---2-------|
|-----------------|-----------------|-3-2-3-5-------5-|-3-------0-------|


|-15s18-------18s21-------|-14-15-14----------------|
|-------17----------20----|----------17-16----------|
|----------18----------21-|----------------17-16-14-|
|-------------------------|-------------------------|
|-------------------------|-------------------------|
|-------------------------|-------------------------|
|
|-12s15-------15s18-------|-------------------------|
|-------14----------17----|-16-17-16----------------|
|----------15----------18-|----------17-16-14-------|
|-------------------------|-------------------17-16-|
|-------------------------|-------------------------|
|-------------------------|-------------------------|


Repeat Chorus 2 times;
on 2nd time play rhythm parts only


|-------------------------|-------------------------|
|-------------------------|-------------------------|
|-------------------------|-------------------------|
|-------------------------|-------------------------|
|-------------------0-2-3-|-------------------0-2-3-|
|-0--0--0--0--0-2-3-------|-0--0--0--0--0-2-3-------|
|
|-------------------------|-------------------------|
|-------------------------|-------------------------|
|-------------------------|-------------------------|
|-------------------------|-------------------------|
|-------------------------|-------------------------|
|-0--0--0--0--------------|-0--0--0--0--------------|


|-------------------------|--------------------------|
|-------------------------|-------------------7-8-10-|
|-------------------------|-------------5-7-9--------|
|-------------------------|-------5-7-9--------------|
|---------------------2-3-|/5-7-9--------------------|
|-0--0--0--0--0-2-3-5-----|--------------------------|
|
|-------------------------|--------------------5-7-8-|
|-------------------------|--------------5-7-8-------|
|-------------------------|--------4-5-7-------------|
|-------------------------|-4-5-7--------------------|
|-------------------3-5-7-|--------------------------|
|-0--0--0--0--3-5-7-------|--------------------------|


|-------------------------|-------------------------|
|-------------------------|-------------------------|
|-------------------------|-------------------------|
|-------------------------|-------------------------|
|-------------------0-2-3-|-------------------0-2-3-|
|-0--0--0--0--0-2-3-------|-0--0--0--0--0-2-3-------|
|
|-------------------------|-------------------------|
|-------------------------|-------------------------|
|-------------------------|-------------------------|
|-------------------------|-------------------------|
|-------------------------|-------------------------|
|-0--0--0--0--------------|-0--0--0--0--------------|

  (div.)
|--------------------------|-------------8-----------|
|-------------------7-8-10-|-------7-----10----7-----|
|-------------5-7-9-5-7-9--|-8-----8-----------8-----|
|-------5-7-9-5-7-9--------|-10ah--------------------|
|-5-7-9-5-7-9--------------|-------------------------|
|-5-7-8--------------------|-------------------------|


|-------------------------|
|-------------------------|
|-------------------------|
|-------------------2-----|
|-------------------2-----|
|-0-0-0-0-----0-0-0-0-----|

-----------------------------------------------------------------------------

9. Downfall

Children of Bodom 
Downfall
Hatebreeder

Tune all strings down one whole step
                                                    1.2.3.    4
D:------------------|------------------------------|---------|--------|
A:------------------|------------------------------|---------|--------|
F:------------------|------------------------------|---------|--------|
C:--0-0-12/-------7-|-10-----7-9--------7------7---|------7--|---10-9-|
G:-----------7-10---|----7-0-----7-0-10---0-10---0-|-7-10----|-7------|
D:------------------|------------------------------|---------|--------|
    . .                  . .     . .  .   . .    .   . .       .

|--------------------------------|
|--------------------------------|
|---------2---5---10--2---5------|
|-2---3---2---5---10--2---5---6--|X3
|-2---3---0---3---8---0---3---7--|
|-0---1--------------------------|

|-----------------||-----------------||-----------------||-----------------|
|-----------------||-----------------||-----------------||-----------------|
|-2------3-----2--||-3------------3--||-2------3-----2--||-3------------3--|
|-2------3--5--2--||-3------3--5--3--||-2------3--5--2--||-3------3--5--3--|
|-0--0-0-1--5--0--||-1--1-1-3--5--1--||-0--0-0-1--5--0--||-1--1-1-3--5--1--|
|-----------3-----||--------1--3-----||-----------3-----||--------1--3-----|
     . .                . .                . .                . .       

|-------------------------------||------------------|
|-------13-15-13h15p13----------||------------------|
|-14-16----------------16-12-14-||--2---5-------7---|x2
|-------------------------------||--2---5---5---7---|
|-------------------------------||--0---3---5---5---|
|-------------------------------||----------3-------|

|-------------------------------------------|
|---------------------------8~-----8~--10~--|
|---------7~-----7-9~---7-9------9----------|
|--7-9-10-----10----------------------------|
|-------------------------------------------|
|-------------------------------------------|
   . . .      .  .      . .      .   

|-16-------16-15---|-16------16-15----|--------------------|-16----16-15---|
|------18-------16-|------18-------16-|-18----18--20----20-|-----18-----16-|
|---17-------------|---17-------------|-----18--------20---|---17----------|
|------------------|------------------|---18--------20-----|---------------|
|------------------|------------------|--------------------|---------------|
|------------------|------------------|--------------------|---------------|

|-------------------------------------|------------------------------------|
|-------------------------------------|------------------------------------|
|-------------------------------------|------------------------------------|
|-7-7-7-7-8-8-------7-7----7-8-7----7-|-8-8-8-8-----------8-8-7-8-10-8-7-8-|
|-------------10-10-----10-------10---|---------8-8-10-10------------------|
|-------------------------------------|------------------------------------|
  . . . . . . .  .  . . .  . . . .  .   . . . . . . .  .  . . . . .  . . . 

|----------||-----|---------|--------|-------------|-----|---------|-------|
|----------||-----|---------|--------|-------------|-----|---------|-------|
|--10--10--||-7---|---------|-5------|-------------|-7---|---------|-------|
|--10--10--||-7---|-3-------|-5---5--|-----5-------|-7---|-3-------|-------|
|--8---8---||-5---|-3-------|-3---5--|-----5-------|-5---|-3-------|-x-7-5-|
|----------||-----|-1---1-1-|-----3--|-3-3-3---3-3-|-----|-1---1-1-|-------|

|----------|
|----------|
|---Solo---|
|----------|
|----------|

Solo

D:-----------------------------------1719201917------201917--------||
A:-17-19-20-22-20h22p20-19-17--171920----------201917------201917--||
F:-----------------------------------------------------------------||
G:-----------------------------------------------------------------||
C:-----------------------------------------------------------------||
D:-----------------------------------------------------------------||

D:----------20p17\17p14/20p17\17p14--||-14-15----14-15----/24-22--|
A:-17-19-20--------------------------||-------17-------17---------|
F:-----------------------------------||---------------------------|
G:-----------------------------------||---------------------------|
C:-----------------------------------||---------------------------|
D:-----------------------------------||---------------------------|

D:-------------------------|-------------------15----1517--151719-|
A:-17-19-20-22-20h22p20-19-|-131517151719151719--1719----19-------|
F:-------------------------|--------------------------------------|
G:-------------------------|--------------------------------------|
C:-------------------------|--------------------------------------|
D:-------------------------|--------------------------------------|

 |-2019171920232019171920232019171920232019171920232019b-|
 |-------------------------------------------------------|
 |-------------------------------------------------------|
 |-------------------------------------------------------|
 |-------------------------------------------------------|
 |-------------------------------------------------------|

D:-24222019-191715-191715-151412-151412-14121112-|
A:-----------------------------------------------|
F:-----------------------------------------------|
G:-----------------------------------------------|
C:-----------------------------------------------|
D:-----------------------------------------------|

D:-15-15----------------|-20-20---------------|
A:-------17-17----------|-------17-17---------|
F:-------------16-16----|-------------17-17---|
G:-------------------17-|------------------17-|
C:----------------------|---------------------|
D:----------------------|---------------------|

 1.
 |-19-17-15-19-17-15----17-15----15-17-19-|
 |-------------------19-------19----------|
 |----------------------------------------|
 |----------------------------------------|
 |----------------------------------------|
 |----------------------------------------|

 2.
 |-------1719201917-------------|-------|
 |-171920----------201917-------|-------|
 |-----------------------191716-|-------|
 |------------------------------|-19-17-|
 |------------------------------|-------|
 |------------------------------|-------|
comments
print report bad tab
6 comments total. Showing first comments.
0 reply
funeralforafrie wrote on November 26 2004, 12:00 am

Credit the tabs.

+1 reply
funeralforafrie wrote on November 27 2004, 12:00 am

Nice job :)

-1 reply
MISERYINDEXfan wrote on July 1 2007, 10:13 pm

they don tune whole step down its cgcfad

I want to post or [tab]
guest
You may want to rate the tab now too:
select rating
Please do not post tabs as comments. Select "correction" instead!