Oops, an error
Loading. Please wait.

Hatebreeder Bass Tab

798 views 1 this week
1 commentread comment
1 2 3 4 5
accurate
x 1
Autoscroll
+/-
esc
set tempo
stop
Contributor
WARNING: You are trying to view
                                    content from Ultimate-Guitar.com
                                    in an unauthorized application,
                                    which is prohibited.

                                    Please use an official Ultimate
                                    Guitar Tabs application for iPhone,
                                    iPad or Android to access legitimate
                                    chords, guitar, bass, and drum tabs
                                    from Ultimate-Guitar.com database.

                                    Type "ultimate guitar tabs" in Apple
                                    App Store's or Android Market's
                                    search to find the application.
Tune Down

F||-----------------------|------------------------|------------------------|
C||-----------------------|------------------------|------------------------|
G||-----------------2--1--|------------------------|------------------------|
D||--------------3--------|--0------------3--3--3--|--0------------7--3--2--|


                                                                               
-----------12--7--9--|--------------------------------------------------------|
---------------------|--------------------------------------------------------|
---------------------|--7-7-7-7-7-7-7-7-7-7-7-7-7-7-7-7-7-7-10-10-10-10-10-10-|
--0------------------|--------------------------------------------------------|


                                                   
--------------------------------------------------|
--------------------------------------------------|
--7-7-7-7-7-7-7-7-7-7-7-7-------------------------|
--------------------------7-7-7-7-7-7-7-7-7-7-7-7-|


                                                         
--------------------------------------------------------|
--------------------------------------------------------|
--7-7-7-7-7-7-7-7-7-7-7-7-7-7-7-7-7-7-10-10-10-10-10-10-|
--------------------------------------------------------|


                          
-------------------------|
-----------------1-------|
-----------3--2----------|
--0--2--3-----------0----|


                                                         
--------------------------------------------------------|
--------------------------------------------------------|
--7-7-7-7-7-7-7-7-7-7-7-7-7-7-7-7-7-7-10-10-10-10-10-10-|
--------------------------------------------------------|


                                                   
--------------------------------------------------|
--------------------------------------------------|
--7-7-7-7-7-7-7-7-7-7-7-7-------------------------|
--------------------------7-7-7-7-7-7-7-7-7-7-7-7-|


                                                         
--------------------------------------------------------|
--------------------------------------------------------|
--7-7-7-7-7-7-7-7-7-7-7-7-7-7-7-7-7-7-10-10-10-10-10-10-|
--------------------------------------------------------|


                                                       
-------------------------|----------------------------|
-----------------1-------|----------------------------|
-----------3--2----------|--3--3--3--3-3-5--5--5--5-5-|
--0--2--3-----------0----|----------------------------|


                                                                                
--------------------------------------------------|----------------------------|
--------------------------------------------------|----------------------------|
--7-7-7-7-7-7-7-7-7-6-6-6-7-7-7-7-7-7-7-7-7-6-6-6-|----------------------------|
--------------------------------------------------|--8--8--8--8-8-7--7--7--7-7-|


                                                                              
--9--9--9--9--------------|--------------------------------------------------|
--------------------------|--------------------------------------------------|
--------------7-----------|--------------------------------------------------|
-----------------7--3--0--|--5-5-5-5-5-5-8-8-8-7-7-7-5-5-5-5-5-5-4-4-4-7-7-7-|


                                                   
--------------------------------------------------|
--------------------------------------------------|
--------------------------------------------------|
--5-5-5-5-5-5-8-8-8-7-7-7-0-0-0-0-0-0-4-4-4-7-7-7-|


                                                   
--------------------------------------------------|
--------------------------------------------------|
--------------------------------------------------|
--5-5-5-5-5-5-8-8-8-7-7-7-5-5-5-5-5-5-4-4-4-7-7-7-|


                                                                   
-----------------------------||-----------------------------------|
-----------------------------||*----------------------------------|
-----------------------------||*----------------------------------|
--5-5-5-5-5-5-8-8-8-7-7-7-0--||---3-3-3-3-6-6-5-5-3-3-3-3-2-2-5-5-|


                                                                 
-----------------------------------||---------------------------|
----------------------------------*||---------------------------|
--------------------------3-3-6-6-*||---------------------------|
--3-3-3-3-6-6-5-5-2-2-5-5----------||--2--2-2--2-2--2--2-2-0----|


                                                        
---------------------------|---------------------------|
---------------------------|---------------------------|
---------------------------|---------------------------|
--2--2-2--2-2--2--2-2-0----|--2--2-2--2-2--2--2-2-0----|


                                                        
---------------------------|---------------------------|
---------------------------|---------------------------|
---------------------------|---------------------------|
--2--2-2--2-2--2--2-2-2----|--2--2-2--2-2--2--2-2-0----|


                                                        
---------------------------|---------------------------|
---------------------------|---------------------------|
---------------------------|---------------------------|
--2--2-2--2-2--2--2-2-0----|--2--2-2--2-2--2--2-2-0----|


                                
---------------------------5-8-|
---------------------5-7-9-----|
---------------6-7-9-----------|
--2--2-2--2-2------------------|


                                                           
|---------------------------------------------------------|
|*--------------------------------------------------------|
|*--7-7-7-7-7-7-7-7-7-7-7-7-7-7-7-7-7-7-10-10-10-10-10-10-|
|---------------------------------------------------------|


                                                   
--------------------------------------------------|
--------------------------------------------------|
--7-7-7-7-7-7-7-7-7-7-7-7-------------------------|
--------------------------7-7-7-7-7-7-7-7-7-7-7-7-|


                                                         
--------------------------------------------------------|
--------------------------------------------------------|
--7-7-7-7-7-7-7-7-7-7-7-7-7-7-7-7-7-7-10-10-10-10-10-10-|
--------------------------------------------------------|


                                                                               
--------------------------||--------------------------------------------------|
-----------------1-------*||--------------------------------------------------|
-----------0--2----------*||--7-7-7-7-7-7-3-3-3-3-3-3-0-0-0-0-0-0-------------|
--0--2--3-----------0-----||--------------------------------------2-2-2-2-2-2-|


                                                                         
---------------------|--------------------------------------------------|
---------------------|--------------------------------------------------|
--3----5----------7--|--------------------------------------------------|
------------0--7-----|--5-5-5-5-5-5-8-8-8-7-7-7-5-5-5-5-5-5-4-4-4-7-7-7-|


                                                   
--------------------------------------------------|
--------------------------------------------------|
--------------------------------------------------|
--5-5-5-5-5-5-8-8-8-7-7-7-0-0-0-0-0-0-4-4-4-7-7-7-|


                                                   
--------------------------------------------------|
--------------------------------------------------|
--------------------------------------------------|
--5-5-5-5-5-5-8-8-8-7-7-7-5-5-5-5-5-5-4-4-4-7-7-7-|


                                                                               
--------------------------------------------------|---------------------------|
--------------------------------------------------|---------------------------|
--------------------------------------------------|---0-0-0-0-----0-0-0-------|
--5-5-5-5-5-5-8-8-8-7-7-7-0-0-0-0-0-0-4-4-4-7-7-7-|---------------------1--3--|


                                                                          
----------------------|---------------------------|----------------------|
----------------------|---------------------------|----------------------|
---0-0-0-0------------|---0-0-0-0-----0-0-0-------|--0-0/-----------12---|
----------------------|---------------------1--3--|----------------------|


                                                            
|-----------------------------|----------------------------|
|*----------------------------|----------------------------|
|*----------------------------|----------------------------|
|---1--1-1--1-1--3--3-3--3-3--|--5--5-5--5-5--3--3-3--3-3--|


                                                                               
-----------------------------|-----------------------------||-----------------|
-----------------------------|----------------------------*||-----------------|
---------------3--3-3-5--5-5-|----------------------------*||-----------------|
--1--1-1--1-1----------------|--5--5-5--5-5--5--5-5--5-5---||--5--5-5--5-5--5-|


                                                                             
------|-----------------------------|----|-----------------------------|----|
------|-----------------------------|----|-----------------------------|----|
--10--|----------7--9--10--9--7--5--|----|----------7--9--10--9--7--5--|----|
------|-----------------------------|----|-----------------------------|----|


                                                           
-------------------------|--------------------------------|
-------------------------|--------------------------------|
-------------------------|--10--10------------------------|
----------8--10--12--10--|----------10--10--12--12--8--8--|


                                                                   
---------------------------------|--------------------------------|
---------------------------------|--------------------------------|
----------10--10-----------------|--10--10------------------------|
--10--10----------8--10--12--10--|----------10--10--12--12--8--8--|


                                                                     
---------------------------------||---------------------------------|
---------------------------------||*--------------------------------|
----------10--10-----------------||*--10--10------------------------|
--10--10----------8--10--12--10--||-----------10--10--12--12--8--8--|


                                                                               
--------------------------------||------------------||------------------------|
-------------------------------*||------------------||*-----------------------|
-------------------------------*||----------10--10--||*--7---------10----6----|
--10--10--3--3--8--10--12--10---||--10--10----------||--------8---------------|


                                          
--------------------||-------------------|
-------------------*||-------------------|
-------------------*||--4----------------|
--7-----------------||-------------------|


                                                   
--------------------------------------------------|
--------------------------------------------------|
--7-7-7-7-7-7-3-3-3-3-3-3-------------6-6-6-6-6-6-|
--------------------------3-3-3-3-3-3-------------|


                                                   
--------------------------------------------------|
--------------------------------------------------|
--2-2-2-2-2-2-2-2-2-2-2-2-2-2-2-2-2-2-2-2-2-2-2-2-|
--------------------------------------------------|


                                                                              
--------------------------------------------------|--------------------------|
--------------------------------------------------|--------------------------|
--7-7-7-7-7-7-3-3-3-3-3-3-------------6-6-6-6-6-6-|--2--2--2--2--2--2--2--2--|
--------------------------3-3-3-3-3-3-------------|--------------------------|


                                                        
----------------------------|--------------------------|
------------------2---------|----------------2---------|
--7-------------2---2-3-0-2-|--------------2---2-3-0-2-|
------------0-3-------------|----------0-3-------------|


                                                                     
-------------------------|---------------------|--------------------|
-------------------------|---------------------|--------------------|
--------------5--3-----2-|------------8--------|------7----6--------|
-----1--3--5--------3----|---2--3--0-----------|--------------------|


                                                          
-----------|-----------------------|---------------------|
-----------|-----------------------|---------------------|
-----------|-----------------------|---------------------|
--------7--|--------------3--7--6--|--0------------1--3--|


                                                        
---------------------------|---------------------------|
---------------------------|---------------------------|
---------------------------|---------------------------|
--5--5-5--5-5--5--5-5-3----|--5--5-5--5-5--5--5-5-3----|


                                                        
---------------------------|---------------------------|
---------------------------|---------------------------|
---------------------------|---------------------------|
--5--5-5--5-5--5--5-5-3----|--5--5-5--5-5--5--5-5-3----|


                                                        
---------------------------|---------------------------|
---------------------------|---------------------------|
---------------------------|---------------------------|
--5--5-5--5-5--5--5-5-3----|--5--5-5--5-5--5--5-5-3----|


                                                                        
---------------------------|--------------|----------------------------|
---------------------------|--------------|----------------------------|
---------------------------|--------------|----------------------------|
--5--5-5--5-5--5--5-5-3----|--5--------5--|--1--1-1--1-1--3--3-3--3-3--|


                                                           
----------------------------|-----------------------------|
----------------------------|-----------------------------|
----------------------------|---------------3--3-3-5--5-5-|
--5--5-5--5-5--3--3-3--3-3--|--1--1-1--1-1----------------|


                                                          
----------------------------|----------------------------|
----------------------------|--3--3-3--3-3--5--5-5--5-5--|
----------------------------|----------------------------|
--5--5-5--5-5--5--5-5--5-5--|----------------------------|


                                                           
----------------------------|---------------5--5-5-7--7-7-|
--7--7-7--7-7--5--5-5--5-5--|--3--3-3--3-3----------------|
----------------------------|-----------------------------|
----------------------------|-----------------------------|


                                                          
----------------------------|----------------------------|
--7--7-7--7-7--7--7-7--7-7--|----------------------------|
----------------------------|----------------------------|
----------------------------|--1--1-1--1-1--3--3-3--3-3--|


                                                           
----------------------------|-----------------------------|
----------------------------|-----------------------------|
----------------------------|---------------3--3-3-5--5-5-|
--5--5-5--5-5--3--3-3--3-3--|--1--1-1--1-1----------------|


                                                          
----------------------------|----------------------------|
----------------------------|----------------------------|
----------------------------|----------------------------|
--5--5-5--5-5--5--5-5--5-5--|--1--1-1--1-1--3--3-3--3-3--|


                                                           
----------------------------|-----------------------------|
----------------------------|-----------------------------|
----------------------------|---------------3--3-3-5--5-5-|
--5--5-5--5-5--3--3-3--3-3--|--1--1-1--1-1----------------|


                                                          
----------------------------|----------------------------|
----------------------------|----------------------------|
----------------------------|----------------------------|
--5--5-5--5-5--5--5-5--5-5--|--1--1-1--1-1--3--3-3--3-3--|


                                                           
----------------------------|-----------------------------|
----------------------------|-----------------------------|
----------------------------|---------------3--3-3-5--5-5-|
--5--5-5--5-5--3--3-3--3-3--|--1--1-1--1-1----------------|


                                                          
----------------------------|----------------------------|
----------------------------|----------------------------|
----------------------------|----------------------------|
--5--5-5--5-5--5--5-5--5-5--|--1--1-1--1-1--3--3-3--3-3--|


                                                                 
----------------------------|-----------------------------|-----|
----------------------------|-----------------------------|-----|
----------------------------|---------------3--3-3-5--5-5-|-----|
--5--5-5--5-5--3--3-3--3-3--|--1--1-1--1-1----------------|--5--|


                              
-------------------|--------||
-------------------|--------||
-------------------|--------||
-----------0--5----|--------||
comments
We did not receive enough feedback on this tab! Please rate:
print report bad tab
1 2 3 4 5
1 comment total.
0 reply
BNT_88 wrote on November 6 2006, 03:16 pm

good tab, well done an thanks

I want to post or [tab]
guest
You may want to rate the tab now too:
select rating
Please do not post tabs as comments. Select "correction" instead!