Oops, an error
Loading. Please wait.

Hatebreeder Tab

ver1
ver1

Album

Whole song

More versions @911Tabs.com
14,968 views 9 this week
3 commentsread comments
1 2 3 4 5
excellent!
x 6
Autoscroll
+/-
esc
set tempo
stop
Contributor
Hey! There's an official Ultimate Guitar app which is ideal
for learning songs when you're away from computer. Get the app
WARNING: You are trying to view
                                    content from Ultimate-Guitar.com
                                    in an unauthorized application,
                                    which is prohibited.

                                    Please use an official Ultimate
                                    Guitar Tabs application for iPhone,
                                    iPad or Android to access legitimate
                                    chords, guitar, bass, and drum tabs
                                    from Ultimate-Guitar.com database.

                                    Type "ultimate guitar tabs" in Apple
                                    App Store's or Android Market's
                                    search to find the application.
|-------------------------------------------------------------------------------------------|Gtr1
|-------------------------------------------------------------------------------------------|
|-------------------------------------------------------------------------------------------|
|---------------------3-----------------------------------------------4---------------5-4-2-|
|-2-----2-----2-----5-2-0-2-----2-----2-----5-5-5-2-----2-----2-----5-2-0-2-----2-----5-4-2-|
|-0-000-0-000-0-000-3---0-0-000-0-000-0-000-3-3-3-0-000-0-000-0-000-3---0-0-000-0-000-3-2-0-|
|   ...   ...   ...         ...   ...   ...         ...   ...   ...         ...   ...
|
|
|-------------------------------------------------------------------------------------------|Gtr2
|-------------------------------------------------------------------------------------------|
|-------------------------------------------------------------------------------------------|
|---------------------4-----------------------------------------------3---------------5-4-2-|
|-------------------5-2-0-2-----------------5-5-5-2-----------------5-2-0-2-----------5-4-2-|
|-------------------3---0-0-----------------3-3-3-0-----------------3---0-0-----------3-2-0-|



Riff B
|-------------------------------------------------------------------------------------------------------------------|Gtr1
|-------------------------------------------------------------------------------------------------------------------|
|-------------------12-12-------------------------------------------12-----------------------------5-5-5-8-8-8-9ph~-|
|-9-----9-----9-----12-12-9-----9-------------444-9-----9-----9-----12-----------------6-6-6-9-9-9------------------|
|-7-777-7-777-7-777-10-10-7-777-7-999222222555----7-777-7-777-7-777-10--7-7-7-10-10-10------------------------------|
|-------------------------------------------------------------------------------------------------------------------|
|   ...   ...   ...         ...   ...............   ...   ...   ...     . . . .  .  .  . . . . . . . . . . . .
|
|
|-------------------------------------------------------------------------------------------------------------------|Gtr2
|-------------------------------------------------------------------------------------------------------------------|
|-------------------12-12-------------------------------------------12-----------------------------5-5-5-8-8-8-9ph~-|
|-9-----9-----9-----12-12-9-----9-----------------9-----9-----9-----12-----------------6-6-6-9-9-9------------------|
|-7-777-7-777-7-777-10-10-7-777-7-999222222222222-7-777-7-777-7-777-10--7-7-7-10-10-10------------------------------|
|-------------------------------------------------------------------------------------------------------------------|
    ...   ...   ...         ...   ...............   ...   ...   ...     . . . .  .  .  . . . . . . . . . . . .



Riff C
|-------------14-15-14-15-------------14-17-14-17-----------------------|Gtr1
|----------13----------------------15-----------------------------------|
|-------12----------------------14--------------------------------------|
|-10-14-------------------12-16-------------------9------9-8-9------9-8-|
|-------------------------------------------------7-7777-7-6-7-7777-7-6-|
|-----------------------------------------------------------------------|
|                                                   ....       ....    
|                                                                       
|                                                                       
|-----------------------------------------------------------------------|Gtr2
|-----------------------------------------------------------------------|
|-----------------------------------------------------------------------|
|-5-----------------------7-----------------------9------9-8-9------9-8-|
|-3-----------------------5-----------------------7-7777-7-6-7-7777-7-6-|
|-----------------------------------------------------------------------|
                                                    ....       ....     
                                                                        
                                                                         
|-------------------------/14-11-----------------------------------------|Gtr1
|-------------13-17-13-17--------13--------------------------------------|
|----------12-----------------------14-11--------------------------------|
|----10-14--------------------------------13-10-----9---------9-12-11-9--|
|-12--------------------------------------------12--7-7777777-7-10--9-7--|
|------------------------------------------------------------------------|
| .  .  .  .                                          .......            
|                                                                        
|                                                                        
|------------------------------------------------------------------------|Gtr2
|------------------------------------------------------------------------|
|-5------------------------5---------------------------------------------|
|-5------------------------5------------------------9---------9-12-11-9--|
|-3------------------------3------------------------7-7777777-7-10--9-7--|
|------------------------------------------------------------------------|
                                                      .......



Riff D                               1st ending   2nd ending
|-----------------------------------|------------|-------------|Gtr1
|-------6--------------8------------|-5--------6-|-------------|
|-------5--------------7------------|-4--------5-|-------------|
|-2-----3--------2-----5--------2---|-2--------3-|-2-------3---|
|-0--------------0--------------0---|------------|-2-------3---|
|-----------------------------------|------------|-------------|
|
|
|
|--------------------------------------------------------------|Gtr2
|--------------------------------------------------------------|
|--------------------------------------------------------------|
|--------------------------------------------------------------|
|-777777101010999777777555101010777777101010999------777101010-|
|----------------------------------------------888888----------|
  ............................................................



Riff E
|----------------------------------------|Gtr1
|----6"-------4"-------------------------|
|----5"-------3"-------------------------|
|-5"-3"----5"-1"----5"-0--------------8"-|
|-5"-------5"-------5"-0-----6"----9"----|
|-3"-------3"-------3"-------------------|
|
|
|
|----------------------------------------|Gtr2
|----------------------------------------|
|-------------------------------------8"-|
|-5"-8"-7"-5"-3"-8"-5"-8"-7"----7"-8"----|
|----------------------------9"----------|
|----------------------------------------|



Riff F
|-----------------------------------------------------------------|Gtr1
|-----------------------------------------------------------------|
|-----------------------------------------------------------------|
|-5-x-5-x-5-5-5-3--5-x-5-x-5--1--5--3-----------------------------|
|-5-x-5-x-5-5-5-3--5-x-5-x-3--1--5--3-----------------------------|
|-3-x-3-x-3-3-3-1--3-x-3-x-3--------------------------------------|
|      
|
|
|-------------------------|-------------|-------------------------|Gtr2
|-------------------------|-------------|-------------18-18b(20)~-|
|-12-12/15-14-15b(17)-15~-|-15-14-------|-12-12/15-14-------------|
|-------------------------|-------15-12-|-------------------------|
|-------------------------|-------------|-------------------------|
|-------------------------|-------------|-------------------------|



then Riff B (1.5x)



Riff G
|--8p5-------5s11-8---------8s14-11---------11s17-14-----------------12-15s17-14-----------------15-19-24--|Gtr1
|------7---7-------10----10--------13----13---------16-------------13-----------15-------------17----------|
|--------8------------11--------------14--------------17---------12---------------14---------16------------|
|-------------------------------------------------------19-----14-------------------16-----17--------------|
|---------------------------------------------------------18s15-----------------------17s19----------------|
|----------------------------------------------------------------------------------------------------------|
|
|
|
|----------------------------------------------------------------------------------------------------------|Gtr2
|----------------------------------------------------------------------------------------------------------|
|------------------------------------------------------------------------------------------------------9---|
|------------------------------------------------------------5-------------7-------------9------7------9---|
|--5-5-5-5-5-5--2-2-2-2-2-2---4-4-4-4-4-4----0-0-0-0-0-0-----3-------------5-------------7------5------7---|
|----------------------------------------------------------------------------------------------------------|
   . . . . . .  . . . . . .   . . . . . .    . . . . . .                                      



then Riff D (2x)




Riff H
|---------------------|Gtr1 & 2
|---------------------|
|---------------------|
|-----2-------------2-|
|-000-0-000-3-5-000-0-|
|-----------1-3-------|
  ...   ...     ...



Riff I                                                          1st ending             2nd ending           *dive w/bar
|--------------------------------------------------------------|----------------------|-------------------------|Gtr1
|--------------------------------------------------------------|----------------------|-------------------------|
|--------------------------------------------------------------|----------------------|---------------------9\--|
|--------------------------------------------------------------|-5--------------------|-5----7----9-----------\-|
|-3----------5------------7------------5-----------3-----------|-3-5-7----------------|-3-33-5-33-7-7777777-----|
|-1----------3------------5------------3-----------1-----------|---3-5-55555555555555-|-------------------------|
|                                                                      ...............              .......
|
|
|--------------------------------------------------------------|----------------------|-------------------------|Gtr2
|--------------------------------------------------------------|----------------------|-------------------------|
|--------------------------------------------------------------|----------------------|-------------------------|
|-3---3---3-----------------------------------------5\3--------|-5--------------------|-5----7----9---------9---|
|-3---3---3--3p2---2-3p2--5p3---3-5p3--3p2---2-3p2--5\3--------|-3-5-7----------------|-3-33-5-33-7-7777777-7---|
|-1-1-1-1-1--3---3-3-3----5---5-5-5----3---3-3-3----3\1--1-0-1-|---3-5-55555555555555-|-------------------------|
    .   .        .            .            .             . . .        ...............      ..  ..   ....... .



Riff J                                                1st&2nd ending   next 4 endings    
|--------------------|--------------|--------------| |--------------| |------------------------|Gtr1
|--------------------|--------------|--------------| |--------------| |---------10-12----10----|
|-9--7-7--9-9--------|--------12-12-|-12-12--11-11-| |--------------| |-9-11-12-------12----11-|
|-9--7-7--9-9--10-10-|-12-12--12-12-|-12-12--11-11-| |--------------| |------------------------|
|-7--5-5--7-7--10-10-|-12-12--10-10-|-10-10---9--9-| |-7-9-10-9-7---| |------------------------|
|---------------8--8-|-10-10--------|--------------| |-----------10-| |------------------------|
|
|
| *                             variation               1st&2nd ending
|-------------------|----------|---------------------| |--------------------------------------| |---------------|Gtr2
|-------------------|----------|---------------------| |--------------------------------------| |---------------|
|-------------------|----------|---------------------| |--------------------------------------| |-5---7---9---7-|
|-9--7-7--9-9-------|-9-9-7-7--|-12-12-7-7-----------| |-----------4--------------------------| |-5---7---9---7-|
|-7--5-5--7-7-10-10-|-7-7-5-5--|-10-10-5-5-----------| |-------5-7---7-7777777777777777777777-| |-3---5---7---5-|
|--------------8--8-|----------|---------------------| |-3-5-7--------------------------------| |---------------|
  *only play this first chord on 1st time                             .......................


 
Riff K                                                                                 *dive&raise w/bar 
|--------------------------------------------------------------------------------------9\--/--13\--/-|Gtr1
|---------------------------------------------------------------------------------8-10---\/------\/--|
|-----------------------------7-----------------------------------------------7-9--------------------|
|--------7-9-7---------7-9-10---10-9-7-9-----------------7-9-7---------7-9-10------------------------|
|-7-9-10-------10-9-10----------------------------7-9-10-------10-9-10-------------------------------|
|----------------------------------------------------------------------------------------------------|
|
|
|
|----------------------------------------------------------------------------------------------------|Gtr2
|----------------------------------------------------------------------------------------------------|
|-------------------7-----------------------------------------------7--------------------------------|
|-9--------5--------5---------8--------4----------9--------5--------5---------8--------6-------------|
|-7--------3------------------6--------2----------7--------3------------------6--------4-------------|
|----------------------------------------------------------------------------------------------------|




Riff L (1.5x)                                                                    2nd ending
|------------------------------------|------------------------------------------|-------------------|Gtr1
|-----------555555222222-------------|------------------------------------------|-------------------|
|-----------------------444444-------|------------------------------------------|-------------------|
|-----------------------------555555-|------------------------------------------|-4-4-4-4-4-4-4-4-2-|
|------------------------------------|-4-5-4-3-4-5-4-5-4-3-4-5-4-5-4-3-4-5-4ph~-|-2-2-2-2-2-2-2-2-2-|
|------------------------------------|------------------------------------------|-----------------0-|
|           ........................
|
|                                                                                2md ending
|------------------------------------|------------------------------------------|-------------------|Gtr2
|-----------555555222222-------------|-4-5-4-3-4-5-4-5-4-3-4-5-4-5-4-3-4-5-4ph~-|-------------------|
|-----------------------444444-------|------------------------------------------|-------------------|
|-----------------------------555555-|------------------------------------------|-4-4-4-4-4-4-4-4-2-|
|------------------------------------|------------------------------------------|-2-2-2-2-2-2-2-2-2-|
|------------------------------------|------------------------------------------|-----------------0-|
            ........................
          


Riff M                                                                                         *dive&raise w/bar
|---------12-7-8-------|---------12-7-12-10-8----10-8------8---------------------------------------------------------|Gtr1
|---10-12--------10-12-|---10-12--------------10------12-8---12-10----12-10-8---------------/---/---/--------/-------|
|-9--------------------|-9-----------------------------------------11-----------9---10---12/-15/-12/--9/\-10/-15\----|
|----------------------|-----------------------------------------------------------------------------------------\---|
|----------------------|---------------------------------------------------------------------------------------------|
|----------------------|---------------------------------------------------------------------------------------------|
|
|
|--------------------------------------------------------------------------------------------------------------------|Gtr2
|--------------------------------------------------------------------------------------------------------------------|
|------------------------------------------------7---------5----------3--------------------------------------------2-|
|--------------------------------3----5----7-----7-----5---5----3-----3-----5---2---3------------------3---2----2--2-|
|--------------------------------3----5----7-----5-----5---3----3-----1-----5---2---3------------------3---2----2--0-|
|--------------------------------1----3----5-----------3--------1-----------3---0---1------------------1---0----0----|




then first part of Riff A



Riff N
|-------------------------------------|Gtr1
|-------------------------------------|
|-------------------------------------|
|-7-x-7-x-7-7-7-5--7-x-7-x-7----------|
|-7-x-7-x-7-7-7-5--7-x-7-x-7-----5--3-|
|-5-x-5-x-5-5-5-3--5-x-5-x-5--1-------|
|
|
|
|
|--------------------------|------------|-------------15b(17)~--|Gtr2
|--10-10/13-12-13b(15)-13~-|-13-12------|-10-10/13-12-----------|
|--------------------------|-------12-9-|-----------------------|
|--------------------------|------------|-----------------------|
|--------------------------|------------|-----------------------|
|--------------------------|------------|-----------------------|





Guitar Solo 1


Under the solos, Gtr 2 plays the Gtr 2 part of Riff I, then plays the Gtr 1 part of Riff I




|---------------------------------------15----17--------17----19---|Gtr1
|-------10----13-10---------------15-------17----17--17----17------|
|-10-10----10---------10-10s12-12----12----------------------------|
|------------------------------------------------------------------|
|------------------------------------------------------------------|
|------------------------------------------------------------------|





|-----19b(20)r19-17------------17---20-17-19-20-19-17--------------------------------|Gtr1
|--17---------------20-20b(22)------------------------20-17-19-20-19-17--------------|
|-----------------------------------------------------------------------21-17-19-21--|
|------------------------------------------------------------------------------------|
|------------------------------------------------------------------------------------|
|------------------------------------------------------------------------------------|



|---------------------------------------------------17--19--20--22--24--24---|Gtr1
|----------------------------------------------------------------------------|
|--19-17------------------------17--21------17--21---------------------------|
|--------21-17-19-21-19-17--19----------19-----------------------------------|
|----------------------------------------------------------------------------|
|----------------------------------------------------------------------------|




Synth solo, both guitars play the Gtr 1 part of Riff I


Guitar Solo 2, Continued after synth:



   dive  
|--w/bar-------------17-----------17-----------17-----------17\---/17-15-13--------------------|Gtr1
|-----------------17-----------17-----------17-----------17-----------------17-15-13s10--------|
|--2-\-----19b(21)------19b(21)------19b(21)------19b(21)-------------------------------12-10--|
|-----\----------------------------------------------------------------------------------------|
|------\---------------------------------------------------------------------------------------|
|----------------------------------------------------------------------------------------------|


                                                           
|-----------------------------------------------------------------------------------|Gtr1
|--------------------------------------------------------------------------------13-|
|--9-\--7--------------------------------------9------10--9--12--10--14--12--14-----|
|---------10-9-7----------------10--9--12--10-----12--------------------------------|
|----------------10-8-10/---12------------------------------------------------------|
|-----------------------------------------------------------------------------------|



|--15----------15----------------15-16-17-19-17-16-15----------------15----15-17ph-----|Gtr1
|-----15-16-17----17-16-15-16-17----------------------17-16-15-16-17----17-------------|
|--------------------------------------------------------------------------------------|
|--------------------------------------------------------------------------------------|
|--------------------------------------------------------------------------------------|
|--------------------------------------------------------------------------------------|




Synth solo, both guitars play the Gtr 1 part of Riff I 



Synth and Guitar end solo:



|--------------13-15-17-13-15-17-15-13-15----13-15-13----13-------13------------------|Gtr1
|-----13-15-17----------------------------17----------17----15-17----17-15-13---------|
|--16-------------------------------------------------------------------------16-14---|
|-------------------------------------------------------------------------------------|
|-------------------------------------------------------------------------------------|
|-------------------------------------------------------------------------------------|



|-----------/18-17-15-13--------------------|Gtr1
|--18-17-15-------------17-15-13------------|
|---------------------------------15--14----|
|-------------------------------------------|
|-------------------------------------------|
|-------------------------------------------|
|
|
|-------------------------------------------|Gtr2
|-------------------------------------------|
|-------------------------------------------|
|---------------------------------2---7-----|
|---------------------------------2---7-----|
|---------------------------------0---5-----|
comments
print report bad tab
3 comments total.
0 reply
*Dangling Nads* wrote on June 17 2005, 12:00 am

Great tab.

0 reply
Camron62\m/ wrote on August 3 2011, 04:38 pm

can you add a key? so i understand what mark means what?

0 reply
lost my pick wrote on May 19 2012, 12:00 pm

^ Like most old bodom, it's in D tuning: DGCFAD That's all strings a steps down.

I want to post or [tab]
guest
You may want to rate the tab now too:
select rating
Please do not post tabs as comments. Select "correction" instead!