Oops, an error
Loading. Please wait.

Hellhounds On My Trail Bass Tab

ver1
ver1

Whole song

Interactive

More versions @911Tabs.com
1,776 views 1 this week
2 commentsread comments
1 2 3 4 5
excellent!
x 2
add to favorites launch autoscroll
font size
0
reset
Autoscroll
+/-
esc
set tempo
stop
Difficulty
Tuning
advanced
C G C F A D
WARNING: You are trying to view
                                    content from Ultimate-Guitar.com
                                    in an unauthorized application,
                                    which is prohibited.

                                    Please use an official Ultimate
                                    Guitar Tabs application for iPhone,
                                    iPad or Android to access legitimate
                                    chords, guitar, bass, and drum tabs
                                    from Ultimate-Guitar.com database.

                                    Type "ultimate guitar tabs" in Apple
                                    App Store's or Android Market's
                                    search to find the application.
Song: Hellhounds On My Trail
Band: Children Of Bodom
Album: Blooddrunk (2008)

Tabbed my Mitch DuCran

                                                                    
F||------------------|-------------------------|--------------------|
C||------------------|-------------------------|--------------------|
G||------------------|--3------------7----6----|--5--------------1--|
C||------------------|-------0-0-0-0-----------|--------------------|


                                                                   
----------------------|--------------------|----------------------|
----------------------|--------------------|----------------------|
--0------4--3------7--|--8--------------4--|--3------6--5------8--|
----------------------|--------------------|----------------------|


                                                                
--------------------------------|------------------------------|
--------------------------------|------------------------------|
--7--------------------------1--|--0----------4--3----------7--|
-----0-0-0-0-0-0-0-0-0-0-0-0----|-----0-0-0-0-------0-0-0-0----|


                                                         
---------------------------------|----------------------|
---------------------------------|----------------------|
--8------------------------------|--3----5----8----6----|
-----0-0-0-0-0-0-0-0-0-0-0-0-0-0-|----------------------|


                                                       
---------------------------|--------------------------|
---------------------------|--------------------------|
--5--------8--7--------10--|--8-----------------------|
-----0--0--------0--0------|-----0--0--5--6--0--3--6--|


                                                       
---------------------------|--------------------------|
---------------------------|--------------------------|
--5--------8--7--------10--|--8-----------------------|
-----0--0--------0--0------|-----0--0--3--2--0--2--3--|


                                                      
--------------------------|--------------------------|
-----------3--2--------5--|--3-----------------------|
--5-----------------------|--------------------------|
-----0--0--------1--1-----|-----0--0--5--6--0--3--6--|


                                                                               
---------------------------|----------------------|---------------------------|
---------------------------|----------------------|---------------------------|
--5--------8--7--------10--|--3----5----8----6----|--5--------8--7--------10--|
-----0--0--------0--0------|----------------------|-----0--0--------0--0------|


                                                       
--------------------------|---------------------------|
--------------------------|---------------------------|
--8-----------------------|--5--------8--7--------10--|
-----0--0--5--6--0--3--6--|-----0--0--------0--0------|


                                                      
--------------------------|--------------------------|
--------------------------|-----------3--2--------5--|
--8-----------------------|--5-----------------------|
-----0--0--3--2--0--2--3--|-----0--0--------1--1-----|


                                                       
--------------------------|---------------------------|
--3-----------------------|---------------------------|
--------------------------|--5--------8--7--------10--|
-----0--0--5--6--0--3--6--|-----0--0--------0--0------|


                                                                              
--------------------------|-------------------------|------------------------|
--------------------------|-------------------------|------------------------|
--5--5--5--5--3--3--3--3--|--------------3----------|--------5----------6----|
--------------------------|--0--0--0--0-------0--0--|--0--0-------0--0-------|


                                                                           
------------------------|-----------------------|-------------------------|
------------------------|-----------------------|-------------------------|
-------------3----------|-------1----------0----|--------------6----------|
--3--2--0---------3--2--|--0---------3--2-------|--0--0--0--0-------0--0--|


                                                                           
------------------------|------------------------|------------------------|
------------------------|------------------------|-------5/-7-------------|
--------3----------5----|-------------1----------|--0----------8--7--5----|
--0--0-------0--0-------|--3--2--0---------3--2--|------------------------|


                                                                            
-------------------------|------------------------|------------------------|
-------------------------|------------------------|------------------------|
--------------3----------|--------5----------6----|-------------3----------|
--0--0--0--0-------0--0--|--0--0-------0--0-------|--3--2--0---------3--2--|


                                                                           
-----------------------|-------------------------|------------------------|
-----------------------|-------------------------|------------------------|
-------1----------0----|--------------6----------|--------3----------5----|
--0---------3--2-------|--0--0--0--0-------0--0--|--0--0-------0--0-------|


                                                                              
------------------------|------------------------|---------------------------|
------------------------|-------5/-7-------------|---------------------------|
-------------1----------|--0----------8--7--5----|--5--------8--7--------10--|
--3--2--0---------3--2--|------------------------|-----0--0--------0--0------|


                                                       
--------------------------|---------------------------|
--------------------------|---------------------------|
--8-----------------------|--5--------8--7--------10--|
-----0--0--5--6--0--3--6--|-----0--0--------0--0------|


                                                      
--------------------------|--------------------------|
--------------------------|-----------3--2--------5--|
--8-----------------------|--5-----------------------|
-----0--0--3--2--0--2--3--|-----0--0--------1--1-----|


                                                       
--------------------------|---------------------------|
--3-----------------------|---------------------------|
--------------------------|--5--------8--7--------10--|
-----0--0--5--6--0--3--6--|-----0--0--------0--0------|


                                                       
--------------------------|---------------------------|
--------------------------|---------------------------|
--5--5--5--5--3--3--3--3--|--5--------8--7--------10--|
--------------------------|-----0--0--------0--0------|


                                                       
--------------------------|---------------------------|
--------------------------|---------------------------|
--8-----------------------|--5--------8--7--------10--|
-----0--0--5--6--0--3--6--|-----0--0--------0--0------|


                                                      
--------------------------|--------------------------|
--------------------------|-----------3--2--------5--|
--8-----------------------|--5-----------------------|
-----0--0--3--2--0--2--3--|-----0--0--------1--1-----|


                                                                              
--------------------------|---------------------------|----------------------|
--3-----------------------|---------------------------|----------------------|
--------------------------|--5--------8--7--------10--|--3----5----8----6----|
-----0--0--5--6--0--3--6--|-----0--0--------0--0------|----------------------|


                                                                               
|--------------------------|------------------------|-------------------------|
|*-------------------------|------------------------|-------------------------|
|*--5--5--5--3----3--3-----|------------------------|----------------------3--|
|-----------------------5--|----5--5--7----7--7--8--|----2--2--2--2--2--2-----|


                                                                                
--------------------------||-------------------------|-------------------------|
-------------------------*||-------------------------|-------------------------|
-------------------------*||----------------------3--|----0--0--0--0--0--0--0--|
----1--1--1--1--1--1--1---||----2--2--2--2--2--2-----|-------------------------|


                                                                            
-------------------------|------------------------|------------------------|
-------------------------|------------------------|------------------------|
--------------3----------|--------5----------6----|-------------3----------|
--0--0--0--0-------0--0--|--0--0-------0--0-------|--3--2--0---------3--2--|


                                                                           
-----------------------|-------------------------|------------------------|
-----------------------|-------------------------|------------------------|
-------1----------0----|--------------6----------|--------3----------5----|
--0---------3--2-------|--0--0--0--0-------0--0--|--0--0-------0--0-------|


                                                                            
------------------------|------------------------|-------------------------|
------------------------|-------5/-7-------------|-------------------------|
-------------1----------|--0----------8--7--5----|--------------3----------|
--3--2--0---------3--2--|------------------------|--0--0--0--0-------0--0--|


                                                                          
------------------------|------------------------|-----------------------|
------------------------|------------------------|-----------------------|
--------5----------6----|-------------3----------|-------1----------0----|
--0--0-------0--0-------|--3--2--0---------3--2--|--0---------3--2-------|


                                                                            
-------------------------|------------------------|------------------------|
-------------------------|------------------------|------------------------|
--------------6----------|--------3----------5----|-------------1----------|
--0--0--0--0-------0--0--|--0--0-------0--0-------|--3--2--0---------3--2--|


                                                                               
------------------------|--------------------------|--------------------------|
-------5/-7-------------|--------------------------|--------------------------|
--0----------8--7--5----|--6--6--6--6--6--6--6--6--|--6--6--6--6--------------|
------------------------|--------------------------|--------------4--4--4--4--|


                                                                           
-----------------------|-----------------------|--------------------------|
-----------------------|-----------------------|--------------------------|
-----------------------|-----------------------|--6--6--6--6--6--6--6--6--|
--5--5--5--5--3--------|--5--5--5--5--8--------|--------------------------|


                                                                           
--------------------------|-----------------------|-----------------------|
--------------------------|-----------------------|-----------------------|
--6--6--6--6--------------|-----------------------|-----------------------|
--------------4--4--4--4--|--5--5--5--5--3--------|--5--5--5--5--8--------|


                                                                              
--------------------------|--------------------------|-----------------------|
--------------------------|--------------------------|-----------------------|
--2--2--2--2--2--2--2--2--|--2--2--2--2--5-----------|--------------4--------|
--------------------------|-----------------0--0--0--|--1--1--1--1-----------|


                                                                              
-----------------------|--------------------------|--------------------------|
-----------------------|--------------------------|--------------------------|
-----------------------|--2--2--2--2--2--2--2--2--|--2--2--2--2--5-----------|
--1--1--1--1--4--------|--------------------------|-----------------0--0--0--|


                                                                      
-----------------------|-----------------------|---------------------|
-----------------------|-----------------------|---------------------|
--------------4--------|-----------------------|--5--------3--5------|
--1--1--1--1-----------|--1--1--1--1--4--------|---------------------|


                                                                             
----------------------|--------------------------|--------------------------|
----------------------|--------------------------|--------------------------|
----------------------|--5-----------3--5--------|--------------------------|
----------5--6--3--6--|-----0--0--0--------0--0--|--0--0--0--0--5--6--3--6--|


                                                                             
--------------------------|----------------------|--------------------------|
--------------------------|----------------------|--------------------------|
--5-----------3--5--------|----------------------|--5-----------3--5--------|
-----0--0--0--------0--0--|--6----3----6----5----|-----0--0--0--------0--0--|


                                                      
--------------------------|--------------------------|
--------------------------|--------------------------|
--------------------------|--5-----------3--5--------|
--0--0--0--0--5--6--3--6--|-----0--0--0--------0--0--|


                                                                
------------------------------------|--------------------------|
------------------------------------|--------------------------|
--------------3----------------3----|--5-----------3--5--------|
--3--3--3--3-------3--3--3--3-------|-----0--0--0--------0--0--|


                                                                             
--------------------------|--------------------------|----------------------|
--------------------------|--------------------------|----------------------|
--------------------------|--5-----------3--5--------|----------------------|
--0--0--0--0--5--6--3--6--|-----0--0--0--------0--0--|--6----3----6----5----|


                                                      
--------------------------|--------------------------|
--------------------------|--------------------------|
--5-----------3--5--------|--------------------------|
-----0--0--0--------0--0--|--0--0--0--0--5--6--3--6--|


                                                                
--------------------------|------------------------------------|
--------------------------|------------------------------------|
--5-----------3--5--------|--------------3----------------3----|
-----0--0--0--------0--0--|--3--3--3--3-------3--3--3--3-------|


                                                                             
-------------------------|-------------------------|------------------------|
-------------------------|-------------------------|------------------------|
-------------------------|-------------------------|------------------------|
--2--2--2--2--0----5--5--|--5--5--0----2--2--2--2--|--0----5--5--5--5--0----|


                                                                             
------------------------|-------------------------|-------------------------|
------------------------|-------------------------|-------------------------|
------------------------|-------------------------|-------------------------|
--2--2--3/-2--0--2------|--2--2--2--2--0----3--3--|--3--3--0----2--2--2--2--|


                                                                           
------------------------|-----------------------|-------------------------|
------------------------|-----------------------|-------------------------|
------------------------|--2----2--2--3--3------|-------------------------|
--0----3--3--3--3--0----|-----------------------|--2--2--2--2--0----5--5--|


                                                                            
-------------------------|------------------------|------------------------|
-------------------------|------------------------|------------------------|
-------------------------|------------------------|------------------------|
--5--5--0----2--2--2--2--|--0----5--5--5--5--0----|--2--2--3/-2--0--2------|


                                                                             
-------------------------|-------------------------|------------------------|
-------------------------|-------------------------|------------------------|
-------------------------|-------------------------|------------------------|
--2--2--2--2--0----3--3--|--3--3--0----2--2--2--2--|--0----3--3--3--3--0----|


                                                                            
-----------------------|-------------------------|-------------------------|
-----------------------|-------------------------|-------------------------|
--2----2--2--3--3------|-------------------------|-------------------------|
-----------------------|--2--2--2--2--0----5--5--|--5--5--0----2--2--2--2--|


                                                                            
------------------------|------------------------|-------------------------|
------------------------|------------------------|-------------------------|
------------------------|------------------------|-------------------------|
--0----5--5--5--5--0----|--2--2--3/-2--0--2------|--2--2--2--2--0----3--3--|


                                                                            
-------------------------|------------------------|------------------------|
-------------------------|------------------------|-------9----------------|
-------------------------|-------------------5----|--2---------10--9--7----|
--3--3--0----2--2--2--2--|--0----2--2--2--2-------|------------------------|


                                                                            
-------------------------|------------------------|------------------------|
-------------------------|------------------------|------------------------|
--------------3----------|--------5----------6----|-------------3----------|
--0--0--0--0-------0--0--|--0--0-------0--0-------|--3--2--0---------3--2--|


                                                                           
-----------------------|-------------------------|------------------------|
-----------------------|-------------------------|------------------------|
-------1----------0----|--------------6----------|--------3----------5----|
--0---------3--2-------|--0--0--0--0-------0--0--|--0--0-------0--0-------|


                                                                            
------------------------|------------------------|-------------------------|
------------------------|-------5/-7-------------|-------------------------|
-------------1----------|--0----------8--7--5----|--------------3----------|
--3--2--0---------3--2--|------------------------|--0--0--0--0-------0--0--|


                                                                          
------------------------|------------------------|-----------------------|
------------------------|------------------------|-----------------------|
--------5----------6----|-------------3----------|-------1----------0----|
--0--0-------0--0-------|--3--2--0---------3--2--|--0---------3--2-------|


                                                                            
-------------------------|------------------------|------------------------|
-------------------------|------------------------|------------------------|
--------------6----------|--------3----------5----|-------------1----------|
--0--0--0--0-------0--0--|--0--0-------0--0-------|--3--2--0---------3--2--|


                                                                                
------------------------|---------------------------|--------------------------|
-------5/-7-------------|---------------------------|--------------------------|
--0----------8--7--5----|--5--------8--7--------10--|--8-----------------------|
------------------------|-----0--0--------0--0------|-----0--0--5--6--0--3--6--|


                                                       
---------------------------|--------------------------|
---------------------------|--------------------------|
--5--------8--7--------10--|--8-----------------------|
-----0--0--------0--0------|-----0--0--3--2--0--2--3--|


                                                      
--------------------------|--------------------------|
-----------3--2--------5--|--3-----------------------|
--5-----------------------|--------------------------|
-----0--0--------1--1-----|-----0--0--5--6--0--3--6--|


                                                       
---------------------------|--------------------------|
---------------------------|--------------------------|
--5--------8--7--------10--|--5--5--5--5--3--3--3--3--|
-----0--0--------0--0------|--------------------------|


                                                       
---------------------------|--------------------------|
---------------------------|--------------------------|
--5--------8--7--------10--|--8-----------------------|
-----0--0--------0--0------|-----0--0--5--6--0--3--6--|


                                                       
---------------------------|--------------------------|
---------------------------|--------------------------|
--5--------8--7--------10--|--8-----------------------|
-----0--0--------0--0------|-----0--0--3--2--0--2--3--|


                                                      
--------------------------|--------------------------|
-----------3--2--------5--|--3-----------------------|
--5-----------------------|--------------------------|
-----0--0--------1--1-----|-----0--0--5--6--0--3--6--|


                                                                               
---------------------------|----------------------||--------------------------|
---------------------------|----------------------||*-------------------------|
--5--------8--7--------10--|--3----5----8----6----||*--5--5--5--3----3--3-----|
-----0--0--------0--0------|----------------------||-----------------------5--|


                                                                             3x
------------------------|-------------------------|--------------------------||
------------------------|-------------------------|-------------------------*||
------------------------|----------------------3--|-------------------------*||
----5--5--7----7--7--8--|----2--2--2--2--2--2-----|----1--1--1--1--1--1--1---||


                                                                         
------------------------|-------------------------|---------------------|
------------------------|-------------------------|---------------------|
--1----x-------------3--|----0--0--0--0--0--0--0--|--5--------3--5------|
----------3----3--3-----|-------------------------|---------------------|


                                                                     
------------------------|----------------------|-------------------||
------------------------|----------------------|-------------------||
------------------------|----------------------|-------------------||
--5--6--3--5--6----3----|--6----5----0----x----|--0----------------||


comments
We did not receive enough feedback on this tab! Please rate:
print report bad tab
1 2 3 4 5
2 comments total.
+2 reply
Suckthebeef wrote on January 30 2009, 03:25 pm

This is the most accurate tab for this I have ever seen, maybe you should do more tabs. For songs off contradictions collapse(meshuggah)

0 reply
MusicMan24 wrote on August 10 2009, 04:39 pm

Great tab, 5 stars

I want to post or [tab]
guest
You may want to rate the tab now too:
select rating
Please do not post tabs as comments. Select "correction" instead!