Oops, an error
Loading. Please wait.

Hellhounds On My Trail Tab

ver1
ver1

Whole song

Interactive

More versions @911Tabs.com
19,834 views 15 this week
7 commentsread comments
1 2 3 4 5
excellent!
x 10
Autoscroll
+/-
esc
set tempo
stop
Difficulty
Tuning
advanced
C G C F A D
Hey! There's an official Ultimate Guitar app which is ideal
for learning songs when you're away from computer. Get the app
WARNING: You are trying to view
                                    content from Ultimate-Guitar.com
                                    in an unauthorized application,
                                    which is prohibited.

                                    Please use an official Ultimate
                                    Guitar Tabs application for iPhone,
                                    iPad or Android to access legitimate
                                    chords, guitar, bass, and drum tabs
                                    from Ultimate-Guitar.com database.

                                    Type "ultimate guitar tabs" in Apple
                                    App Store's or Android Market's
                                    search to find the application.
Song: Hellhounds On My Trail
Band: Children Of Bodom
Album: Blooddrunk (2008)

Tabbed my Mitch DuCran

Rythm Guitar 1:

D||------------------|-------------------------|
A||------------------|-------------------------|
F||------------------|-------------------------|
C||------------------|--5------------9----8----|
G||------------------|--3------------7----6----|
C||------------------|-------0-0-0-0-----------|


                                                                
--------------------------------|------------------------------|
--------------------------------|------------------------------|
--------------------------------|------------------------------|
--7--------------------------3--|--2----------6--5----------9--|
--5--------------------------1--|--0----------4--3----------7--|
-----0-0-0-0-0-0-0-0-0-0-0-0----|-----0-0-0-0-------0-0-0-0----|


                                                                  
---------------------------------|-------------------------------|
---------------------------------|-------------------------------|
---------------------------------|-------------------------------|
--10--------------------------6--|--5----------8--7----------10--|
--8---------------------------4--|--3----------6--5----------8---|
------0-0-0-0-0-0-0-0-0-0-0-0----|-----0-0-0-0-------0-0-0-0-----|


                                                                
--------------------------------|------------------------------|
--------------------------------|------------------------------|
--------------------------------|------------------------------|
--9--------------------------3--|--2----------6--5----------9--|
--7--------------------------1--|--0----------4--3----------7--|
-----0-0-0-0-0-0-0-0-0-0-0-0----|-----0-0-0-0-------0-0-0-0----|


                                                           
----------------------------------|-----------------------|
----------------------------------|-----------------------|
----------------------------------|-----------------------|
--10------------------------------|--5----7----10----8----|
--8-------------------------------|--3----5----8-----6----|
------0-0-0-0-0-0-0-0-0-0-0-0-0-0-|-----------------------|


                                                       
---------------------------|--------------------------|
---------------------------|--------------------------|
---------------------------|-----------------------5--|
---------------------------|--------------------7-----|
--5--------8--7--------10--|--8--------5--4--8--------|
-----0--0--------0--0------|-----0--0-----------------|


                                                       
---------------------------|--------------------------|
---------------------------|--------------------------|
---------------------------|--------------------------|
---------------------------|--------------------------|
--5--------8--7--------10--|--8--------3--2--0--2--3--|
-----0--0--------0--0------|-----0--0--3--2--0--------|


                                                      
--------------------------|--------------------------|
--------------------------|--------------------------|
--------------------------|-----------------------5--|
-----------3--2--------5--|--3-----------------7-----|
--5-----------------------|-----------5--4--8--------|
-----0--0--------1--1-----|-----0--0-----------------|


                                                                                
---------------------------|-----------------------|---------------------------|
---------------------------|-----------------------|---------------------------|
---------------------------|-----------------------|---------------------------|
---------------------------|--5----7----10----8----|--7------------------------|
--5--------8--7--------10--|--3----5----8-----6----|--5--------8--7--------10--|
-----0--0--------0--0------|-----------------------|-----0--0--------0--0------|


                                                       
--------------------------|---------------------------|
--------------------------|---------------------------|
-----------------------5--|---------------------------|
--------------------7-----|---------------------------|
--8--------5--4--8--------|--5--------8--7--------10--|
-----0--0-----------------|-----0--0--------0--0------|


                                                      
--------------------------|--------------------------|
--------------------------|--------------------------|
--------------------------|--------------------------|
--------------------------|-----------3--2--------5--|
--8--------3--2--0--2--3--|--5-----------------------|
-----0--0--3--2--0--------|-----0--0--------1--1-----|


                                                       
--------------------------|---------------------------|
--------------------------|---------------------------|
-----------------------5--|---------------------------|
--3-----------------7-----|---------------------------|
-----------5--4--8--------|--5--------8--7--0--0--10--|
-----0--0-----------------|-----0--0------------------|


                                                         
------------------------------|-------------------------|
------------------------------|-------------------------|
------------------------------|-------------------------|
------------------------------|--------------5----------|
--12--8--8--12--10--7--7--10--|--0--0--0--0--3----0--0--|
------------------------------|--0--0--0--0-------0--0--|


                                                                          
------------------------|------------------------|-----------------------|
------------------------|------------------------|-----------------------|
------------------------|------------------------|-----------------------|
--------7----------8----|-------------5----------|-------3----------2----|
--0--0--5----0--0--6----|--3--2--0----3----3--2--|--0----1----3--2--0----|
--0--0-------0--0-------|--3--2--0---------3--2--|--0---------3--2-------|


                                                                            
-------------------------|------------------------|------------------------|
-------------------------|------------------------|------------------------|
-------------------------|------------------------|------------------------|
--------------8----------|--------5----------7----|-------------3----------|
--0--0--0--0--6----0--0--|--0--0--3----0--0--5----|--3--2--0----1----3--2--|
--0--0--0--0-------0--0--|--0--0-------0--0-------|--3--2--0---------3--2--|


                                                                            
------------------------|-------------------------|------------------------|
------------------------|-------------------------|------------------------|
------------------------|-------------------------|------------------------|
--2----5/-7-------------|--------------5----------|--------7----------8----|
--0----------8--7--5----|--0--0--0--0--3----0--0--|--0--0--5----0--0--6----|
------------------------|--0--0--0--0-------0--0--|--0--0-------0--0-------|


                                                                           
------------------------|-----------------------|-------------------------|
------------------------|-----------------------|-------------------------|
------------------------|-----------------------|-------------------------|
-------------5----------|-------3----------2----|--------------8----------|
--3--2--0----3----3--2--|--0----1----3--2--0----|--0--0--0--0--6----0--0--|
--3--2--0---------3--2--|--0---------3--2-------|--0--0--0--0-------0--0--|


                                                                           
------------------------|------------------------|------------------------|
------------------------|------------------------|------------------------|
------------------------|------------------------|------------------------|
--------5----------7----|-------------3----------|--2----5/-7-------------|
--0--0--3----0--0--5----|--3--2--0----1----3--2--|--0----------8--7--5----|
--0--0-------0--0-------|--3--2--0---------3--2--|------------------------|


                                                       
---------------------------|--------------------------|
---------------------------|--------------------------|
---------------------------|-----------------------5--|
---------------------------|--------------------7-----|
--5--------8--7--------10--|--8--------5--4--8--------|
-----0--0--------0--0------|-----0--0-----------------|


                                                       
---------------------------|--------------------------|
---------------------------|--------------------------|
---------------------------|--------------------------|
---------------------------|--------------------------|
--5--------8--7--------10--|--8--------3--2--0--2--3--|
-----0--0--------0--0------|-----0--0--3--2--0--------|


                                                      
--------------------------|--------------------------|
--------------------------|--------------------------|
--------------------------|-----------------------5--|
-----------3--2--------5--|--3-----------------7-----|
--5-----------------------|-----------5--4--8--------|
-----0--0--------1--1-----|-----0--0-----------------|


                                                           
---------------------------|------------------------------|
---------------------------|------------------------------|
---------------------------|------------------------------|
---------------------------|------------------------------|
--5--------8--7--0--0--10--|--12--8--8--12--10--7--7--10--|
-----0--0------------------|------------------------------|


                                                       
---------------------------|--------------------------|
---------------------------|--------------------------|
---------------------------|-----------------------5--|
--7------------------------|--------------------7-----|
--5--------8--7--------10--|--8--------5--4--8--------|
-----0--0--------0--0------|-----0--0-----------------|


                                                       
---------------------------|--------------------------|
---------------------------|--------------------------|
---------------------------|--------------------------|
---------------------------|--------------------------|
--5--------8--7--------10--|--8--------3--2--0--2--3--|
-----0--0--------0--0------|-----0--0--3--2--0--------|


                                                      
--------------------------|--------------------------|
--------------------------|--------------------------|
--------------------------|-----------------------5--|
-----------3--2--------5--|--3-----------------7-----|
--5-----------------------|-----------5--4--8--------|
-----0--0--------1--1-----|-----0--0-----------------|


                                                                                
---------------------------|-----------------------||--------------------------|
---------------------------|-----------------------||--------------------------|
---------------------------|-----------------------||*-------------------------|
---------------------------|--5----7----10----8----||*--7--7--7--5----5--5-----|
--5--------8--7--0--0--10--|--3----5----8-----6----||---5--5--5--3----3--3--5--|
-----0--0------------------|-----------------------||-----------------------5--|


                                                                               
------------------------|-------------------------|--------------------------||
------------------------|-------------------------|--------------------------||
------------------------|-------------------------|-------------------------*||
------------------------|----------------------5--|-------------------------*||
----5--5--7----7--7--8--|----2--2--2--2--2--2--3--|----1--1--1--1--1--1--1---||
----5--5--7----7--7--8--|----2--2--2--2--2--2-----|----1--1--1--1--1--1--1---||


                                                                              
-------------------------|-------------------------|-------------------------|
-------------------------|-------------------------|-------------------------|
-------------------------|-------------------------|-------------------------|
----------------------5--|----2--2--2--2--2--2--2--|--------------5----------|
----2--2--2--2--2--2--3--|----0--0--0--0--0--0--0--|--0--0--0--0--3----0--0--|
----2--2--2--2--2--2-----|-------------------------|--0--0--0--0-------0--0--|


                                                                          
------------------------|------------------------|-----------------------|
------------------------|------------------------|-----------------------|
------------------------|------------------------|-----------------------|
--------7----------8----|-------------5----------|-------3----------2----|
--0--0--5----0--0--6----|--3--2--0----3----3--2--|--0----1----3--2--0----|
--0--0-------0--0-------|--3--2--0---------3--2--|--0---------3--2-------|


                                                                            
-------------------------|------------------------|------------------------|
-------------------------|------------------------|------------------------|
-------------------------|------------------------|------------------------|
--------------8----------|--------5----------7----|-------------3----------|
--0--0--0--0--6----0--0--|--0--0--3----0--0--5----|--3--2--0----1----3--2--|
--0--0--0--0-------0--0--|--0--0-------0--0-------|--3--2--0---------3--2--|


                                                                            
------------------------|-------------------------|------------------------|
------------------------|-------------------------|------------------------|
------------------------|-------------------------|------------------------|
--2----5/-7-------------|--------------5----------|--------7----------8----|
--0----------8--7--5----|--0--0--0--0--3----0--0--|--0--0--5----0--0--6----|
------------------------|--0--0--0--0-------0--0--|--0--0-------0--0-------|


                                                                           
------------------------|-----------------------|-------------------------|
------------------------|-----------------------|-------------------------|
------------------------|-----------------------|-------------------------|
-------------5----------|-------3----------2----|--------------8----------|
--3--2--0----3----3--2--|--0----1----3--2--0----|--0--0--0--0--6----0--0--|
--3--2--0---------3--2--|--0---------3--2-------|--0--0--0--0-------0--0--|


                                                                           
------------------------|------------------------|------------------------|
------------------------|------------------------|------------------------|
------------------------|------------------------|------------------------|
--------5----------7----|-------------3----------|--2----5/-7-------------|
--0--0--3----0--0--5----|--3--2--0----1----3--2--|--0----------8--7--5----|
--0--0-------0--0-------|--3--2--0---------3--2--|------------------------|


                                                                              
--------------------------|--------------------------|-----------------------|
--------------------------|--------------------------|-----------------------|
--------------------------|--------------------------|-----------------------|
--------------------------|--------------------------|-----------------------|
--6--6--6--6--6--6--6--6--|--6--6--6--6--------------|--------------3--------|
--------------------------|--------------4--4--4--4--|--5--5--5--5--3--------|


                                                                              
-----------------------|--------------------------|--------------------------|
-----------------------|--------------------------|--------------------------|
-----------------------|--------------------------|--------------------------|
-----------------------|--------------------------|--------------------------|
--------------8--------|--6--6--6--6--6--6--6--6--|--6--6--6--6--------------|
--5--5--5--5--8--------|--------------------------|--------------4--4--4--4--|


                                                                           
-----------------------|-----------------------|--------------------------|
-----------------------|-----------------------|--------------------------|
-----------------------|-----------------------|--------------------------|
-----------------------|-----------------------|--------------------------|
--------------3--------|--------------8--------|--2--2--2--2--2--2--2--2--|
--5--5--5--5--3--------|--5--5--5--5--8--------|--------------------------|


                                                                           
--------------------------|-----------------------|-----------------------|
--------------------------|-----------------------|-----------------------|
--------------------------|-----------------------|-----------------------|
--------------------------|--------------6--------|-----------------------|
--2--2--2--2--5-----------|--------------4--------|--------------4--------|
-----------------0--0--0--|--1--1--1--1-----------|--1--1--1--1--4--------|


                                                                              
--------------------------|--------------------------|-----------------------|
--------------------------|--------------------------|-----------------------|
--------------------------|--------------------------|-----------------------|
--------------------------|--------------------------|--------------6--------|
--2--2--2--2--2--2--2--2--|--2--2--2--2--5-----------|--------------4--------|
--------------------------|-----------------0--0--0--|--1--1--1--1-----------|


                                                                     
-----------------------|---------------------|----------------------|
-----------------------|---------------------|----------------------|
-----------------------|---------------------|----------------------|
-----------------------|--7--------5--7------|----------------------|
--------------4--------|--5--------3--5------|----------------------|
--1--1--1--1--4--------|---------------------|----------5--6--3--6--|


                                                      
--------------------------|--------------------------|
--------------------------|--------------------------|
--------------------------|--------------------------|
--7-----------5--7--------|--------------------------|
--5-----------3--5--------|--------------5--6--3--6--|
-----0--0--0--------0--0--|--0--0--0--0--5--6--3--6--|


                                                                             
--------------------------|----------------------|--------------------------|
--------------------------|----------------------|--------------------------|
--------------------------|----------------------|--------------------------|
--------------------------|----------------------|--------------------------|
--5-----------3--5--------|--6----3----6----5----|--5-----------3--5--------|
-----0--0--0--------0--0--|--6----3----6----5----|-----0--0--0--------0--0--|


                                                      
--------------------------|--------------------------|
--------------------------|--------------------------|
--------------------------|--------------------------|
--------------------------|--------------------------|
--------------5--6--3--6--|--5-----------3--5--------|
--0--0--0--0--5--6--3--6--|-----0--0--0--------0--0--|


                                                                
------------------------------------|--------------------------|
------------------------------------|--------------------------|
------------------------------------|--------------------------|
--------------5----------------5----|--7-----------5--7--------|
--------------3----------------3----|--5-----------3--5--------|
--3--3--3--3-------3--3--3--3-------|-----0--0--0--------0--0--|


                                                                             
--------------------------|--------------------------|----------------------|
--------------------------|--------------------------|----------------------|
--------------------------|--------------------------|----------------------|
--------------------------|--------------------------|----------------------|
--------------5--6--3--6--|--5-----------3--5--------|--6----3----6----5----|
--0--0--0--0--5--6--3--6--|-----0--0--0--------0--0--|--6----3----6----5----|


                                                      
--------------------------|--------------------------|
--------------------------|--------------------------|
--------------------------|--------------------------|
--------------------------|--------------------------|
--5-----------3--5--------|--------------5--6--3--6--|
-----0--0--0--------0--0--|--0--0--0--0--5--6--3--6--|


                                                                
--------------------------|------------------------------------|
--------------------------|------------------------------------|
--------------------------|------------------------------------|
--------------------------|--------------5----------------5----|
--5-----------3--5--------|--------------3----------------3----|
-----0--0--0--------0--0--|--3--3--3--3-------3--3--3--3-------|


                                                                             
-------------------------|-------------------------|------------------------|
-------------------------|-------------------------|------------------------|
-------------------------|-------------------------|------------------------|
-------------------------|-------------------------|------------------------|
--2--2--2--2--0----5--5--|--5--5--0----2--2--2--2--|--0----5--5--5--5--0----|
--2--2--2--2--0----5--5--|--5--5--0----2--2--2--2--|--0----5--5--5--5--0----|


                                                                             
------------------------|-------------------------|-------------------------|
------------------------|-------------------------|-------------------------|
------------------------|-------------------------|-------------------------|
------------------------|-------------------------|-------------------------|
--2--2--3/-2--0--2------|--2--2--2--2--0----3--3--|--3--3--0----2--2--2--2--|
--2--2--3/-2--0--2------|--2--2--2--2--0----3--3--|--3--3--0----2--2--2--2--|


                                                                           
------------------------|-----------------------|-------------------------|
------------------------|-----------------------|-------------------------|
------------------------|-----------------------|-------------------------|
------------------------|--4----4--4--5--5------|-------------------------|
--0----3--3--3--3--0----|--2----2--2--3--3------|--2--2--2--2--0----5--5--|
--0----3--3--3--3--0----|-----------------------|--2--2--2--2--0----5--5--|


                                                                            
-------------------------|------------------------|------------------------|
-------------------------|------------------------|------------------------|
-------------------------|------------------------|------------------------|
-------------------------|------------------------|------------------------|
--5--5--0----2--2--2--2--|--0----5--5--5--5--0----|--2--2--3/-2--0--2------|
--5--5--0----2--2--2--2--|--0----5--5--5--5--0----|--2--2--3/-2--0--2------|


                                                                             
-------------------------|-------------------------|------------------------|
-------------------------|-------------------------|------------------------|
-------------------------|-------------------------|------------------------|
-------------------------|-------------------------|------------------------|
--2--2--2--2--0----3--3--|--3--3--0----2--2--2--2--|--0----3--3--3--3--0----|
--2--2--2--2--0----3--3--|--3--3--0----2--2--2--2--|--0----3--3--3--3--0----|


                                                                            
-----------------------|-------------------------|-------------------------|
-----------------------|-------------------------|-------------------------|
-----------------------|-------------------------|-------------------------|
--4----4--4--5--5------|-------------------------|-------------------------|
--2----2--2--3--3------|--2--2--2--2--0----5--5--|--5--5--0----2--2--2--2--|
-----------------------|--2--2--2--2--0----5--5--|--5--5--0----2--2--2--2--|


                                                                            
------------------------|------------------------|-------------------------|
------------------------|------------------------|-------------------------|
------------------------|------------------------|-------------------------|
------------------------|------------------------|-------------------------|
--0----5--5--5--5--0----|--2--2--3/-2--0--2------|--2--2--2--2--0----3--3--|
--0----5--5--5--5--0----|--2--2--3/-2--0--2------|--2--2--2--2--0----3--3--|


                                                                             
-------------------------|------------------------|-------------------------|
-------------------------|------------------------|-------------------------|
-------------------------|------------------------|-------------------------|
-------------------------|-------------------7----|--4----7/-9--------------|
--3--3--0----2--2--2--2--|--0----2--2--2--2--5----|--2----------10--9--7----|
--3--3--0----2--2--2--2--|--0----2--2--2--2-------|-------------------------|


                                                                            
-------------------------|------------------------|------------------------|
-------------------------|------------------------|------------------------|
-------------------------|------------------------|------------------------|
--------------5----------|--------7----------8----|-------------5----------|
--0--0--0--0--3----0--0--|--0--0--5----0--0--6----|--3--2--0----3----3--2--|
--0--0--0--0-------0--0--|--0--0-------0--0-------|--3--2--0---------3--2--|


                                                                           
-----------------------|-------------------------|------------------------|
-----------------------|-------------------------|------------------------|
-----------------------|-------------------------|------------------------|
-------3----------2----|--------------8----------|--------5----------7----|
--0----1----3--2--0----|--0--0--0--0--6----0--0--|--0--0--3----0--0--5----|
--0---------3--2-------|--0--0--0--0-------0--0--|--0--0-------0--0-------|


                                                                            
------------------------|------------------------|-------------------------|
------------------------|------------------------|-------------------------|
------------------------|------------------------|-------------------------|
-------------3----------|--2----5/-7-------------|--------------5----------|
--3--2--0----1----3--2--|--0----------8--7--5----|--0--0--0--0--3----0--0--|
--3--2--0---------3--2--|------------------------|--0--0--0--0-------0--0--|


                                                                          
------------------------|------------------------|-----------------------|
------------------------|------------------------|-----------------------|
------------------------|------------------------|-----------------------|
--------7----------8----|-------------5----------|-------3----------2----|
--0--0--5----0--0--6----|--3--2--0----3----3--2--|--0----1----3--2--0----|
--0--0-------0--0-------|--3--2--0---------3--2--|--0---------3--2-------|


                                                                            
-------------------------|------------------------|------------------------|
-------------------------|------------------------|------------------------|
-------------------------|------------------------|------------------------|
--------------8----------|--------5----------7----|-------------3----------|
--0--0--0--0--6----0--0--|--0--0--3----0--0--5----|--3--2--0----1----3--2--|
--0--0--0--0-------0--0--|--0--0-------0--0-------|--3--2--0---------3--2--|


                                                                                
------------------------|---------------------------|--------------------------|
------------------------|---------------------------|--------------------------|
------------------------|---------------------------|-----------------------5--|
--2----5/-7-------------|---------------------------|--------------------7-----|
--0----------8--7--5----|--5--------8--7--------10--|--8--------5--4--8--------|
------------------------|-----0--0--------0--0------|-----0--0-----------------|


                                                       
---------------------------|--------------------------|
---------------------------|--------------------------|
---------------------------|--------------------------|
---------------------------|--------------------------|
--5--------8--7--------10--|--8--------3--2--0--2--3--|
-----0--0--------0--0------|-----0--0--3--2--0--------|


                                                      
--------------------------|--------------------------|
--------------------------|--------------------------|
--------------------------|-----------------------5--|
-----------3--2--------5--|--3-----------------7-----|
--5-----------------------|-----------5--4--8--------|
-----0--0--------1--1-----|-----0--0-----------------|


                                                           
---------------------------|------------------------------|
---------------------------|------------------------------|
---------------------------|------------------------------|
---------------------------|------------------------------|
--5--------8--7--0--0--10--|--12--8--8--12--10--7--7--10--|
-----0--0------------------|------------------------------|


                                                       
---------------------------|--------------------------|
---------------------------|--------------------------|
---------------------------|-----------------------5--|
---------------------------|--------------------7-----|
--5--------8--7--------10--|--8--------5--4--8--------|
-----0--0--------0--0------|-----0--0-----------------|


                                                       
---------------------------|--------------------------|
---------------------------|--------------------------|
---------------------------|--------------------------|
---------------------------|--------------------------|
--5--------8--7--------10--|--8--------3--2--0--2--3--|
-----0--0--------0--0------|-----0--0--3--2--0--------|


                                                      
--------------------------|--------------------------|
--------------------------|--------------------------|
--------------------------|-----------------------5--|
-----------3--2--------5--|--3-----------------7-----|
--5-----------------------|-----------5--4--8--------|
-----0--0--------1--1-----|-----0--0-----------------|


                                                                                
---------------------------|-----------------------||--------------------------|
---------------------------|-----------------------||--------------------------|
---------------------------|-----------------------||*-------------------------|
---------------------------|--5----7----10----8----||*--7--7--7--5----5--5-----|
--5--------8--7--0--0--10--|--3----5----8-----6----||---5--5--5--3----3--3--5--|
-----0--0------------------|-----------------------||-----------------------5--|


                                                                             3x
------------------------|-------------------------|--------------------------||
------------------------|-------------------------|--------------------------||
------------------------|-------------------------|-------------------------*||
------------------------|----------------------5--|-------------------------*||
----5--5--7----7--7--8--|----2--2--2--2--2--2--3--|----1--1--1--1--1--1--1---||
----5--5--7----7--7--8--|----2--2--2--2--2--2-----|----1--1--1--1--1--1--1---||


                                                                         
------------------------|-------------------------|---------------------|
------------------------|-------------------------|---------------------|
------------------------|-------------------------|---------------------|
--3------------------5--|----2--2--2--2--2--2--2--|--7--------5--7------|
--1----x--3----3--3--3--|----0--0--0--0--0--0--0--|--5--------3--5------|
-------x--3----3--3-----|-------------------------|---------------------|


                                                                         
------------------------|--------------------------|-------------------||
------------------------|-----------------5--------|-------------------||
------------------------|-------------------5------|-------------------||
------------------------|---------------------5----|-------------------||
--5--6--3--5--6----3----|--6----5----0----------5--|--0----------------||
--------------6----3----|--6----5----0-------------|--0----------------||

---------------------------------------------------------------------------

Rythm Guitar 2
                                                                    
D||------------------|-------------------------|--------------------|
A||------------------|-------------------------|--------------------|
F||------------------|-------------------------|--------------------|
C||------------------|--5------------9----8----|--7--------------3--|
G||------------------|--3------------7----6----|--5--------------1--|
C||------------------|-------0-0-0-0-----------|--------------------|


                                                                     
----------------------|---------------------|-----------------------|
----------------------|---------------------|-----------------------|
----------------------|---------------------|-----------------------|
--2------6--5------9--|--10--------------6--|--5------8--7------10--|
--0------4--3------7--|--8---------------4--|--3------6--5------8---|
----------------------|---------------------|-----------------------|


                                                                
--------------------------------|------------------------------|
--------------------------------|------------------------------|
--------------------------------|------------------------------|
--9--------------------------3--|--2----------6--5----------9--|
--7--------------------------1--|--0----------4--3----------7--|
-----0-0-0-0-0-0-0-0-0-0-0-0----|-----0-0-0-0-------0-0-0-0----|


                                                           
----------------------------------|-----------------------|
----------------------------------|-----------------------|
----------------------------------|-----------------------|
--10------------------------------|--5----7----10----8----|
--8-------------------------------|--3----5----8-----6----|
------0-0-0-0-0-0-0-0-0-0-0-0-0-0-|-----------------------|


                                                       
---------------------------|--------------------------|
---------------------------|--------------------------|
---------------------------|--------------------------|
---------------------------|--------------------3--6--|
--5--------8--7--------10--|--8--------------5--------|
-----0--0--------0--0------|-----0--0--5--6-----------|


                                                       
---------------------------|--------------------------|
---------------------------|--------------------------|
---------------------------|--------------------------|
---------------------------|--------------------------|
--5--------8--7--------10--|--8--------3--2--0--2--3--|
-----0--0--------0--0------|-----0--0--3--2--0--2--3--|


                                                      
--------------------------|--------------------------|
--------------------------|--------------------------|
--------------------------|--------------------------|
-----------3--2--------5--|--3-----------------3--6--|
--5-----------------------|-----------------5--------|
-----0--0--------1--1-----|-----0--0--5--6-----------|


                                                                                
---------------------------|-----------------------|---------------------------|
---------------------------|-----------------------|---------------------------|
---------------------------|-----------------------|---------------------------|
---------------------------|--5----7----10----8----|---------------------------|
--5--------8--7--------10--|--3----5----8-----6----|--5--------8--7--------10--|
-----0--0--------0--0------|-----------------------|-----0--0--------0--0------|


                                                       
--------------------------|---------------------------|
--------------------------|---------------------------|
--------------------------|---------------------------|
--------------------3--6--|---------------------------|
--8--------------5--------|--5--------8--7--------10--|
-----0--0--5--6-----------|-----0--0--------0--0------|


                                                      
--------------------------|--------------------------|
--------------------------|--------------------------|
--------------------------|--------------------------|
--------------------------|-----------3--2--------5--|
--8--------3--2--0--2--3--|--5-----------------------|
-----0--0--3--2--0--2--3--|-----0--0--------1--1-----|


                                                       
--------------------------|---------------------------|
--------------------------|---------------------------|
--------------------------|---------------------------|
--3-----------------3--6--|---------------------------|
-----------------5--------|--5--------8--7--0--0--10--|
-----0--0--5--6-----------|-----0--0------------------|


                                                                              
--------------------------|-------------------------|------------------------|
--------------------------|-------------------------|------------------------|
--------------------------|-------------------------|------------------------|
--------------------------|--------------5----------|--------7----------8----|
--8--5--5--8--7--3--3--7--|--0--0--0--0--3----0--0--|--0--0--5----0--0--6----|
--------------------------|--0--0--0--0-------0--0--|--0--0-------0--0-------|


                                                                           
------------------------|-----------------------|-------------------------|
------------------------|-----------------------|-------------------------|
------------------------|-----------------------|-------------------------|
-------------5----------|-------3----------2----|--------------8----------|
--3--2--0----3----3--2--|--0----1----3--2--0----|--0--0--0--0--6----0--0--|
--3--2--0---------3--2--|--0---------3--2-------|--0--0--0--0-------0--0--|


                                                                           
------------------------|------------------------|------------------------|
------------------------|------------------------|------------------------|
------------------------|------------------------|------------------------|
--------5----------7----|-------------3----------|--2----5/-7-------------|
--0--0--3----0--0--5----|--3--2--0----1----3--2--|--0----------8--7--5----|
--0--0-------0--0-------|--3--2--0---------3--2--|------------------------|


                                                                            
-------------------------|------------------------|------------------------|
-------------------------|------------------------|------------------------|
-------------------------|------------------------|------------------------|
--------------5----------|--------7----------8----|-------------5----------|
--0--0--0--0--3----0--0--|--0--0--5----0--0--6----|--3--2--0----3----3--2--|
--0--0--0--0-------0--0--|--0--0-------0--0-------|--3--2--0---------3--2--|


                                                                           
-----------------------|-------------------------|------------------------|
-----------------------|-------------------------|------------------------|
-----------------------|-------------------------|------------------------|
-------3----------2----|--------------8----------|--------5----------7----|
--0----1----3--2--0----|--0--0--0--0--6----0--0--|--0--0--3----0--0--5----|
--0---------3--2-------|--0--0--0--0-------0--0--|--0--0-------0--0-------|


                                                                              
------------------------|------------------------|---------------------------|
------------------------|------------------------|---------------------------|
------------------------|------------------------|---------------------------|
-------------3----------|--2----5/-7-------------|---------------------------|
--3--2--0----1----3--2--|--0----------8--7--5----|--5--------8--7--------10--|
--3--2--0---------3--2--|------------------------|-----0--0--------0--0------|


                                                       
--------------------------|---------------------------|
--------------------------|---------------------------|
--------------------------|---------------------------|
--------------------3--6--|---------------------------|
--8--------------5--------|--5--------8--7--------10--|
-----0--0--5--6-----------|-----0--0--------0--0------|


                                                      
--------------------------|--------------------------|
--------------------------|--------------------------|
--------------------------|--------------------------|
--------------------------|-----------3--2--------5--|
--8--------3--2--0--2--3--|--5-----------------------|
-----0--0--3--2--0--2--3--|-----0--0--------1--1-----|


                                                       
--------------------------|---------------------------|
--------------------------|---------------------------|
--------------------------|---------------------------|
--3-----------------3--6--|---------------------------|
-----------------5--------|--5--------8--7--------10--|
-----0--0--5--6-----------|-----0--0--------0--0------|


                                                       
--------------------------|---------------------------|
--------------------------|---------------------------|
--------------------------|---------------------------|
--------------------------|---------------------------|
--8--5--5--8--7--3--3--7--|--5--------8--7--------10--|
--------------------------|-----0--0--------0--0------|


                                                       
--------------------------|---------------------------|
--------------------------|---------------------------|
--------------------------|---------------------------|
--------------------3--6--|---------------------------|
--8--------------5--------|--5--------8--7--------10--|
-----0--0--5--6-----------|-----0--0--------0--0------|


                                                      
--------------------------|--------------------------|
--------------------------|--------------------------|
--------------------------|--------------------------|
--------------------------|-----------3--2--------5--|
--8--------3--2--0--2--3--|--5-----------------------|
-----0--0--3--2--0--2--3--|-----0--0--------1--1-----|


                                                                               
--------------------------|---------------------------|-----------------------|
--------------------------|---------------------------|-----------------------|
--------------------------|---------------------------|-----------------------|
--3-----------------3--6--|---------------------------|--5----7----10----8----|
-----------------5--------|--5--------8--7--0--0--10--|--3----5----8-----6----|
-----0--0--5--6-----------|-----0--0------------------|-----------------------|


                                                                               
|--------------------------|------------------------|-------------------------|
|--------------------------|------------------------|-------------------------|
|*-------------------------|------------------------|-------------------------|
|*--7--7--7--5----5--5-----|------------------------|----------------------5--|
|---5--5--5--3----3--3--5--|----5--5--7----7--7--8--|----2--2--2--2--2--2--3--|
|-----------------------5--|----5--5--7----7--7--8--|----2--2--2--2--2--2-----|


                                                                                
--------------------------||-------------------------|-------------------------|
--------------------------||-------------------------|-------------------------|
-------------------------*||-------------------------|-------------------------|
-------------------------*||----------------------5--|----2--2--2--2--2--2--2--|
----1--1--1--1--1--1--1---||----2--2--2--2--2--2--3--|----0--0--0--0--0--0--0--|
----1--1--1--1--1--1--1---||----2--2--2--2--2--2-----|-------------------------|


                                                                            
-------------------------|------------------------|------------------------|
-------------------------|------------------------|------------------------|
-------------------------|------------------------|------------------------|
--------------5----------|--------7----------8----|-------------5----------|
--0--0--0--0--3----0--0--|--0--0--5----0--0--6----|--3--2--0----3----3--2--|
--0--0--0--0-------0--0--|--0--0-------0--0-------|--3--2--0---------3--2--|


                                                                           
-----------------------|-------------------------|------------------------|
-----------------------|-------------------------|------------------------|
-----------------------|-------------------------|------------------------|
-------3----------2----|--------------8----------|--------5----------7----|
--0----1----3--2--0----|--0--0--0--0--6----0--0--|--0--0--3----0--0--5----|
--0---------3--2-------|--0--0--0--0-------0--0--|--0--0-------0--0-------|


                                                                            
------------------------|------------------------|-------------------------|
------------------------|------------------------|-------------------------|
------------------------|------------------------|-------------------------|
-------------3----------|--2----5/-7-------------|--------------5----------|
--3--2--0----1----3--2--|--0----------8--7--5----|--0--0--0--0--3----0--0--|
--3--2--0---------3--2--|------------------------|--0--0--0--0-------0--0--|


                                                                          
------------------------|------------------------|-----------------------|
------------------------|------------------------|-----------------------|
------------------------|------------------------|-----------------------|
--------7----------8----|-------------5----------|-------3----------2----|
--0--0--5----0--0--6----|--3--2--0----3----3--2--|--0----1----3--2--0----|
--0--0-------0--0-------|--3--2--0---------3--2--|--0---------3--2-------|


                                                                            
-------------------------|------------------------|------------------------|
-------------------------|------------------------|------------------------|
-------------------------|------------------------|------------------------|
--------------8----------|--------5----------7----|-------------3----------|
--0--0--0--0--6----0--0--|--0--0--3----0--0--5----|--3--2--0----1----3--2--|
--0--0--0--0-------0--0--|--0--0-------0--0-------|--3--2--0---------3--2--|


                                                                               
------------------------|--------------------------|--------------------------|
------------------------|--------------------------|--------------------------|
------------------------|--------------------------|--------------------------|
--2----5/-7-------------|--------------------------|--------------------------|
--0----------8--7--5----|--6--6--6--6--6--6--6--6--|--6--6--6--6--------------|
------------------------|--------------------------|--------------4--4--4--4--|


                                                                           
-----------------------|-----------------------|--------------------------|
-----------------------|-----------------------|--------------------------|
-----------------------|-----------------------|--------------------------|
-----------------------|-----------------------|--------------------------|
--------------3--------|--------------8--------|--6--6--6--6--6--6--6--6--|
--5--5--5--5--3--------|--5--5--5--5--8--------|--------------------------|


                                                                           
--------------------------|-----------------------|-----------------------|
--------------------------|-----------------------|-----------------------|
--------------------------|-----------------------|-----------------------|
--------------------------|-----------------------|-----------------------|
--6--6--6--6--------------|--------------3--------|--------------8--------|
--------------4--4--4--4--|--5--5--5--5--3--------|--5--5--5--5--8--------|


                                                                              
--------------------------|--------------------------|-----------------------|
--------------------------|--------------------------|-----------------------|
--------------------------|--------------------------|-----------------------|
--------------------------|--------------------------|--------------6--------|
--2--2--2--2--2--2--2--2--|--2--2--2--2--5-----------|--------------4--------|
--------------------------|-----------------0--0--0--|--1--1--1--1-----------|


                                                                              
-----------------------|--------------------------|--------------------------|
-----------------------|--------------------------|--------------------------|
-----------------------|--------------------------|--------------------------|
-----------------------|--------------------------|--------------------------|
--------------4--------|--2--2--2--2--2--2--2--2--|--2--2--2--2--5-----------|
--1--1--1--1--4--------|--------------------------|-----------------0--0--0--|


                                                                           
-----------------------|-----------------------|--------------------------|
-----------------------|-----------------------|--------------------------|
-----------------------|-----------------------|--------------------7--7--|
--------------6--------|-----------------------|--7-----------5--7--------|
--------------4--------|--------------4--------|--5-----------3--5--------|
--1--1--1--1-----------|--1--1--1--1--4--------|-----0--0--0--------------|


                                                       
---------------------------|--------------------------|
---------------------------|--------------------------|
--12--7--7--7--------------|--------------------------|
---------------------------|--7-----------5--7--------|
---------------------------|--5-----------3--5--------|
---------------5--6--3--6--|-----0--0--0--------0--0--|


                                                                             
--------------------------|--------------------------|----------------------|
--------------------------|--------------------------|----------------------|
--------------------------|--------------------------|----------------------|
--------------------------|--------------------------|----------------------|
--------------5--6--3--6--|--5-----------3--5--------|--6----3----6----5----|
--0--0--0--0--5--6--3--6--|-----0--0--0--------0--0--|--6----3----6----5----|


                                                      
--------------------------|--------------------------|
--------------------------|--------------------------|
--------------------------|--------------------------|
--------------------------|--------------------------|
--5-----------3--5--------|--------------5--6--3--6--|
-----0--0--0--------0--0--|--0--0--0--0--5--6--3--6--|


                                                                
--------------------------|------------------------------------|
--------------------------|------------------------------------|
--------------------------|------------------------------------|
--------------------------|--------------5----------------5----|
--5-----------3--5--------|--------------3----------------3----|
-----0--0--0--------0--0--|--3--3--3--3-------3--3--3--3-------|


                                                      
--------------------------|--------------------------|
--------------------------|--------------------------|
--------------------------|--------------------------|
--7-----------5--7--------|--------------------------|
--5-----------3--5--------|--------------5--6--3--6--|
-----0--0--0--------0--0--|--0--0--0--0--5--6--3--6--|


                                                                             
--------------------------|----------------------|--------------------------|
--------------------------|----------------------|--------------------------|
--------------------------|----------------------|--------------------------|
--------------------------|----------------------|--------------------------|
--5-----------3--5--------|--6----3----6----5----|--5-----------3--5--------|
-----0--0--0--------0--0--|--6----3----6----5----|-----0--0--0--------0--0--|


                                                      
--------------------------|--------------------------|
--------------------------|--------------------------|
--------------------------|--------------------------|
--------------------------|--------------------------|
--------------5--6--3--6--|--5-----------3--5--------|
--0--0--0--0--5--6--3--6--|-----0--0--0--------0--0--|


                                                               
------------------------------------|-------------------------|
------------------------------------|-------------------------|
------------------------------------|-------------------------|
--------------5----------------5----|-------------------------|
--------------3----------------3----|--2--2--2--2--0----5--5--|
--3--3--3--3-------3--3--3--3-------|--2--2--2--2--0----5--5--|


                                                                            
-------------------------|------------------------|------------------------|
-------------------------|------------------------|------------------------|
-------------------------|------------------------|------------------------|
-------------------------|------------------------|------------------------|
--5--5--0----2--2--2--2--|--0----5--5--5--5--0----|--2--2--3/-2--0--2------|
--5--5--0----2--2--2--2--|--0----5--5--5--5--0----|--2--2--3/-2--0--2------|


                                                                             
-------------------------|-------------------------|------------------------|
-------------------------|-------------------------|------------------------|
-------------------------|-------------------------|------------------------|
-------------------------|-------------------------|------------------------|
--2--2--2--2--0----3--3--|--3--3--0----2--2--2--2--|--0----3--3--3--3--0----|
--2--2--2--2--0----3--3--|--3--3--0----2--2--2--2--|--0----3--3--3--3--0----|


                                                                            
-----------------------|-------------------------|-------------------------|
-----------------------|-------------------------|-------------------------|
-----------------------|-------------------------|-------------------------|
--4----4--4--5--5------|-------------------------|-------------------------|
--2----2--2--3--3------|--2--2--2--2--0----5--5--|--5--5--0----2--2--2--2--|
-----------------------|--2--2--2--2--0----5--5--|--5--5--0----2--2--2--2--|


                                                                            
------------------------|------------------------|-------------------------|
------------------------|------------------------|-------------------------|
------------------------|------------------------|-------------------------|
------------------------|------------------------|-------------------------|
--0----5--5--5--5--0----|--2--2--3/-2--0--2------|--2--2--2--2--0----3--3--|
--0----5--5--5--5--0----|--2--2--3/-2--0--2------|--2--2--2--2--0----3--3--|


                                                                           
-------------------------|------------------------|-----------------------|
-------------------------|------------------------|-----------------------|
-------------------------|------------------------|-----------------------|
-------------------------|------------------------|--4----4--4--5--5------|
--3--3--0----2--2--2--2--|--0----3--3--3--3--0----|--2----2--2--3--3------|
--3--3--0----2--2--2--2--|--0----3--3--3--3--0----|-----------------------|


                                                                             
-------------------------|-------------------------|------------------------|
-------------------------|-------------------------|------------------------|
-------------------------|-------------------------|------------------------|
-------------------------|-------------------------|------------------------|
--2--2--2--2--0----5--5--|--5--5--0----2--2--2--2--|--0----5--5--5--5--0----|
--2--2--2--2--0----5--5--|--5--5--0----2--2--2--2--|--0----5--5--5--5--0----|


                                                                             
------------------------|-------------------------|-------------------------|
------------------------|-------------------------|-------------------------|
------------------------|-------------------------|-------------------------|
------------------------|-------------------------|-------------------------|
--2--2--3/-2--0--2------|--2--2--2--2--0----3--3--|--3--3--0----2--2--2--2--|
--2--2--3/-2--0--2------|--2--2--2--2--0----3--3--|--3--3--0----2--2--2--2--|


                                                                             
------------------------|-------------------------|-------------------------|
------------------------|-------------------------|-------------------------|
------------------------|-------------------------|-------------------------|
-------------------7----|--4----7/-9--------------|--------------5----------|
--0----2--2--2--2--5----|--2----------10--9--7----|--0--0--0--0--3----0--0--|
--0----2--2--2--2-------|-------------------------|--0--0--0--0-------0--0--|


                                                                          
------------------------|------------------------|-----------------------|
------------------------|------------------------|-----------------------|
------------------------|------------------------|-----------------------|
--------7----------8----|-------------5----------|-------3----------2----|
--0--0--5----0--0--6----|--3--2--0----3----3--2--|--0----1----3--2--0----|
--0--0-------0--0-------|--3--2--0---------3--2--|--0---------3--2-------|


                                                                            
-------------------------|------------------------|------------------------|
-------------------------|------------------------|------------------------|
-------------------------|------------------------|------------------------|
--------------8----------|--------5----------7----|-------------3----------|
--0--0--0--0--6----0--0--|--0--0--3----0--0--5----|--3--2--0----1----3--2--|
--0--0--0--0-------0--0--|--0--0-------0--0-------|--3--2--0---------3--2--|


                                                                            
------------------------|-------------------------|------------------------|
------------------------|-------------------------|------------------------|
------------------------|-------------------------|------------------------|
--2----5/-7-------------|--------------5----------|--------7----------8----|
--0----------8--7--5----|--0--0--0--0--3----0--0--|--0--0--5----0--0--6----|
------------------------|--0--0--0--0-------0--0--|--0--0-------0--0-------|


                                                                           
------------------------|-----------------------|-------------------------|
------------------------|-----------------------|-------------------------|
------------------------|-----------------------|-------------------------|
-------------5----------|-------3----------2----|--------------8----------|
--3--2--0----3----3--2--|--0----1----3--2--0----|--0--0--0--0--6----0--0--|
--3--2--0---------3--2--|--0---------3--2-------|--0--0--0--0-------0--0--|


                                                                           
------------------------|------------------------|------------------------|
------------------------|------------------------|------------------------|
------------------------|------------------------|------------------------|
--------5----------7----|-------------3----------|--2----5/-7-------------|
--0--0--3----0--0--5----|--3--2--0----1----3--2--|--0----------8--7--5----|
--0--0-------0--0-------|--3--2--0---------3--2--|------------------------|


                                                       
---------------------------|--------------------------|
---------------------------|--------------------------|
---------------------------|--------------------------|
---------------------------|--------------------3--6--|
--5--------8--7--------10--|--8--------------5--------|
-----0--0--------0--0------|-----0--0--5--6-----------|


                                                       
---------------------------|--------------------------|
---------------------------|--------------------------|
---------------------------|--------------------------|
---------------------------|--------------------------|
--5--------8--7--------10--|--8--------3--2--0--2--3--|
-----0--0--------0--0------|-----0--0--3--2--0--2--3--|


                                                      
--------------------------|--------------------------|
--------------------------|--------------------------|
--------------------------|--------------------------|
-----------3--2--------5--|--3-----------------3--6--|
--5-----------------------|-----------------5--------|
-----0--0--------1--1-----|-----0--0--5--6-----------|


                                                       
---------------------------|--------------------------|
---------------------------|--------------------------|
---------------------------|--------------------------|
---------------------------|--------------------------|
--5--------8--7--0--0--10--|--8--5--5--8--7--3--3--7--|
-----0--0------------------|--------------------------|


                                                       
---------------------------|--------------------------|
---------------------------|--------------------------|
---------------------------|--------------------------|
---------------------------|--------------------3--6--|
--5--------8--7--------10--|--8--------------5--------|
-----0--0--------0--0------|-----0--0--5--6-----------|


                                                       
---------------------------|--------------------------|
---------------------------|--------------------------|
---------------------------|--------------------------|
---------------------------|--------------------------|
--5--------8--7--------10--|--8--------3--2--0--2--3--|
-----0--0--------0--0------|-----0--0--3--2--0--2--3--|


                                                      
--------------------------|--------------------------|
--------------------------|--------------------------|
--------------------------|--------------------------|
-----------3--2--------5--|--3-----------------3--6--|
--5-----------------------|-----------------5--------|
-----0--0--------1--1-----|-----0--0--5--6-----------|


                                                                                
---------------------------|-----------------------||--------------------------|
---------------------------|-----------------------||--------------------------|
---------------------------|-----------------------||*-------------------------|
---------------------------|--5----7----10----8----||*--7--7--7--5----5--5-----|
--5--------8--7--0--0--10--|--3----5----8-----6----||---5--5--5--3----3--3--5--|
-----0--0------------------|-----------------------||-----------------------5--|


                                                                             3x
------------------------|-------------------------|--------------------------||
------------------------|-------------------------|--------------------------||
------------------------|-------------------------|-------------------------*||
------------------------|----------------------5--|-------------------------*||
----5--5--7----7--7--8--|----2--2--2--2--2--2--3--|----1--1--1--1--1--1--1---||
----5--5--7----7--7--8--|----2--2--2--2--2--2-----|----1--1--1--1--1--1--1---||


                                                                              
------------------------|-------------------------|--------------------------|
------------------------|-------------------------|--------------------------|
------------------------|-------------------------|--------------------------|
--3------------------5--|----2--2--2--2--2--2--2--|--7-----------5--7--------|
--1----x--3----3--3--3--|----0--0--0--0--0--0--0--|--5-----------3--5--------|
-------x--3----3--3-----|-------------------------|-----0--0--0--------0--0--|


                                                                         
------------------------|-----------------5--------|-------------------||
------------------------|-------------------5------|-------------------||
------------------------|---------------------5----|-------------------||
------------------------|-----------------------5--|-------------------||
--------------6----3----|--6----5----0-------------|--0----------------||
--5--6--3--5--6----3----|--6----5----0-------------|--0----------------||

----------------------------------------------------------------------------

Lead Guitar:
                                                                   
D||-----------17-------------------|------------20----------------|
A||-------18------20---------------|----17--18--------17--18------|
F||*--19----------------17--x--19--|--------------------------19--|
C||*-------------------------------|------------------------------|
G||--------------------------------|------------------------------|
C||--------------------------------|------------------------------|
                                                                  
--------------------------------|----------------18---------------||
----20--19--20--17--20--19--17--|----20--18--20------18--20--16---||
--------------------------------|--------------------------------*||
--------------------------------|--------------------------------*||
--------------------------------|---------------------------------||
--------------------------------|---------------------------------||
                                                                           
----------------20--------------|----------------------------------|------|
----18--17--18------17--18------|------18--17--18--20--18--17--18--|------|
----------------------------19--|--17------------------------------|------|
--------------------------------|----------------------------------|------|
--------------------------------|----------------------------------|------|
--------------------------------|----------------------------------|------|
                                                                    
----------------------------------|----------------------------------|
----------15--15----------15--15--|----------------------------------|
--12--12----------14--14----------|--12--12--15--15--11--11--15--15--|
----------------------------------|----------------------------------|
----------------------------------|----------------------------------|
----------------------------------|----------------------------------|
                                                                    
--------------------------13--13--|--------------------------13--13--|
----------------------------------|----------------------------------|
--12--12--15--15--10--10----------|--12--12--15--15--10--10----------|
----------------------------------|----------------------------------|
----------------------------------|----------------------------------|
----------------------------------|----------------------------------|
                                                                    
----------------------------------|----------------------------------|
----------15--15----------15--15--|----------------------------------|
--12--12----------14--14----------|--12--12--15--15--11--11--15--15--|
----------------------------------|----------------------------------|
----------------------------------|----------------------------------|
----------------------------------|----------------------------------|
                                                                    
--------------------------13--13--|--------------------------13--13--|
----------------------------------|----------------------------------|
--12--12--15--15--10--10----------|--12--12--15--15--10--10----------|
----------------------------------|----------------------------------|
----------------------------------|----------------------------------|
----------------------------------|----------------------------------|
                                                                    
----------------------------------|--------------------------17--17--|
----------19--19----------19--19--|----------19--19--15--15----------|
--16--16----------18--18----------|--16--16--------------------------|
----------------------------------|----------------------------------|
----------------------------------|----------------------------------|
----------------------------------|----------------------------------|
                                                                   
--------------------------21--21--|--------------------------21--21--|
--16--16--19--19------------------|--16--16--19--19------------------|
------------------18--18----------|------------------18--18----------|
----------------------------------|----------------------------------|
----------------------------------|----------------------------------|
----------------------------------|----------------------------------|
                                                                    
----------------------------------|--------------------------17--17--|
----------19--19----------19--19--|----------19--19--15--15----------|
--16--16----------18--18----------|--16--16--------------------------|
----------------------------------|----------------------------------|
----------------------------------|----------------------------------|
----------------------------------|----------------------------------|
                                                                        
--------------------------21--21--|--------------------------21--21/-|----|
--16--16--19--19------------------|--16--16--19--19------------------|----|
------------------18--18----------|------------------18--18----------|----|
----------------------------------|----------------------------------|----|
----------------------------------|----------------------------------|----|
----------------------------------|----------------------------------|----|

Guitar Solo:
                                                                  
------|-------------------|------------------|-------------------|
------|--5----------------|------------------|----------5--------|
------|--5----------------|------------------|----------5--------|
------|-------------------|------------------|-------------------|
------|-------------------|------------------|-------------------|
------|-------------------|------------------|-------------------|
                                                                   
--------------------|--12p11p10p9-------------------------------------|
--------------------|-------------13p12p11h12-13p12p11p10-------------|
--------------------|-------------------------------------13p12p11p10-|
--------------------|-------------------------------------------------|
----------12/-------|-------------------------------------------------|
----------12/-------|-------------------------------------------------|
                                                   
--------------------------------------------------|
--------------------------------------------------|
--15p14p13p12-17p16p15p14h15h16-17p16-17p16p15p14-|
--------------------------------------------------|
--------------------------------------------------|
--------------------------------------------------|
                                                
--------------------------------------------------|
--------------------------------------------------|
--14p13p12p11-------------------------------------|
--------------15p14p13h14-15p14p13p12-------------|
--------------------------------------16p15p14p13-|
--------------------------------------------------|
                                              
----------------------------------------------||
------------------------------------13--10----||
------------------------12--10--12------------||
--------------12--10--------------------------||
--12--10--12----------------------------------||
----------------------------------------------||

comments
print report bad tab
7 comments total. Showing first comments.
+2 reply
zjmellet wrote on April 29 2008, 08:39 pm

good tab! hard 2 remember though.

+1 reply
ernestcaezar wrote on May 31 2008, 04:38 am

nice tab....

-2 reply
ernestcaezar wrote on June 9 2008, 01:30 am

hi!!! where is the lead before the guitar solo????

I want to post or [tab]
guest
You may want to rate the tab now too:
select rating
Please do not post tabs as comments. Select "correction" instead!