Oops, an error
Loading. Please wait.

If You Want Peace Prepare For War Tab

ver1
ver1

Whole song

Interactive

More versions @911Tabs.com
14,620 views 15 this week
4 commentsread comments
1 2 3 4 5
worth learning
x 4
Autoscroll
+/-
esc
set tempo
stop
WARNING: You are trying to view
                                    content from Ultimate-Guitar.com
                                    in an unauthorized application,
                                    which is prohibited.

                                    Please use an official Ultimate
                                    Guitar Tabs application for iPhone,
                                    iPad or Android to access legitimate
                                    chords, guitar, bass, and drum tabs
                                    from Ultimate-Guitar.com database.

                                    Type "ultimate guitar tabs" in Apple
                                    App Store's or Android Market's
                                    search to find the application.
This is my first tab and I'm unsure on some of the runs but it's the general idea on 
of em.
it was bugging me that there weren't any tabs out here for this song so i tried to give 
rough outline

Both
|-----------------------------------------------------------------------------|
|----------------------5*-----------------------------------------------------|
|-----------------------------------------------------------------------------|
|-----------------------------------------------------------------------------|
|---------------5*5*5*--------------------------------------------------------|
|0-0-0----0-0-0-----------------0-0-0---0-0-0--15\----------------------------|

Lead
|-----------------------------------------------------------------------------|
|-----------------------------------------------------------------------------|
|-----------------------------------------------------------------------------|
|-----------------------------------------------------------------------------|
|-----------------------------------------------------------------------------|
|0-0-3-4-0-4-2-1-8-7-0-7-6-0-6-5-0-0-3-4-0-4-2-1-12-11-0-11-10-0-10-9---------|x2

Rhythm
|-----------------------------------------------------------------------------|
|-----------------------------------------------------------------------------|
|-----------------------------------------------------------------------------|
|-----------------------------------------------------------------------------|
|-----------------------------------------------------------------------------|
|0-0-0-----0-0-0-----0-0-0----0-0-0-0-0---------------------------------------|

Both
|-----------------------------------------------------------------------------|
|-----------------------------------------------------------------------------|
|-----------------------------------------------------------------------------|
|-----------------------------------------------------------------------------|
|-----------------------------------------------------------------------------|
|0-0-3-4-0-4-2-1-8-7-0-7-6-0-6-5-0-0-3-4-0-4-3-1-12-11-0-11-10-0-10-9---------|
on the third and fourth round of this main rhythm, make the 12,11,10 and 9 fret harmonics

|--------------------------------------------------------------------------------|
|--------------------------------------------------------------------------------|
|--------------------------------------------------------------------------------|
|----------------------*Bass Break then Drum Roll*-------------------------------|
|--------------------------------------------------------------------------------|
|--------------------------------------------------------------------------------|
Both
|------------------------------------------------------------------------------|
|------------------------------------------------------------------------------|
|------------------------------------------------------------------------------|
|----6--------6------------------4h6p4h6---------------------------------------|
|----4--------4----------4h6p4h6---------4h6p4h6-------------------------------|
|0-0---(0)-0-0---(0)-0-0-------------------------------------------------------|

|----------------------------------------------------------------------------------|
|----------------------------------------------------------------------------------|
|----------------------------------------------------------------------------------|
|----6--------6--------------------------------------------------------------------|
|----4--------4---------666555444--------------------------------------------------|
|0-0---(0)-0-0---(0)-0-0-----------------------------------------------------|all--| x2

|---------------------------------------------------------------------------------|
|-----------------------------------1822------------------------------------------|
|-------------------------------2018----------------------------------------------|
|----6b-----------6b-----161819---------------6b----------4b----------------------|
|----4b-----------4b---------------------------4b----------6b---------------------|
|0-0----00----0-0---00--------------------0-0----00----0-0---00-------------------|
                                            l--- not so sure ---------------------|l
at the end of the verse there's a run that i couldn't figure out.
Both
|------------------------------------------------------------------------------|
|------------------------------------------------------------------------------|
|------------------------------------------------------------------------------|
|----6--------6------------------4h6p4h6---------------------------------------|
|----4--------4----------4h6p4h6---------4h6p4h6-------------------------------|
|0-0---(0)-0-0---(0)-0-0-------------------------------------------------------|

|--------------------------------------------------------------------------------|
|--------------------------------------------------------------------------------|
|--------------------------------------------------------------------------------|
|----6--------6-------------------------6--------6-------------------------------|
|----4--------4---------666555444------4--------4-------171717131313151515-------|
|0-0---(0)0-0---(0)0-0----------------0-0----(0)0-0 --(0)0-0---------------------|

Both
|-----------------------------------------------------------------------------|
|-------------14h15p14-14-15-17-------12-14-----------------------------------|
|12-14-15-17--------------------17-15-----------------------------------------|
|-----------------------------------------------------------------------------|
|-----------------------------------------------------------------------------|

|-----------------------------------------------------------------------------|
|-----------------------------------------------------------------------------|
|-------------14h15p14-15-14--------------------------------------------------|
|12-14-15-17----------------15-17-14------------------------------------------|
|-----------------------------------------------------------------------------|
|-----------------------------------------------------------------------------|

|-----------------------------------------------------------------------------|
|-----------------------------------------------------------------------------|
|------------14h15p14-14-15-17------12-14-------------------------------------|
|12-14-15-17-------------------17-15------------------------------------------|
|-----------------------------------------------------------------------------|
|-----------------------------------------------------------------------------|

|-----------------------------------------------------------------------------|
|-----------------------------------------------------------------------------|
|------------14h15p14-15-14---------------------------------------------------|
|12-14-15-17----------------15-17-14-15\--------------------------------------|
|-----------------------------------------------------------------------------|
|-----------------------------------------------------------------------------|

Both
|-----------------------------------------------------------------------------|
|-----------------------------------------------------------------------------|
|-----------------------------------------------------------------------------|
|-----------------------------------------------------------------------------|
|-----------------------------------------------------------------------------|
|0-0-------0-0-0----------15\-------------------------------------------------|

|-----------------------------------------------------------------------------|
|-----------------------------------------------------------------------------|
|-----------------------------------------------------------------------------|
|-----------------------------------------------------------------------------|
|-----------------------------------------------------------------------------|
|0-0-3-4-0-4-2-1-0-8-7-0-7-6-0-6-5-0-0-3-4-0-4-3-2-1-12-11-0-11-10-0-10-9-----|x4

|-----------------------------------------------------------------------------|
|-----------------------------------------------------------------------------|
|-------------------------------------------------------3*x8------------------|
|----6---------------6----------------------------6-------------------10--5---|
|----4---------------4----------------------------4-------------------8---3---|
|0-0---0-0-------0-0--0-0==============--0-0--0-0-----------------------------|
                                                  Whammy Dive
|------------------------------------------------------------------------------------------------------------------------------------|
|------------------------------------------------------------------------------------------------------------------------------------|
|------------------------------------------------------------------------------------------------------------------------------------|
|5--7---10--9---5--7---10--9---5/7---5/7---------------------------7p5---7p5---------------------------------------------------------|
|3--5----8--7---3--5----8--7---3/5---3/5-------5-5h6p5--5-7h8p7--5---7h9---5---------------------------------------------------------|
|-------------------------------------------000--------------------------------------------------------------------------------------|
                                                                                         
                               l---unsure--|l
|------------------------------------------------------------------------------------------------------------------------------------|
|------------------------------------------------------------------------------------------------------------------------------------|
|------------------------------------------------------------------------------------------------------------------------------------|
|5--7---10--9---5--7---10--9---5/7---5/7---------------------------------------------------------------------------------------------|
|3--5----8--7---3--5----8--7---3/5---3/5---------------------------------------------------------------------------------------------|
|------------------------------------------------------------------------------------------------------------------------------------|
                                                                                         
  l-some run that i couldn't figure out-l
|------------------------------------------------------------------------------|
|------------------------------------------------------------------------------|
|------------------------------------------------------------------------------|
|5--7---10--9---5--7---10--9---5/7---5/7---------------------------7p5---7p5---|
|3--5----8--7---3--5----8--7---3/5---3/5-------5-5h6p5--5-7h8p7--5---7h9---5---|
|-------------------------------------------000--------------------------------|
                                                                                         
                               l-unsure-still-l

|-----------------------------------------------------------------------------|
|-----------------------------------------------------------------------------|
|-----------------------------------------------------------------------------|
|5--7---10--9---5--7---10--9---5/7---5/7----------------------------5---------|
|3--5----8--7---3--5----8--7---3/5---3/5----------------------------3---------|
|--------------------------------------------0-0--0-0--0-0--0-0--00-----------|
                                                                              "If you 
peace...
|-----------------------------------------------------------------------------|
|-------------14h15p14-14-15-17-------12-14-----------------------------------|
|12-14-15-17--------------------17-15-----------------------------------------|
|-----------------------------------------------------------------------------|
|-----------------------------------------------------------------------------|

|-----------------------------------------------------------------------------|
|-----------------------------------------------------------------------------|
|-------------14h15p14-15-14--------------------------------------------------|
|12-14-15-17----------------15-17-14------------------------------------------|
|-----------------------------------------------------------------------------|
|-----------------------------------------------------------------------------|

|-----------------------------------------------------------------------------|
|-----------------------------------------------------------------------------|
|------------14h15p14-14-15-17------12-14-------------------------------------|
|12-14-15-17-------------------17-15------------------------------------------|
|-----------------------------------------------------------------------------|
|-----------------------------------------------------------------------------|

|-----------------------------------------------------------------------------|
|-----------------------------------------------------------------------------|
|------------14h15p14-15-14---------------------------------------------------|
|12-14-15-17----------------15-17-14-15\---------7--6--5----------------------|
|-------------------------------------------------5--4--3---------------------|
|-----------------------------------------------------------------------------|

solo backing
|-----------------------------------------------------------------------------|
|-----------------------------------------------------------------------------|
|-----------------------------------------------------------------------------|
|----7-6---------7-6----------5-4-----------5-4-------------------------------|
|----5-4---------5-4----------3-2-----------3-2-------------------------------|
|000----------000----------000----------000-----------------------------------|

|-----------------------------------------------------------------------------|
|-----------------------------------------------------------------------------|
|-----------------------------------------------------------------------------|
|-----------------------------------------------------------------------------|
|--------------------------33332222---------------------------22221111--------|
|000000000000000000000000---------000000000000000000000000--------------------|

|-----------------------------------------------------------------------------|
|-----------------------------------------------------------------------------|
|-----------------------------------------------------------------------------|
|--------------------------------------------------------------7-6-5----------|
|--------------------------22221111---------------------------5-4-3-----------|
|000000000000000000000000---------000000000000000000000000--------------------|

|------------------------------------------------------------------------------|
|------------------------------------------------------------------------------|
|------------------------------------------------------------------------------|
|------------------------------------------------------------------------------|
l--222211110000---------------------------------3333222111---------------------|
|(3)(four measures)-(x2)--0000000000000000000000000-----------(x2)-------------|

|-----------------------------------------------------------------------------|
|-----------------------------------------------------------------------------|
|-----------------------------------------------------------------------------|
|-----------------------------------------------------------------------------|
|--------------------------22221111--------------------------333322221111-----|
|333333333333333333333333---------333333333333333333333333--------------------|

Lead
|-----------------------------------------------------------------------------|
|-----------------------------------------------------------------------------|
|-----------------------------------------------------------------------------|
|-----------------------------------------------------------------------------|
|-----------------------------------------------------------------------------|
|0-0-3-4-0-4-2-1-8-7-0-7-6-0-6-5-0-0-3-4-0-4-2-1-12-11-0-11-10-0-10-9---------|

Both
|-----------------------------------------------------------------------------|
|-----------------------------------------------------------------------------|
|-----------------------------------------------------------------------------|
|----------------------------------------10--5--------------------------------|
|-----------------------------------------8--3--------------------------------|
|0-0-3-4-0-4-2-1-8-7-0-7-6-0-6-5-0-0-0----------------------------------------|l

|------------------------------------------------------------------------------|
|------------------------------------------------------------------------------|
|------------------------------------------------------------------------------|
|5--7---10--9---5--7---10--9---5/7---5/7---------------------------7p5---7p5---|
|3--5----8--7---3--5----8--7---3/5---3/5-------5-5h6p5--5-7h8p7--5---7h9---5---|
|-------------------------------------------000--------------------------------|

|-----------------------------------------------------------------------------|
|-----------------------------------------------------------------------------|
|-----------------------------------------------------------------------------|
|5--7---10--9---5--7---10--9---5/7---5/7--------------------------------------|
|3--5----8--7---3--5----8--7---3/5---3/5--------------------------------------|
|-----------------------------------------------------------------------------|

|------------------------------------------------------------------------------|
|------------------------------------------------------------------------------|
|------------------------------------------------------------------------------|
|5--7---10--9---5--7---10--9---5/7---5/7---------------------------7p5---7p5---|
|3--5----8--7---3--5----8--7---3/5---3/5-------5-5h6p5--5-7h8p7--5---7h9---5---|
|-------------------------------------------000--------------------------------|

|-----------------------------------------------------------------------------|
|-----------------------------------------------------------------------------|
|-----------------------------------------------------------------------------|
|5--7---10--9---5--7---10--9---5/7---5/7-----------------------10--5----------|
|3--5----8--7---3--5----8--7---3/5---3/5------------------------8--3----------|
|-------------------------------------------0-0--0-0--0-0--0-0----------------|

|-----------------------------------------------------------------------------|
|-----------------------------------------------------------------------------|
|-----------------------------------------------------------------------------|
|5--7---10--9---5--7---10--9---5/7---5/7--------------------------------------|
|3--5----8--7---3--5----8--7---3/5---3/5--------------------------------------|
|---------------------------------------------0-0-00-00-00-00-00-00-----------|

|-----------------------------------------------------------------------------|
|-----------------------------------------------------------------------------|
|-----------------------------------------------------------------------------|
|5--7---10--9---5--7---10--9---5/7---5/7--------------------------------------|
|3--5----8--7---3--5----8--7---3/5---3/5--------------------------------------|
|-----------------------------------------------------------------------------|
                                                                                  
run i couldn't figure out yet

|-----------------------------------------------------------------------------|
|-----------------------------------------------------------------------------|
|-----------------------------------------------------------------------------|
|5--7---10--9---5--7---10--9---5/7---5/7--------------------------------------|
|3--5----8--7---3--5----8--7---3/5---3/5--------------------------------------|
|---------------------------------------------0-0-00-00-00-00-00-00-----------|

|----------------------------------------------------------<17>-<17>----------|
|-----------------------------------------------------------------------------|
|-----------------------------------------------------------------------------|
|5--7---10--9---5--7---10--9---5/7---5/7--------------------------------------|
|3--5----8--7---3--5----8--7---3/5---3/5--------------------------------------|
|--------------------------------------------0-0--0-0--0-0--------------------|

l <>Pinched harmonic
l /  slide up
l \  slide down
l h  hammer-on
l p  pull-off
l = Wammy down/up
l ~  vibrato
l *  harmonic
l x  Mute note
comments
print report bad tab
4 comments total. Showing first comments.
0 reply
laid-to_rest wrote on July 8 2007, 08:29 pm

dosent tell the tuning and a few mistakes but a good tab all in all

0 reply
metallicax6 wrote on August 26 2007, 06:40 pm

I wish the solo was tabbed.. I wanna learn that shit.

0 reply
metallicax6 wrote on December 1 2007, 10:02 pm

Can someone take the 5* version of the Guitar Pro tab of this song and make a normal tab or a Power Tab?

I want to post or [tab]
guest
You may want to rate the tab now too:
select rating
Please do not post tabs as comments. Select "correction" instead!