Oops, an error
Loading. Please wait.

If You Want Peace Prepare For War Tab

ver2
ver2

Whole song

More versions @911Tabs.com
23,640 views 45 this week
4 commentsread comments
1 2 3 4 5
excellent!
x 6
add to favorites launch autoscroll
font size
0
reset
Autoscroll
+/-
esc
set tempo
stop
Contributor
Difficulty
Tuning
advanced
C G C F A D
WARNING: You are trying to view
                                    content from Ultimate-Guitar.com
                                    in an unauthorized application,
                                    which is prohibited.

                                    Please use an official Ultimate
                                    Guitar Tabs application for iPhone,
                                    iPad or Android to access legitimate
                                    chords, guitar, bass, and drum tabs
                                    from Ultimate-Guitar.com database.

                                    Type "ultimate guitar tabs" in Apple
                                    App Store's or Android Market's
                                    search to find the application.
CREDIT FOR THIS TAB GOES TO WHOMEVER ORIGINALLY TABBED THE 5* GUITAR PRO VERSION ALREADY AVAILIBLE!

I noticed a request in a comment for a text version so i extracted it. Have fun!

(The guitar pro file has 4 seperate guitar tracks to make it sound better apparently so
will add them all seperatly, rather than joining them and ordering them. This means
ARE AT THE BOTTOM!!)

Sections are divided by a thick like so they are easy to distinguish, sorry for the HUGE tab!

If You Want Peace... Prepare For War
Children Of Bodom


Guitar 1 (Rhythm)

     W                   E  S E  S E  H           E  S E  S E  E  S S   Q
D||-------------------|------------------------|--------------------------------|
A||-------------------|------------------------|--------------------------------|
F||-------------------|------------------------|----------------------<>7-------|
C||-------------------|------------------------|------------------0-0-----------|
G||-------------------|--0----0----0-----------|--0----0----0-------------------|
C||-------------------|--0----0----0-----------|--0----0----0-------------------|


                                           PM PM
  E  S E  S E  H           E  S E  S E  E  S  S  Q
------------------------|------------------------------|
------------------------|------------------------------|
------------------------|------------------------------|
------------------------|------------------------------|
--0----0----0-----------|--0----0----0-----0--0--------|
--0----0----0-----------|--0----0----0-----0--0--3\----|


  S S S S S S S S S S S S S S S S    S S S S S S S S  S  S S  S  S S  S S
----------------------------------|---------------------------------------|
----------------------------------|---------------------------------------|
----------------------------------|---------------------------------------|
----------------------------------|---------------------------------------|
----------------------------------|---------------------------------------|
--0-0-3-4-0-4-3-0-8-7-0-7-6-0-6-5-|--0-0-3-4-0-4-3-0-12-11-0-11-10-0-10-9-|


  S S S S S S S S S S S S S S S S    E  S E  S E  S E  S E  E
----------------------------------|----------------------------|
----------------------------------|----------------------------|
----------------------------------|----------------------------|
----------------------------------|----------------------------|
----------------------------------|--0----0----0----0----0-----|
--0-0-3-4-0-4-3-0-8-7-0-7-6-0-6-5-|--0----0----0----0----0-----|


  S S S S S S S S S S S S S S S S    S S S S S S S S  S  S S  S  S S  S S
----------------------------------|---------------------------------------|
----------------------------------|---------------------------------------|
----------------------------------|---------------------------------------|
----------------------------------|---------------------------------------|
----------------------------------|---------------------------------------|
--0-0-3-4-0-4-3-0-8-7-0-7-6-0-6-5-|--0-0-3-4-0-4-3-0-12-11-0-11-10-0-10-9-|


  S S S S S S S S S S S S S S S S    S S S S S S S S  S  S S  S  S S  S S
----------------------------------|---------------------------------------|
----------------------------------|---------------------------------------|
----------------------------------|---------------------------------------|
----------------------------------|---------------------------------------|
----------------------------------|---------------------------------------|
--0-0-3-4-0-4-3-0-8-7-0-7-6-0-6-5-|--0-0-3-4-0-4-3-0-12-11-0-11-10-0-10-9-|


  S S S S S S S S  S  S S  S  S S  S S
---------------------------------------|
---------------------------------------|
---------------------------------------|
---------------------------------------|
---------------------------------------|
--0-0-7-8-0-8-7-0-12-11-0-11-10-0-10-9-|


  S S S S S S S S    S     S  S    S     S  S    S     S
----------------------------------------------------------|
----------------------------------------------------------|
----------------------------------------------------------|
----------------------------------------------------------|
----------------------------------------------------------|
--0-0-7-8-0-8-7-0-<>19-<>(18)-0-<>18-<>(17)-0-<>17-<>(16)-|


  S S S S S S S S  S  S S  S  S S  S S
---------------------------------------|
---------------------------------------|
---------------------------------------|
---------------------------------------|
---------------------------------------|
--0-0-7-8-0-8-7-0-12-11-0-11-10-0-10-9-|


  S S S S S S S S    S     S  S    S     S  S    S     S
----------------------------------------------------------|
----------------------------------------------------------|
----------------------------------------------------------|
----------------------------------------------------------|
----------------------------------------------------------|
--0-0-7-8-0-8-7-0-<>19-<>(18)-0-<>18-<>(17)-0-<>17-<>(16)-|


     Q      H.                W                   W
---------------------------|-------------------|-------------------|
---------------------------|-------------------|-------------------|
---------------------------|-------------------|-------------------|
---------------------------|-------------------|-------------------|
--<>10----(10)S------------|-------------------|-------------------|
---------------------------|-------------------|-------------------|


                      PM PM       PM PM
  W                   E  E  E.  S E  E  E.  S
-------------------|--------------------------|
-------------------|--------------------------|
-------------------|--------------------------|
-------------------|--------6---6-------6---6-|
-------------------|--0--0--4---4-0--0--4---4-|
-------------------|--0--0--------0--0--------|


  PM PM         PM          PM         PM    PM PM       PM PM
  E  E  S  S  S S  S   S  S S  S  S  S S     E  E  E.  S E  E  E.  S
------------------------------------------|--------------------------|
------------------------------------------|--------------------------|
------------------------------------------|--------------------------|
------------------------------------------|--------6---6-------6---6-|
--0--0--5h-8p-5----7h-10p-7----4h-7p-4----|--0--0--4---4-0--0--4---4-|
--0--0----------0-----------0----------0--|--0--0--------0--0--------|


  PM PM                            PM PM       PM PM
  E  E  S S S S S S S S S S S S    E  E  E.  S E  E  E.  S
--------------------------------|--------------------------|
--------------------------------|--------------------------|
--------------------------------|--------------------------|
--------------------------------|--------6---6-------6---6-|
--0--0--4-4-4-4-1-1-1-1-0-0-0-0-|--0--0--4---4-0--0--4---4-|
--0--0--------------------------|--0--0--------0--0--------|


  PM PM         PM          PM         PM    PM PM       PM PM
  E  E  S  S  S S  S   S  S S  S  S  S S     E  E  E.  S E  E  E.  S
------------------------------------------|--------------------------|
------------------------------------------|--------------------------|
------------------------------------------|--------------------------|
------------------------------------------|--------6---6-------6---6-|
--0--0--5h-8p-5----7h-10p-7----4h-7p-4----|--0--0--4---4-0--0--4---4-|
--0--0----------0-----------0----------0--|--0--0--------0--0--------|


  PM PM                            PM PM       PM PM
  E  E  S S S S S S S S S S S S    E  E  E.  S E  E  Q       W
--------------------------------|-------------------------|-------------------|
--------------------------------|-------------------------|-------------------|
--------------------------------|-------------------------|-------------------|
--------------------------------|-------------------------|-------------------|
--0--0--4-4-4-4-1-1-1-1-0-0-0-0-|--0--0--3---3-0--0-------|-------------------|
--0--0--------------------------|--0--0--3---3-0--0-------|-------------------|


  PM PM       PM PM
  E  E  E.  S E  E  Q
-------------------------|
-------------------------|
-------------------------|
-------------------------|
--0--0--1---1-0--0-------|
--0--0--1---1-0--0-------|


  just listen, these are the notes, and use wham tec
                                                     \1 /1\  \1/  \1/ \1/
  E                                                  E  E    Q    E   E    E
--------------------------------------------------------------------------10--|
------------------------------------------------------------10----8---7-------|
-----------------------------------------------------7--6---------------------|
------------------------------------------------------------------------------|
------------------------------------------------------------------------------|
------------------------------------------------------------------------------|


  PM PM       PM PM                             PM PM       PM PM
  E  E  E.  S E  E  Q       W                   E  E  E.  S E  E  Q
-------------------------|-------------------|-------------------------|
-------------------------|-------------------|-------------------------|
-------------------------|-------------------|-------------------------|
-------------------------|-------------------|-------------------------|
--0--0--3---3-0--0-------|-------------------|--0--0--1---1-0--0-------|
--0--0--3---3-0--0-------|-------------------|--0--0--1---1-0--0-------|


                                          PM PM       PM PM
   S S S  S S S  S S S S  S S S  S S S    E  E  E.  S E  E  E.  S
---------------------------------------|--------------------------|
---------------------------------------|--------------------------|
--10-7-9-10-9-7------------------------|--------------------------|
----------------10-8-7-8-10-8-7--------|--------6---6-------6---6-|
--------------------------------10-8-7-|--0--0--4---4-0--0--4---4-|
---------------------------------------|--0--0--------0--0--------|


  PM PM         PM          PM         PM    PM PM       PM PM
  E  E  S  S  S S  S   S  S S  S  S  S S     E  E  E.  S E  E  E.  S
------------------------------------------|--------------------------|
------------------------------------------|--------------------------|
------------------------------------------|--------------------------|
------------------------------------------|--------6---6-------6---6-|
--0--0--5h-8p-5----7h-10p-7----4h-7p-4----|--0--0--4---4-0--0--4---4-|
--0--0----------0-----------0----------0--|--0--0--------0--0--------|


  PM PM                            PM PM       PM PM
  E  E  S S S S S S S S S S S S    E  E  E.  S E  E  E.  S
--------------------------------|--------------------------|
--------------------------------|--------------------------|
--------------------------------|--------------------------|
--------------------------------|--------6---6-------6---6-|
--0--0--4-4-4-4-1-1-1-1-0-0-0-0-|--0--0--4---4-0--0--4---4-|
--0--0--------------------------|--0--0--------0--0--------|


  PM PM         PM          PM         PM    PM PM       PM PM
  E  E  S  S  S S  S   S  S S  S  S  S S     E  E  E.  S E  E  E.  S
------------------------------------------|--------------------------|
------------------------------------------|--------------------------|
------------------------------------------|--------------------------|
------------------------------------------|--------6---6-------6---6-|
--0--0--5h-8p-5----7h-10p-7----4h-7p-4----|--0--0--4---4-0--0--4---4-|
--0--0----------0-----------0----------0--|--0--0--------0--0--------|


  PM PM                                 PM      PM
  E  E  S S S S S S S S S S S S    Q    E  Q    E  Q
--------------------------------|-----------------------|
--------------------------------|-----------------------|
--------5-5-5-5-----------------|-----------------------|
----------------3-3-3-3-5-5-5-5-|-----------------------|
--0--0--------------------------|--0-------5-------3----|
--0--0--------------------------|--0----0--5----5--3----|


                               PM      PM
  H        E  E  E  E     Q    E  Q    E  Q       E   E   E  E  E  E  E  E
-----------------------|-----------------------|----------------------------|
-----------------------|-----------------------|----------------------------|
-----------------------|-----------------------|-----/7---------------------|
-----------5--------5--|-----------------------|---------10-----7--7--5--5--|
--L-----------7--8-----|--0-------1-------3----|--L----------8--5--5--3--3--|
--L--------------------|--0----0--1----1--3----|--L-------------------------|


       PM      PM                                      PM      PM
  Q    E  Q    E  Q       H        E  E  E  E     Q    E  Q    E  Q
-----------------------|-----------------------|-----------------------|
-----------------------|-----------------------|-----------------------|
-----------------------|-----------------------|-----------------------|
-----------------------|-----------5--------5--|-----------------------|
--0-------5-------3----|--L-----------7--8-----|--0-------1-------3----|
--0----0--5----5--3----|--L--------------------|--0----0--1----1--3----|


  E   E   E  E  E  E  E  E     E  S E  S E  H
----------------------------|------------------------|
----------------------------|------------------------|
-----/7---------------------|------------------------|
---------10-----7--7--5--5--|------------------------|
--L----------8--5--5--3--3--|--0----0----0-----------|
--L-------------------------|--0----0----0-----------|


                  PM PM
  E  S E  S E  E  S  S  Q        S S S S S S S S S S S S S S S S
------------------------------|----------------------------------|
------------------------------|----------------------------------|
------------------------------|----------------------------------|
------------------------------|----------------------------------|
--0----0----0-----0--0--------|----------------------------------|
--0----0----0-----0--0--3\----|--0-0-3-4-0-4-3-0-8-7-0-7-6-0-6-5-|


  S S S S S S S S  S  S S  S  S S  S S    S S S S S S S S S S S S S S S S
---------------------------------------|----------------------------------|
---------------------------------------|----------------------------------|
---------------------------------------|----------------------------------|
---------------------------------------|----------------------------------|
---------------------------------------|----------------------------------|
--0-0-3-4-0-4-3-0-12-11-0-11-10-0-10-9-|--0-0-3-4-0-4-3-0-8-7-0-7-6-0-6-5-|


  S S S S S S S S  S  S S  S  S S  S S    S S S S S S S S  S  S S  S  S S  S S
---------------------------------------|---------------------------------------|
---------------------------------------|---------------------------------------|
---------------------------------------|---------------------------------------|
---------------------------------------|---------------------------------------|
---------------------------------------|---------------------------------------|
--0-0-3-4-0-4-3-0-12-11-0-11-10-0-10-9-|--0-0-7-8-0-8-7-0-12-11-0-11-10-0-10-9-|


  S S S S S S S S    S     S  S    S     S  S    S     S
----------------------------------------------------------|
----------------------------------------------------------|
----------------------------------------------------------|
----------------------------------------------------------|
----------------------------------------------------------|
--0-0-7-8-0-8-7-0-<>19-<>(18)-0-<>18-<>(17)-0-<>17-<>(16)-|


  S S S S S S S S  S  S S  S  S S  S S
---------------------------------------|
---------------------------------------|
---------------------------------------|
---------------------------------------|
---------------------------------------|
--0-0-7-8-0-8-7-0-12-11-0-11-10-0-10-9-|


  S S S S S S S S    S     S  S    S     S  S    S     S
----------------------------------------------------------|
----------------------------------------------------------|
----------------------------------------------------------|
----------------------------------------------------------|
----------------------------------------------------------|
--0-0-7-8-0-8-7-0-<>19-<>(18)-0-<>18-<>(17)-0-<>17-<>(16)-|


  PM PM       PM PM                             PM PM       PM PM
  E  E  E.  S E  E  Q       W                   E  E  E.  S E  E  Q
-------------------------|-------------------|-------------------------|
-------------------------|-------------------|-------------------------|
-------------------------|-------------------|-------------------------|
-------------------------|-------------------|-------------------------|
--0--0--3---3-0--0-------|-------------------|--0--0--1---1-0--0-------|
--0--0--3---3-0--0-------|-------------------|--0--0--1---1-0--0-------|


  \2                  PM PM       PM PM
  W                   E  E  E.  S E  E  Q
-------------------|-------------------------|
-------------------|-------------------------|
-------------------|-------------------------|
-------------------|-------------------------|
--0----------------|--0--0--3---3-0--0-------|
--0----------------|--0--0--3---3-0--0-------|


    S   S   S   S   S   S   S   S   S   S   S   S   S   S   S   S
------------------------------------------------------------------|
------------------------------------------------------------------|
--<>3-<>3-<>3-<>3-<>3-<>3-<>3-<>3-<>3-<>3-<>3-<>3-<>3-<>3-<>3-<>3-|
------------------------------------------------------------------|
------------------------------------------------------------------|
------------------------------------------------------------------|


  PM PM       PM PM
  E  E  E.  S E  E  Q       S  S S S  S S  S  S Q    Q
-------------------------|--------------------------------|
-------------------------|-------5------------------------|
-------------------------|--5h-7---7p-5-------------------|
-------------------------|--------------8p-7p-5-7---------|
--0--0--1---1-0--0-------|----------------------5----7----|
--0--0--1---1-0--0-------|---------------------------7----|


  E   E  E  E   E  E  E   E     E  E   E  E  E   E  E  E
-----------------------------|----------------------------|
-----------------------------|----------------------------|
------------5S--4------------|-----5S--4------------------|
--3S--5-----3S--2-----5S--7--|-----3S--2-----3S--5-----3--|
--1S--3--x---------x--3S--5--|--x---------x--1S--3-----1--|
-----------------------------|----------------------------|


       PM PM PM PM PM      PM PM PM PM PM
  S  S S  S  E  S  S  S  S S  S  E  S  S
------------------------------------------|
------------------------------------------|
------------------------------------------|
------------------------------------------|
--3h-5----------------5h-6----------------|
-------0--0--0--0--0-------0--0--0--0--0--|


       PM PM PM PM PM
  S  S S  S  E  S  S  S S S S S S S S    E   E  E  E   E  E  E   E
--------------------------------------|-----------------------------|
--------------------------------------|-----------------------------|
------------------------------3-------|------------5S--4------------|
----------------------5-3-------5-3---|--3S--5-----3S--2-----5S--7--|
--6h-8--------------------5-3-------5-|--1S--3--x---------x--3S--5--|
-------0--0--0--0--0------------------|-----------------------------|


                                    PM PM PM PM PM      PM PM PM PM PM
  E  E   E  E  E   E  E  E     S  S S  S  E  S  S  S  S S  S  E  S  S
----------------------------|------------------------------------------|
----------------------------|------------------------------------------|
-----5S--4------------------|------------------------------------------|
-----3S--2-----3S--5-----3--|------------------------------------------|
--x---------x--1S--3-----1--|--3h-5----------------5h-6----------------|
----------------------------|-------0--0--0--0--0-------0--0--0--0--0--|


  cant figure this one :(
  S                        S  S S  S  S S  S S  S  S S  S  S S  S
------------------------------------------------------------------|
------------------------------------------------------------------|
-------------------------------------------------------------3h-5-|
----------------------------------------0h-2---------3h-5h-6------|
--------------------------------0h-1h-3------3h-5h-6--------------|
--0------------------------3h-5-----------------------------------|


  E   E  E  E   E  E  E   E     E  E   E  E  E   E  E  E
-----------------------------|----------------------------|
-----------------------------|----------------------------|
------------5S--4------------|-----5S--4------------------|
--3S--5-----3S--2-----5S--7--|-----3S--2-----3S--5-----3--|
--1S--3--x---------x--3S--5--|--x---------x--1S--3-----1--|
-----------------------------|----------------------------|


       PM PM PM PM PM      PM PM PM PM PM
  S  S S  S  E  S  S  S  S S  S  E  S  S
------------------------------------------|
------------------------------------------|
------------------------------------------|
------------------------------------------|
--3h-5----------------5h-6----------------|
-------0--0--0--0--0-------0--0--0--0--0--|


       PM PM PM PM PM
  S  S S  S  E  S  S  S S S S S S S S    E   E  E  E   E  E  E   E
--------------------------------------|-----------------------------|
--------------------------------------|-----------------------------|
------------------------------3-------|------------5S--4------------|
----------------------5-3-------5-3---|--3S--5-----3S--2-----5S--7--|
--6h-8--------------------5-3-------5-|--1S--3--x---------x--3S--5--|
-------0--0--0--0--0------------------|-----------------------------|


                               PM PM    PM PM    PM PM
  E  E   E  E  E   E  E  E     E  E  E  E  E  E  E  E
----------------------------|--------------------------|
----------------------------|--------------------------|
-----5S--4------------------|--------------------------|
-----3S--2-----3S--5-----3--|--------------------------|
--x---------x--1S--3-----1--|--0--0-----0--0-----0--0--|
----------------------------|--0--0-----0--0-----0--0--|


     PM PM    PM PM              PM      PM
  E  E  E  E  E  E  Q       Q    E  Q    E  Q       H        E  E  E  E
-------------------------|-----------------------|-----------------------|
-------------------------|-----------------------|-----------------------|
-------------------------|-----------------------|-----------------------|
--------------------6----|-----------------------|-----------5--------5--|
-----0--0-----0--0--4----|--0-------5-------3----|--L-----------7--8-----|
-----0--0-----0--0-------|--0----0--5----5--3----|--L--------------------|


       PM      PM                                           PM      PM
  Q    E  Q    E  Q       E   E   E  E  E  E  E  E     Q    E  Q    E  Q
-----------------------|----------------------------|-----------------------|
-----------------------|----------------------------|-----------------------|
-----------------------|-----/7---------------------|-----------------------|
-----------------------|---------10-----7--7--5--5--|-----------------------|
--0-------1-------3----|--L----------8--5--5--3--3--|--0-------5-------3----|
--0----0--1----1--3----|--L-------------------------|--0----0--5----5--3----|


                               PM      PM
  H        E  E  E  E     Q    E  Q    E  Q       E   E   E  E  E  E  E  E
-----------------------|-----------------------|----------------------------|
-----------------------|-----------------------|----------------------------|
-----------------------|-----------------------|-----/7---------------------|
-----------5--------5--|-----------------------|---------10-----7--7--5--5--|
--L-----------7--8-----|--0-------1-------3----|--L----------8--5--5--3--3--|
--L--------------------|--0----0--1----1--3----|--L-------------------------|


  W                   W                   E  S E  S E
-------------------|-------------------|---------------|
-------------------|-------------------|---------------|
-------------------|-------------------|---------------|
-------------------|-------------------|---------------|
-------------------|-------------------|--5----4----3--|
-------------------|-------------------|--5----4----3--|


                 Slide                                           Slide
  PM PM PM       \1                               PM PM PM       \1
  S  S  E  E  E  H           Q    H.              S  S  E  E  E  H
--------------------------|--------------------|--------------------------|
--------------------------|--------------------|--------------------------|
--------------------------|--------------------|--------------------------|
--------------5--7--------|--L-----------------|--------------8--7--------|
--------------3--5--------|--L-----------------|--------------6--5--------|
--0--0--0-----------------|--------------------|--0--0--0-----------------|


                                      Slide
                       PM PM PM       \1
  Q    H.              S  S  E  E  E  H           Q    H.
--------------------|--------------------------|--------------------|
--------------------|--------------------------|--------------------|
--------------------|--------------------------|--------------------|
--L-----------------|--------------5--4--------|--L-----------------|
--L-----------------|--------------3--2--------|--L-----------------|
--------------------|--0--0--0-----------------|--------------------|


  PM PM PM
  S  S  E  E  E  H           H        E  S E  S E
--------------------------|------------------------|
--------------------------|------------------------|
--------------------------|------------------------|
--------------4--3--------|--L---------------------|
--------------2--1--------|--L--------7----6----5--|
--0--0--0-----------------|-----------7----6----5--|


  PM PM PM PM PM PM PM PM PM PM PM PM PM PM PM PM
  S  S  S  S  S  S  S  S  S  S  S  S  S  S  S  S
--------------------------------------------------|
--------------------------------------------------|
--------------------------------------------------|
--------------------------------------------------|
--------------------------------------------------|
--0--0--0--0--0--0--0--0--0--0--0--0--0--0--0--0--|


  PM PM PM PM PM PM PM PM PM PM PM PM PM PM PM PM
  S  S  S  S  S  S  S  S  S  S  S  S  S  S  S  S
--------------------------------------------------|
--------------------------------------------------|
--------------------------------------------------|
--------------------------------------------------|
--------------------------5--5--5--4--4--4--3--3--|
--0--0--0--0--0--0--0--0--------------------------|


  PM PM PM PM PM PM PM PM PM PM PM PM PM PM PM PM
  S  S  S  S  S  S  S  S  S  S  S  S  S  S  S  S
--------------------------------------------------|
--------------------------------------------------|
--------------------------------------------------|
--------------------------------------------------|
--------------------------------------------------|
--0--0--0--0--0--0--0--0--0--0--0--0--0--0--0--0--|


  PM PM PM PM PM PM PM PM PM PM PM PM PM PM PM PM
  S  S  S  S  S  S  S  S  S  S  S  S  S  S  S  S
--------------------------------------------------|
--------------------------------------------------|
--------------------------------------------------|
--------------------------------------------------|
--------------------------------------------------|
--0--0--0--0--0--0--0--0--8--8--8--7--7--7--6--6--|


  PM PM PM PM PM PM PM PM PM PM PM PM PM PM PM PM
  S  S  S  S  S  S  S  S  S  S  S  S  S  S  S  S
--------------------------------------------------|
--------------------------------------------------|
--------------------------------------------------|
--------------------------------------------------|
--------------------------------------------------|
--0--0--0--0--0--0--0--0--0--0--0--0--0--0--0--0--|


  PM PM PM PM PM PM PM PM PM PM PM PM PM PM PM PM
  S  S  S  S  S  S  S  S  S  S  S  S  S  S  S  S
--------------------------------------------------|
--------------------------------------------------|
--------------------------------------------------|
--------------------------------------------------|
--------------------------5--5--5--4--4--4--3--3--|
--0--0--0--0--0--0--0--0--------------------------|


  PM PM PM PM PM PM PM PM PM PM PM PM PM PM PM PM
  S  S  S  S  S  S  S  S  S  S  S  S  S  S  S  S
--------------------------------------------------|
--------------------------------------------------|
--------------------------------------------------|
--------------------------------------------------|
--------------------------------------------------|
--0--0--0--0--0--0--0--0--0--0--0--0--0--0--0--0--|


  PM PM PM PM PM PM PM PM
  S  S  S  S  S  S  S  S  E.  E.  E     H
-------------------------------------|-----------|
-------------------------------------|-----------|
-------------------------------------|-----------|
-------------------------------------|-----------|
--------------------------8---7---6--|-----------|
--0--0--0--0--0--0--0--0--8---7---6--|-----------|


  PM PM PM PM PM PM PM PM PM PM PM PM PM PM PM PM
  S  S  S  S  S  S  S  S  S  S  S  S  S  S  S  S
--------------------------------------------------|
--------------------------------------------------|
--------------------------------------------------|
--------------------------------------------------|
--------------------------------------------------|
--4--4--4--4--4--4--4--4--4--4--4--4--4--4--4--4--|


  PM PM PM PM PM PM PM PM PM PM PM PM
  S  S  S  S  S  S  S  S  S  S  S  S  E  S S
---------------------------------------------|
---------------------------------------------|
---------------------------------------------|
---------------------------------------------|
--------------------------------------5--2---|
--4--4--4--4--4--4--4--4--4--4--4--4--5--2---|


  PM PM PM PM PM PM PM PM PM PM PM PM PM PM PM PM
  S  S  S  S  S  S  S  S  S  S  S  S  S  S  S  S
--------------------------------------------------|
--------------------------------------------------|
--------------------------------------------------|
--------------------------------------------------|
--------------------------------------------------|
--4--4--4--4--4--4--4--4--4--4--4--4--4--4--4--4--|


  PM PM PM PM PM PM PM PM
  S  S  S  S  S  S  S  S  S S S S S S S S    S S S S S S S S S S S S S S S S
------------------------------------------|----------------------------------|
------------------------------------------|----------------------------------|
------------------------------------------|----------------------------------|
------------------------------------------|----------------------------------|
--------------------------5-5-5-4-4-4-3-3-|----------------------------------|
--4--4--4--4--4--4--4--4------------------|--4-4-4-4-4-4-4-4-4-4-4-4-4-4-4-4-|


  S S S S S S S S S S S S E  S S    S S S S S S S S S S S S S S S S
---------------------------------|----------------------------------|
---------------------------------|----------------------------------|
---------------------------------|----------------------------------|
---------------------------------|----------------------------------|
--------------------------5--2---|----------------------------------|
--4-4-4-4-4-4-4-4-4-4-4-4-5--2---|--4-4-4-4-4-4-4-4-4-4-4-4-4-4-4-4-|


  S S S S S S S S S S S S S S S S    S S S S S S S S S S S S S S S S
----------------------------------|----------------------------------|
----------------------------------|----------------------------------|
----------------------------------|----------------------------------|
----------------------------------|----------------------------------|
------------------5-5-5-4-4-4-3-3-|----------------------------------|
--4-4-4-4-4-4-4-4-----------------|--3-3-3-3-3-3-3-3-3-3-3-3-3-3-3-3-|


  S S S S S S S S S S S S E  S S    S S S S S S S S S S S S S S S S
---------------------------------|----------------------------------|
---------------------------------|----------------------------------|
---------------------------------|----------------------------------|
---------------------------------|----------------------------------|
--------------------------4--1---|----------------------------------|
--3-3-3-3-3-3-3-3-3-3-3-4-4--1---|--3-3-3-3-3-3-3-3-3-3-3-3-3-3-3-3-|


  S S S S S S S S S S S S S S S S    S S S S S S S S S S S S S S S S
----------------------------------|----------------------------------|
----------------------------------|----------------------------------|
----------------------------------|----------------------------------|
----------------------------------|----------------------------------|
------------------4-4-4-3-3-3-2-2-|----------------------------------|
--3-3-3-3-3-3-3-3-----------------|--3-3-3-3-3-3-3-3-3-3-3-3-3-3-3-3-|


  S S S S S S S S S S S S E  S S    S S S S S S S S S S S S S S S S
---------------------------------|----------------------------------|
---------------------------------|----------------------------------|
---------------------------------|----------------------------------|
---------------------------------|----------------------------------|
--------------------------4--1---|----------------------------------|
--3-3-3-3-3-3-3-3-3-3-3-4-4--1---|--3-3-3-3-3-3-3-3-3-3-3-3-3-3-3-3-|


  S S S S S S S S S S S S S S S S    S S S S S S S S S S S S S S S S
----------------------------------|----------------------------------|
----------------------------------|----------------------------------|
----------------------------------|----------------------------------|
----------------------------------|----------------------------------|
------------------4-4-4-3-3-3-2-2-|----------------------------------|
--3-3-3-3-3-3-3-3-----------------|--0-0-3-4-0-4-3-0-8-7-0-7-6-0-6-5-|


  S S S S S S S S  S  S S  S  S S  S S    S S S S S S S S S S S S S S S S
---------------------------------------|----------------------------------|
---------------------------------------|----------------------------------|
---------------------------------------|----------------------------------|
---------------------------------------|----------------------------------|
---------------------------------------|----------------------------------|
--0-0-3-4-0-4-3-0-12-11-0-11-10-0-10-9-|--0-0-3-4-0-4-3-0-8-7-0-7-6-0-6-5-|


  E  S E  S S S Q    Q       E   E  E  E   E  E  E   E
--------------------------|-----------------------------|
--------------------------|-----------------------------|
--------------------------|------------5S--4------------|
--7----6----5---7---------|--3S--5-----3S--2-----5S--7--|
--5----4----3---5----7----|--1S--3--x---------x--3S--5--|
---------------------7----|-----------------------------|


                                    PM PM PM PM PM      PM PM PM PM PM
  E  E   E  E  E   E  E  E     S  S S  S  E  S  S  S  S S  S  E  S  S
----------------------------|------------------------------------------|
----------------------------|------------------------------------------|
-----5S--4------------------|------------------------------------------|
-----3S--2-----3S--5-----3--|------------------------------------------|
--x---------x--1S--3-----1--|--3h-5----------------5h-6----------------|
----------------------------|-------0--0--0--0--0-------0--0--0--0--0--|


      PM PM PM PM PM
  S S S  S  E  S  S  S S S S S S S S    E   E  E  E   E  E  E   E
-------------------------------------|-----------------------------|
-------------------------------------|-----------------------------|
-----------------------------3-------|------------5S--4------------|
---------------------5-3-------5-3---|--3S--5-----3S--2-----5S--7--|
--6-8--------------------5-3-------5-|--1S--3--x---------x--3S--5--|
------0--0--0--0--0------------------|-----------------------------|


                                    PM PM PM PM PM      PM PM PM PM PM
  E  E   E  E  E   E  E  E     S  S S  S  E  S  S  S  S S  S  E  S  S
----------------------------|------------------------------------------|
----------------------------|------------------------------------------|
-----5S--4------------------|------------------------------------------|
-----3S--2-----3S--5-----3--|------------------------------------------|
--x---------x--1S--3-----1--|--3h-5----------------5h-6----------------|
----------------------------|-------0--0--0--0--0-------0--0--0--0--0--|


  cant figure this one :(
  S                        S  S S  S  S S  S S  S  S S  S  S S  S
------------------------------------------------------------------|
------------------------------------------------------------------|
-------------------------------------------------------------3h-5-|
----------------------------------------0h-2---------3h-5h-6------|
--------------------------------0h-1h-3------3h-5h-6--------------|
--0------------------------3h-5-----------------------------------|


  E   E  E  E   E  E  E   E     E  E   E  E  E   E  E  E
-----------------------------|----------------------------|
-----------------------------|----------------------------|
------------5S--4------------|-----5S--4------------------|
--3S--5-----3S--2-----5S--7--|-----3S--2-----3S--5-----3--|
--1S--3--x---------x--3S--5--|--x---------x--1S--3-----1--|
-----------------------------|----------------------------|


       PM PM PM PM PM      PM PM PM PM PM
  S  S S  S  E  S  S  S  S S  S  E  S  S
------------------------------------------|
------------------------------------------|
------------------------------------------|
------------------------------------------|
--3h-5----------------5h-6----------------|
-------0--0--0--0--0-------0--0--0--0--0--|


       PM PM PM PM PM
  S  S S  S  E  S  S  S S S S S S S S    E   E  E  E   E  E  E   E
--------------------------------------|-----------------------------|
--------------------------------------|-----------------------------|
------------------------------3-------|------------5S--4------------|
----------------------5-3-------5-3---|--3S--5-----3S--2-----5S--7--|
--6h-8--------------------5-3-------5-|--1S--3--x---------x--3S--5--|
-------0--0--0--0--0------------------|-----------------------------|


                               PM PM    PM PM    PM PM
  E  E   E  E  E   E  E  E     E  E  E  E  E  E  E  E
----------------------------|--------------------------|
----------------------------|--------------------------|
-----5S--4------------------|--------------------------|
-----3S--2-----3S--5-----3--|--------------------------|
--x---------x--1S--3-----1--|--0--0-----0--0-----0--0--|
----------------------------|--0--0-----0--0-----0--0--|


     PM PM
  E  E  E  E  Q    Q       E   E  E  E   E  E  E   E
------------------------|-----------------------------|
------------------------|-----------------------------|
------------------------|------------5S--4------------|
--------------7---------|--3S--5-----3S--2-----5S--7--|
-----0--0-----5----7----|--1S--3--x---------x--3S--5--|
-----0--0----------7----|-----------------------------|


                               PM PM PM PM PM PM PM PM PM PM PM PM
  E  E   E  E  E   E  E  E     E  S  S  E  S  S  E  S  S  E  S  S
----------------------------|--------------------------------------|
----------------------------|--------------------------------------|
-----5S--4------------------|--------------------------------------|
-----3S--2-----3S--5-----3--|--------------------------------------|
--x---------x--1S--3-----1--|--------------------------------------|
----------------------------|--0--0--0--0--0--0--0--0--0--0--0--0--|


  PM PM PM PM PM PM PM PM PM PM PM PM
  E  S  S  E  S  S  E  S  S  E  S  S     E   E  E  E   E  E  E   E
--------------------------------------|-----------------------------|
--------------------------------------|-----------------------------|
--------------------------------------|------------5S--4------------|
--------------------------------------|--3S--5-----3S--2-----5S--7--|
--------------------------------------|--1S--3--x---------x--3S--5--|
--0--0--0--0--0--0--0--0--0--0--0--0--|-----------------------------|


                                   PM PM PM PM PM
  E  E   E  E  E   E  E  E     S S S  S  E  S  S  S S S S S S S S
----------------------------|-------------------------------------|
----------------------------|-------------------------------------|
-----5S--4------------------|---------------------7-5-----7-5-----|
-----3S--2-----3S--5-----3--|-------------------------7-5-----7-5-|
--x---------x--1S--3-----1--|--3-5--------------------------------|
----------------------------|------0--0--0--0--0------------------|


  S S S S S S S S  S S  S S  S S  S S    E   E  E  E   E  E  E   E
--------------------------------------|-----------------------------|
--------------------------------------|-----------------------------|
--9-6-----9-6-----10-7------10-7------|------------5S--4------------|
------8-7-----8-7------10-7------10-7-|--3S--5-----3S--2-----5S--7--|
--------------------------------------|--1S--3--x---------x--3S--5--|
--------------------------------------|-----------------------------|


                               PM PM PM PM PM PM PM PM PM PM PM PM
  E  E   E  E  E   E  E  E     E  S  S  E  S  S  E  S  S  E  S  S
----------------------------|--------------------------------------|
----------------------------|--------------------------------------|
-----5S--4------------------|--------------------------------------|
-----3S--2-----3S--5-----3--|--------------------------------------|
--x---------x--1S--3-----1--|--------------------------------------|
----------------------------|--0--0--0--0--0--0--0--0--0--0--0--0--|


  PM PM PM PM PM PM         PM PM
  E  S  S  E  S  S  S S S S E  E     E   E  E  E   E  E  E   E
----------------------------------|-----------------------------|
----------------------------------|-----------------------------|
----------------------------------|------------5S--4------------|
--------------------3-------------|--3S--5-----3S--2-----5S--7--|
----------------------5-3-0-------|--1S--3--x---------x--3S--5--|
--0--0--0--0--0--0----------5--5--|-----------------------------|


                               PM PM    PM PM    PM PM       PM
  E  E   E  E  E   E  E  E     E  E  E  E  E  E  E  E     E  E  Q    H
----------------------------|--------------------------|----------------------||
----------------------------|--------------------------|----------------------||
-----5S--4------------------|--------------------------|----------------------||
-----3S--2-----3S--5-----3--|--------------------------|----------------------||
--x---------x--1S--3-----1--|--0--0-----0--0-----0--0--|-----0--0-------------||
----------------------------|--0--0-----0--0-----0--0--|-----0--0-------------||

___________________________________________________________________________________________________
###################################################################################################
---------------------------------------------------------------------------------------------------
Guitar 2 (Rhythm)

     W                   E  S E  S E  H           E  S E  S E  H
D||-------------------|------------------------|------------------------|
A||-------------------|------------------------|------------------------|
F||-------------------|------------------------|------------------------|
C||-------------------|------------------------|------------------------|
G||-------------------|--0----0----0-----------|--0----0----0-----------|
C||-------------------|--0----0----0-----------|--0----0----0-----------|


  E  S E  S E  H           E  S E  S E  H           E  S E  S E  H
------------------------|------------------------|------------------------|
------------------------|------------------------|------------------------|
------------------------|------------------------|------------------------|
------------------------|------------------------|------------------------|
--0----0----0-----------|--0----0----0-----------|--0----0----0-----------|
--0----0----0-----------|--0----0----0-----------|--0----0----0-----------|


  E  S E  S E  H           E  S E  S E  H           E  S E  S E  S E  S E  E
------------------------|------------------------|----------------------------|
------------------------|------------------------|----------------------------|
------------------------|------------------------|----------------------------|
------------------------|------------------------|----------------------------|
--0----0----0-----------|--0----0----0-----------|--0----0----0----0----0-----|
--0----0----0-----------|--0----0----0-----------|--0----0----0----0----0-----|


  S S S S S S S S S S S S S S S S
----------------------------------|
----------------------------------|
----------------------------------|
----------------------------------|
----------------------------------|
--0-0-3-4-0-4-3-0-8-7-0-7-6-0-6-5-|


  S S S S S S S S    S    S S    S    S S    S   S
---------------------------------------------------|
---------------------------------------------------|
---------------------------------------------------|
---------------------------------------------------|
---------------------------------------------------|
--0-0-3-4-0-4-3-0-<>12-<>11-0-<>11-<>10-0-<>10-<>9-|


  S S S S S S S S S S S S S S S S
----------------------------------|
----------------------------------|
----------------------------------|
----------------------------------|
----------------------------------|
--0-0-3-4-0-4-3-0-8-7-0-7-6-0-6-5-|


  S S S S S S S S    S    S S    S    S S    S   S
---------------------------------------------------|
---------------------------------------------------|
---------------------------------------------------|
---------------------------------------------------|
---------------------------------------------------|
--0-0-3-4-0-4-3-0-<>12-<>11-0-<>11-<>10-0-<>10-<>9-|


  S S S S S S S S S S S S S S S S
----------------------------------|
----------------------------------|
----------------------------------|
----------------------------------|
----------------------------------|
--0-0-3-4-0-4-3-0-8-7-0-7-6-0-6-5-|


  S S S S S S S S    S    S S    S    S S    S   S
---------------------------------------------------|
---------------------------------------------------|
---------------------------------------------------|
---------------------------------------------------|
---------------------------------------------------|
--0-0-3-4-0-4-3-0-<>12-<>11-0-<>11-<>10-0-<>10-<>9-|


  S S S S S S S S S S S S S S S S
----------------------------------|
----------------------------------|
----------------------------------|
----------------------------------|
----------------------------------|
--0-0-3-4-0-4-3-0-8-7-0-7-6-0-6-5-|


  S S S S S S S S    S    S S    S    S S    S   S    W
---------------------------------------------------|-------------------|
---------------------------------------------------|-------------------|
---------------------------------------------------|-------------------|
---------------------------------------------------|-------------------|
---------------------------------------------------|-------------------|
--0-0-3-4-0-4-3-0-<>12-<>11-0-<>11-<>10-0-<>10-<>9-|-------------------|


  W                   W                   W
-------------------|-------------------|-------------------|
-------------------|-------------------|-------------------|
-------------------|-------------------|-------------------|
-------------------|-------------------|-------------------|
-------------------|-------------------|-------------------|
-------------------|-------------------|-------------------|


  PM PM       PM PM          PM PM          PM            PM
  E  E  E.  S E  E  E.  S    E  E  S   S  S S   S   S   S S  S   S  S S
--------------------------|---------------------------------------------|
--------------------------|---------------------------------------------|
--------------------------|---------------------------------------------|
--------6---6-------6---6-|---------------------------------------------|
--0--0--4---4-0--0--4---4-|--0--0--8h-11p-8----10h-13p-10----7h-10p-7---|
--0--0--------0--0--------|--0--0-----------0-------------0-----------0-|


  PM PM       PM PM          PM PM
  E  E  E.  S E  E  E.  S    E  E  S S S S S S S S S S S S
--------------------------|--------------------------------|
--------------------------|--------------------------------|
--------------------------|--------------------------------|
--------6---6-------6---6-|--------------------------------|
--0--0--4---4-0--0--4---4-|--0--0--7-7-7-7-5-5-5-5-4-4-4-4-|
--0--0--------0--0--------|--0--0--------------------------|


  PM PM       PM PM          PM PM          PM            PM
  E  E  E.  S E  E  E.  S    E  E  S   S  S S   S   S   S S  S   S  S S
--------------------------|---------------------------------------------|
--------------------------|---------------------------------------------|
--------------------------|---------------------------------------------|
--------6---6-------6---6-|---------------------------------------------|
--0--0--4---4-0--0--4---4-|--0--0--8h-11p-8----10h-13p-10----7h-10p-7---|
--0--0--------0--0--------|--0--0-----------0-------------0-----------0-|


  PM PM       PM PM          PM PM
  E  E  E.  S E  E  E.  S    E  E  S S S S S S S S S S S S
--------------------------|--------------------------------|
--------------------------|--------------------------------|
--------------------------|--------------------------------|
--------6---6-------6---6-|--------------------------------|
--0--0--4---4-0--0--4---4-|--0--0--7-7-7-7-5-5-5-5-4-4-4-4-|
--0--0--------0--0--------|--0--0--------------------------|


  PM PM       PM PM                             PM PM       PM PM
  E  E  E.  S E  E  Q       W                   E  E  E.  S E  E  Q
-------------------------|-------------------|-------------------------|
-------------------------|-------------------|-------------------------|
-------------------------|-------------------|-------------------------|
-------------------------|-------------------|-------------------------|
--0--0--3---3-0--0-------|-------------------|--0--0--1---1-0--0-------|
--0--0--3---3-0--0-------|-------------------|--0--0--1---1-0--0-------|


      \1  /1\ \1/   \1/ \1/       PM PM       PM PM
  E   E   E   Q     E   E   E     E  E  E.  S E  E  Q       W
---------------------------17--|-------------------------|-------------------|
-------------17----15--14------|-------------------------|-------------------|
-----14--13--------------------|-------------------------|-------------------|
-------------------------------|-------------------------|-------------------|
-------------------------------|--0--0--3---3-0--0-------|-------------------|
-------------------------------|--0--0--3---3-0--0-------|-------------------|


  PM PM       PM PM
  E  E  E.  S E  E  Q        S  S  S  S  S  S  S  S  S  S  S  S  S  S  S  S
-------------------------|--------------------------------------------------|
-------------------------|--------------------------------------------------|
-------------------------|--14-10-12-14-12-10----------10-12-10-------------|
-------------------------|--------------------14-12-14----------14-12-10----|
--0--0--1---1-0--0-------|-----------------------------------------------13-|
--0--0--1---1-0--0-------|--------------------------------------------------|


  PM PM       PM PM          PM PM          PM            PM
  E  E  E.  S E  E  E.  S    E  E  S   S  S S   S   S   S S  S   S  S S
--------------------------|---------------------------------------------|
--------------------------|---------------------------------------------|
--------------------------|---------------------------------------------|
--------6---6-------6---6-|---------------------------------------------|
--0--0--4---4-0--0--4---4-|--0--0--8h-11p-8----10h-13p-10----7h-10p-7---|
--0--0--------0--0--------|--0--0-----------0-------------0-----------0-|


  PM PM       PM PM          PM PM
  E  E  E.  S E  E  E.  S    E  E  S S S S S S S S S S S S
--------------------------|--------------------------------|
--------------------------|--------------------------------|
--------------------------|--------------------------------|
--------6---6-------6---6-|--------------------------------|
--0--0--4---4-0--0--4---4-|--0--0--7-7-7-7-5-5-5-5-4-4-4-4-|
--0--0--------0--0--------|--0--0--------------------------|


  PM PM       PM PM          PM PM          PM            PM          PM
  E  E  E.  S E  E  E.  S    E  E  S   S  S S   S   S   S S  S   S  S S
--------------------------|----------------------------------------------|
--------------------------|----------------------------------------------|
--------------------------|----------------------------------------------|
--------6---6-------6---6-|----------------------------------------------|
--0--0--4---4-0--0--4---4-|--0--0--8h-11p-8----10h-13p-10----7h-10p-7----|
--0--0--------0--0--------|--0--0-----------0-------------0-----------0--|


  PM PM       PM PM          PM PM
  E  E  E.  S E  E  E.  S    E  E  S S S S S S S S  S  S  S  S
--------------------------|------------------------------------|
--------------------------|------------------------------------|
--------------------------|------------------------------------|
--------6---6-------6---6-|------------------------------------|
--0--0--4---4-0--0--4---4-|--0--0----------8-8-8-8-------------|
--0--0--------0--0--------|--0--0--8-8-8-8---------10-10-10-10-|


       PM      PM                                      PM      PM
  Q    E  Q    E  Q       H        E  E  E  E     Q    E  Q    E  Q
-----------------------|-----------------------|-----------------------|
-----------------------|-----------------------|-----------------------|
-----------------------|-----------------------|-----------------------|
-----------------------|-----------5--------5--|-----------------------|
--0-------5-------3----|--L-----------7--8-----|--0-------1-------3----|
--0----0--5----5--3----|--L--------------------|--0----0--1----1--3----|


                                    PM      PM
  E   E   E  E  E  E  E  E     Q    E  Q    E  Q       H        E  E  E  E
----------------------------|-----------------------|-----------------------|
----------------------------|-----------------------|-----------------------|
-----/7---------------------|-----------------------|-----------------------|
---------10-----7--7--5--5--|-----------------------|-----------5--------5--|
--L----------8--5--5--3--3--|--0-------5-------3----|--L-----------7--8-----|
--L-------------------------|--0----0--5----5--3----|--L--------------------|


       PM      PM
  Q    E  Q    E  Q       E   E   E  E  E  E  E  E     E  S E  S E  H
-----------------------|----------------------------|------------------------|
-----------------------|----------------------------|------------------------|
-----------------------|-----/7---------------------|------------------------|
-----------------------|---------10-----7--7--5--5--|------------------------|
--0-------1-------3----|--L----------8--5--5--3--3--|--0----0----0-----------|
--0----0--1----1--3----|--L-------------------------|--0----0----0-----------|


                  PM PM
  E  S E  S E  E  S  S  Q        S S S S S S S S S S S S S S S S
------------------------------|----------------------------------|
------------------------------|----------------------------------|
------------------------------|----------------------------------|
------------------------------|----------------------------------|
--0----0----0-----0--0--------|----------------------------------|
--0----0----0-----0--0--3\----|--0-0-3-4-0-4-3-0-8-7-0-7-6-0-6-5-|


  S S S S S S S S    S    S S    S    S S    S   S
---------------------------------------------------|
---------------------------------------------------|
---------------------------------------------------|
---------------------------------------------------|
---------------------------------------------------|
--0-0-3-4-0-4-3-0-<>12-<>11-0-<>11-<>10-0-<>10-<>9-|


  S S S S S S S S S S S S S S S S
----------------------------------|
----------------------------------|
----------------------------------|
----------------------------------|
----------------------------------|
--0-0-3-4-0-4-3-0-8-7-0-7-6-0-6-5-|


  S S S S S S S S    S    S S    S    S S    S   S
---------------------------------------------------|
---------------------------------------------------|
---------------------------------------------------|
---------------------------------------------------|
---------------------------------------------------|
--0-0-3-4-0-4-3-0-<>12-<>11-0-<>11-<>10-0-<>10-<>9-|


  S S S S S S S S S S S S S S S S
----------------------------------|
----------------------------------|
----------------------------------|
----------------------------------|
----------------------------------|
--0-0-3-4-0-4-3-0-8-7-0-7-6-0-6-5-|


  S S S S S S S S    S    S S    S    S S    S   S
---------------------------------------------------|
---------------------------------------------------|
---------------------------------------------------|
---------------------------------------------------|
---------------------------------------------------|
--0-0-3-4-0-4-3-0-<>12-<>11-0-<>11-<>10-0-<>10-<>9-|


  S S S S S S S S S S S S S S S S
----------------------------------|
----------------------------------|
----------------------------------|
----------------------------------|
----------------------------------|
--0-0-3-4-0-4-3-0-8-7-0-7-6-0-6-5-|


                                                      PM PM       PM PM
  S S S S S S S S    S    S S    S    S S    S   S    E  E  E.  S E  E  Q
---------------------------------------------------|-------------------------|
---------------------------------------------------|-------------------------|
---------------------------------------------------|-------------------------|
---------------------------------------------------|-------------------------|
---------------------------------------------------|--0--0--3---3-0--0-------|
--0-0-3-4-0-4-3-0-<>12-<>11-0-<>11-<>10-0-<>10-<>9-|--0--0--3---3-0--0-------|


                      PM PM       PM PM         \2
  W                   E  E  E.  S E  E  Q       W
-------------------|-------------------------|-------------------|
-------------------|-------------------------|-------------------|
-------------------|-------------------------|-------------------|
-------------------|-------------------------|-------------------|
-------------------|--0--0--1---1-0--0-------|--0----------------|
-------------------|--0--0--1---1-0--0-------|--0----------------|


  PM PM       PM PM
  E  E  E.  S E  E  Q
-------------------------|
-------------------------|
-------------------------|
-------------------------|
--0--0--3---3-0--0-------|
--0--0--3---3-0--0-------|


    S   S   S   S   S   S   S   S   S   S   S   S   S   S   S   S
------------------------------------------------------------------|
--<>3-<>3-<>3-<>3-<>3-<>3-<>3-<>3-<>3-<>3-<>3-<>3-<>3-<>3-<>3-<>3-|
------------------------------------------------------------------|
------------------------------------------------------------------|
------------------------------------------------------------------|
------------------------------------------------------------------|


  PM PM       PM PM
  E  E  E.  S E  E  Q       S  S   S  S  S S  S  S  Q    Q
-------------------------|------------------------------------|
-------------------------|--6h-8h-10p-8p-6--------------------|
-------------------------|-----------------9p-7p-5-10----9----|
-------------------------|------------------------------------|
--0--0--1---1-0--0-------|--------------------------8----7----|
--0--0--1---1-0--0-------|------------------------------------|


  E   E  E  E   E  E  E   E     E  E   E  E  E   E  E  E
-----------------------------|----------------------------|
-----------------------------|----------------------------|
------------5S--4------------|-----5S--4------------------|
--3S--5-----3S--2-----5S--7--|-----3S--2-----3S--5-----3--|
--1S--3--x---------x--3S--5--|--x---------x--1S--3-----1--|
-----------------------------|----------------------------|


  PM PM PM PM PM PM PM      PM PM PM PM PM
  S  S  S  S  E  S  S  S  S S  S  E  S  S
-------------------------------------------|
-------------------------------------------|
-------------------------------------------|
-------------------------------------------|
-----------------------5h-6----------------|
--0--0--0--0--0--0--0-------0--0--0--0--0--|


        PM PM PM PM PM
   S  S S  S  E  S  S  S  S S  S  S S  S S    E   E  E  E   E  E  E   E
-------------------------------------------|-----------------------------|
-------------------------------------------|-----------------------------|
-----------------------7---------10-7------|------------5S--4------------|
-------------------------10-7---------10-7-|--3S--5-----3S--2-----5S--7--|
--10p-8-----------------------10-----------|--1S--3--x---------x--3S--5--|
--------0--0--0--0--0----------------------|-----------------------------|


                               PM PM PM PM PM PM PM      PM PM PM PM PM
  E  E   E  E  E   E  E  E     S  S  S  S  E  S  S  S  S S  S  E  S  S
----------------------------|-------------------------------------------|
----------------------------|-------------------------------------------|
-----5S--4------------------|-------------------------------------------|
-----3S--2-----3S--5-----3--|-------------------------------------------|
--x---------x--1S--3-----1--|-----------------------5h-6----------------|
----------------------------|--0--0--0--0--0--0--0-------0--0--0--0--0--|


  S S S S S S S S S S S S S S S S    E   E  E  E   E  E  E   E
----------------------------------|-----------------------------|
------------------------------6-8-|-----------------------------|
--------------5-7-------5-7-8-----|------------5S--4------------|
--------5-7-8-----5-7-8-----------|--3S--5-----3S--2-----5S--7--|
--5-7-8---------------------------|--1S--3--x---------x--3S--5--|
----------------------------------|-----------------------------|


                               PM PM PM PM PM PM PM      PM PM PM PM PM
  E  E   E  E  E   E  E  E     S  S  S  S  E  S  S  S  S S  S  E  S  S
----------------------------|-------------------------------------------|
----------------------------|-------------------------------------------|
-----5S--4------------------|-------------------------------------------|
-----3S--2-----3S--5-----3--|-------------------------------------------|
--x---------x--1S--3-----1--|-----------------------5h-6----------------|
----------------------------|--0--0--0--0--0--0--0-------0--0--0--0--0--|


        PM PM PM PM PM
   S  S S  S  E  S  S  S  S S  S  S S  S S    E   E  E  E   E  E  E   E
-------------------------------------------|-----------------------------|
-------------------------------------------|-----------------------------|
-----------------------7---------10-7------|------------5S--4------------|
-------------------------10-7---------10-7-|--3S--5-----3S--2-----5S--7--|
--10p-8-----------------------10-----------|--1S--3--x---------x--3S--5--|
--------0--0--0--0--0----------------------|-----------------------------|


                               PM PM    PM PM    PM PM
  E  E   E  E  E   E  E  E     E  E  E  E  E  E  E  E
----------------------------|--------------------------|
----------------------------|--------------------------|
-----5S--4------------------|--------------------------|
-----3S--2-----3S--5-----3--|--------------------------|
--x---------x--1S--3-----1-
4 comments total. Showing first comments.
0 reply
metalatw wrote on June 27 2009, 02:25 pm

everything looks correct except the beginning riff. the 4 3 should be 3 2. if you watch alexi play it you see that he is playing 3 2

0 reply
Feilong29 wrote on November 23 2010, 07:38 pm



2nd solo is wrong no offense... I fixed it for ya!

[SOLO 2]

S S S S S S S S S S S S S S S S
--------------------------------------------------------|
--------------------------------------------------------|
-----------------------------------------------------9--|
------------------------9----------9--11------9--11-----|
--------------9--9--12------9--12---------12------------|
--------------------------------------------------------|

S S S S S S S S S S S S S S S S
------------------------------------------------------------
-------------------------------------10------10-12-10-12-13-
--------9-9---------9--11-11-9-11-9------11-9---------------
--9--11------9--11------------------------------------------
------------------------------------------------------------
------------------------------------------------------------

S S S S S S S S S S S S S S E
-----------14-------14-16-17-14-16-17-19-16-17-19-16-19b--|
--14-16-17----16-17---------------------------------------|
----------------------------------------------------------|
----------------------------------------------------------|
----------------------------------------------------------|
----------------------------------------------------------|

T T
E Q Q Q.
--L--22pbr----22b----24pb------|
-------------------------------|
-------------------------------|
-------------------------------|
-------------------------------|
-------------------------------|

S S S S S S S S S S S S S S S S
---------------------14h-17-16-14-------------------|
------------------14--------------17-16-14----------|
---------------14--------------------------17-16-14-|
------------16--------------------------------------|
---------16-----------------------------------------|
--16h-19--------------------------------------------|

S S S S S S S S S S S S S S S S
--------------------------------------------------|
--------------------------------------------------|
--16-17-16-14-------16-17-16-14-------16-14-------|
--------------16-14-------------16-14-------16-14-|
--------------------------------------------------|
--------------------------------------------------|

E S S S S E S S S S S S S S
----------------12------------------17-14-16-17-19-16-17-19-
-------12-12-14----12b--14-17-16-14-------------------------
--14b-------------------------------------------------------
------------------------------------------------------------
------------------------------------------------------------
------------------------------------------------------------

S S S S S S S S H
--21-17-19-21-22-19-21-22-24b--------|
-------------------------------------|
-------------------------------------|
-------------------------------------|
-------------------------------------|
-------------------------------------|

0 reply
Feilong29 wrote on November 23 2010, 07:41 pm

whoops, messed something up!

S S S S S S S S S S S S S S E
-----------14-------14-16-17-14-16-17-19-16-19b-----------|
--14-16-17----16-17---------------------------------------|
----------------------------------------------------------|
----------------------------------------------------------|
----------------------------------------------------------|
----------------------------------------------------------|

I want to post or [tab]
guest
You may want to rate the tab now too:
select rating
Please do not post tabs as comments. Select "correction" instead!