Oops, an error
Loading. Please wait.

In The Shadows Tab

ver1
ver1

Whole song

Interactive

More versions @911Tabs.com
1,690 views 1 this week
2 commentsread comments
1 2 3 4 5
worth learning
x 2
Autoscroll
+/-
esc
set tempo
stop
Contributor
Difficulty
intermediate
WARNING: You are trying to view
                                    content from Ultimate-Guitar.com
                                    in an unauthorized application,
                                    which is prohibited.

                                    Please use an official Ultimate
                                    Guitar Tabs application for iPhone,
                                    iPad or Android to access legitimate
                                    chords, guitar, bass, and drum tabs
                                    from Ultimate-Guitar.com database.

                                    Type "ultimate guitar tabs" in Apple
                                    App Store's or Android Market's
                                    search to find the application.
.  - palm mute           /  - slide up to
\  - slide down to       ~  - vibrato
h  - hammer on           b  - Bend
p  - pull off            Suffixes for bend
t  - tap                 f  - full bend    h - half bend
ph - pinched harmonic    q  - quarter bend t - tap bend
*  - see comment         ^  - Hold bend    r release bend
x  - Stuccatto           ~  - vibrato bend
,  - slight palm mute    () - ghost note, sustained note
"  - tremolo note        <> - Trill

Tuning:  Down one whole step





Intro:


  Gtr. 1
|---------------s22b24~~~--------|
|--------------------------------|
|--------------------------------|
|--------------------------------|
|--------------------------------|
|--------------------------------|
|                                |
| Gtr 2.                         |
|--------------------------------|
|--------------------------------|
|--------------------------------|
|--------------------------------|
|-2--2-2--2--2-2--2--2-2--2--2-2-|
|-0--0-0--0--0-0--0--0-0--0--0-0-|
     ...     ...     ...     ...

Riff 1:

  Gtr. 1
|-8"--7"-----8"-7"---------------|
|--------10"---------------------|
|--------------------------------|
|-----------------10"--9"--6"----|
|-----------------------------7"-|
|--------------------------------|
|                                |
| Gtr 2.                         |
|--------------------------------|
|--------------------------------|
|--------------------------------|
|-2"-----------------------------|
|-0"--------------2"-------------|
|-----------------0"-------------|


First Fill:


 Both Guitars
|-------------------------------|
|-------------------------------|
|-------------------------------|
|-2---------5--4--2-------------|
|-0---------3--2--0-------------|
|---------0---------------------|

 Both Guitars
|-------------------------------|
|-------------------------------|
|-------------------------------|
|-2---------5--4-2-2-2-2-5-5-5-5|
|-0---------3--2-0-0-0-0-3-3-3-3|
|---------0---------------------|


Verse:

 Gtr. 1
|-8--------7---------------7--8-|
|-------------------10----------|
|-------------------------------|
|-------------------------------|
|-------------------------------|
|-------------------------------|
|                               |
| Gtr 2.                        |
|-------------------------------|
|-------------------------------|
|-------------------------------|
|-2-22-2-22-2-22-2-22-2-22-2-22-|
|-0-00-0-00-0-00-0-00-0-00-0-00-|
|-------------------------------|
  . .. . .. . .. . .. . .. . ..
 Galloping kind of rhythm. Listen to
 The song for the exact rhythm.

Gtr. 1
|-------------------------------|
|-------------------------------|
|-------------------------------|
|-10-------9---------6------4---|
|-------------------------------|
|-------------------------------|
|                               |
| Gtr 2.                        |
|-------------------------------|
|-------------------------------|
|-------------------------------|
|-------------------------------|
|-2-22-2-22-2-22-2-22-2-22-2-22-|
|-0-00-0-00-0-00-0-00-0-00-0-00-|
  . .. . .. . .. . .. . .. . ..

Second Fill:

Gtr. 1
|-------------------------------|
|-------------------------------|
|-------------------------------|
|-7--9-10--9-7----7-------7~----|
|--------------10---10-10-------|
|-------------------------------|
|                               |
| Gtr 2.                        |
|-------------------------------|
|-------------------------------|
|-------------------------------|
|-2------------------2----2-----|
|-0------------------0--5-0-----|
|-----------------------3-------|


Pre-Chorus:

 Only Gtr. 1
|----0-------------0------0----|
|--------------------1------0--|
|---2-------------2------1-----|
|--2-------------3------2------|
|-0----------------------------|
|------------------------------|


 Only Gtr. 1
|----0-------------0-------3---|
|----------------------------3-|
|---2-------------3--3--2-5----|
|--2-------------5-------------|
|-0----------------------------|
|------------------------------|


Chorus:

Gtr. 1
|-------------------------------|
|-------------------------------|
|---------7~--------------------|
|-7--9-10-----10-9~----7------7~|
|-----------------------10-10---|
|-------------------------------|
|                               |
| Gtr 2.                        |
|-------------------------------|
|-------------------------------|
|-------------------------------|
|-2--------5----2------2------2-|
|-0--5--5--3----0-5-2--0-5-5--0-|
|----3--3---------3-0----3-3----|
     ....         ...    ...

Gtr. 1
|-------------------------------|
|-------------------------------|
|--------7~---------------------|
|-7-9-10--10-9----7---------7---|
|-------------10---10-10-10---7-|
|-------------------------------|
|                  ........     |
| Gtr 2.                        |
|-------------------------------|
|-------------------------------|
|-------------------------------|
|-2-2-----------------------5-4-|
|-0-0---3--3-----5--5--5-5--3-2-|
|-----0-1--1--0--3--3--3-3------|
      .       .        ...


Clean Bridge Part:

 Only Gtr. 1
|---12--13--12--12--10--12--10--10-|
|-10--10--10--10--10--10--10--10---|
|----------------------------------|
|----------------------------------|
|----------------------------------|
|----------------------------------|

 Only Gtr. 1
|---------13--12--12---13-12-10-12-|
|-10-13-10--10--10--10-15-13-12-13-|
|------------------------14-14-14--|
|----------------------------------|
|----------------------------------|
|----------------------------------|

Gtr. 1
|-------------------10----------10-|
|---12--15--13--12--12--13--12--12-|
|-12--12--12--12--12--12--12--12---|
|----------------------------------|
|----------------------------------|
|----------------------------------|
|                                  |
| Gtr 2.                           |
|----------------------------------|
|----------------------------------|
|----------------------------------|
|----------------------------------|
|-5--------------------------------|
|-3--------------------------------|

Gtr. 1
|-------------------12--10--12--13-|
|---12--15--13--12--13--12--13--15-|
|-12--12--12--12--12--12--12--12---|
|----------------------------------|
|----------------------------------|
|----------------------------------|
|                                  |
| Gtr 2.                           |
|----------------------------------|
|----------------------------------|
|----------------------------------|
|--------------------2-2-0-2-3-2-0-|
|----------------------------------|
|----------------------------------|


   Gtr. 1
|---12--13--12--12--10--12--10--10-|
|-10--10--10--10--10--10--10--10---|
|----------------------------------|
|----------------------------------|
|----------------------------------|
|----------------------------------|
|                                  |
| Gtr. 2                           |
|----------------------------------|
|----------------------------------|
|----------------------------------|
|-2-2-2-------------7-----7--7-----|
|-0-0-0-----------0-5---0-5--5-----|
|----------------------------------|
  ...             .     .

  Gtr. 1
|---------13--12--12---13-12-10-12-|
|-10-13-10--10--10--10-15-13-12-13-|
|------------------------14-14-14--|
|----------------------------------|
|----------------------------------|
|----------------------------------|
|                                  |
| Gtr 2.                           |
|----------------------------------|
|----------------------------------|
|----------------------------------|
|-2-2-2---------2-2----------------|
|-0-0-0---------0-0-5-5---5-----5-5|
|-------------------3-3---3-----3-3|
 ....           .   .           ...


Gtr. 1
|-------------------10----------10-|
|---12--15--13--12--12--13--12--12-|
|-12--12--12--12--12--12--12--12---|
|----------------------------------|
|----------------------------------|
|----------------------------------|
|                                  |
| Gtr 2.                           |
|----------------------------------|
|----------------------------------|
|----------------------------------|
|-------------------5------5-5-----|
|-5---------------5-3---5--3-3--5-5|
|-3---------------3-----3-------3-3|
                  .     .       ...

Gtr. 1
|-------------------12--10--12--13-|
|---12--15--13--12--13--12--13--15-|
|-12--12--12--12--12--12--12--12---|
|----------------------------------|
|----------------------------------|
|----------------------------------|
|                                  |
| Gtr 2.                           |
|----------------------------------|
|----------------------------------|
|----------------------------------|
|----------------------------------|
|-5-----------------3-2-3-5---3~---|
|-3--------------------------------|

Third Fill:

Gtr. 1
|-------------------|
|-------------------|
|--------------7~---|
|------10-9---------|
|-7~--------10------|
|-------------------|
|                   |
| Gtr 2.            |
|-------------------|
|-------------------|
|------9--7----8~---|
|-----------10------|
|-10~---------------|
|-------------------|

Interlude:

 Both Gtrs
|---------------------|
|---------------------|
|---------------------|
|-9---7---9-12-11-9-7-|
|-7---5---7-10-9--7-5-|
|---------------------|

Both Gtrs
|---------------------|
|---------------------|
|---------------------|
|-9-------9-12-11-9-7-|
|-7---10--7-10-9--7-5-|
|-----8---------------|

  Gtr. 1
|---------------------|
|-----------8--7------|
|-9---7---9-------9-7-|
|---------------------|
|---------------------|
|---------------------|
|                     |
| Gtr. 2              |
|---------------------|
|---------------------|
|---------------------|
|-9---7---9-12-11-9-7-|
|-7---5---7-10-9--7-5-|
|---------------------|

  Gtr. 1
|---------------------|
|-----------8--7------|
|-9-------9-------9-7-|
|-----10--------------|
|---------------------|
|---------------------|
|                     |
| Gtr. 2              |
|---------------------|
|---------------------|
|---------------------|
|-9-------9-12-11-9-7-|
|-7---10--7-10-9--7-5-|
|-----8---------------|


Second Interlude:

  Gtr. 1
|--------------------------|
|--------------------------|
|--------------------------|
|--------------------------|
|--------------7”----------|
|-0--000—8p7-7-------5”----|
     ...

Gtr. 1
|--------------------------|
|--------------------------|
|--------------------------|
|--------------------------|
|--------------7”---9b12r9~|
|-0--000—8p7-7-------------|
     ...

  Gtr. 1
|--------------------------|
|--------------------------|
|--------------------------|
|--------------------------|
|--------------7”----------|
|-0--000—8p7-7-------5”----|
|    ...                   |
| Gtr. 2                   |
|--------------------------|
|--------------------------|
|--------------------------|
|--------------5~----------|
|--------------------------|
|-0--000—-0-0-0------8~----|
     ...

Gtr. 1
|--------------------------|
|--------------------------|
|--------------------------|
|--------------------------|
|--------------7”---9b12r9~|
|-0--000—8p7-7-------------|
|    ...                   |
|  Gtr. 2                  |
|--------------------------|
|--------------------------|
|--------------------7b9r7~|
|--------------5~----------|
|--------------------------|
|-0--000—-0-0-0------------|
     ...

Interlude 3:

Gtr. 1
|--------------------------|
|-8----777777--8----7777777|
|-9----888888--9----8888888|
|--------------------------|
|--------------------------|
|--------------------------|
|                          |
| Gtr 2.                   |
|--------------------------|
|--------------------------|
|--------------------------|
|-9----888888--9----888888-|
|-7----666666--7----666666-|
|--------------------------|

Gtr. 1
|--------------------------|
|-10---777777--8--11-10-8-7|
|-11---888888--9--12-11-9-8|
|--------------------------|
|--------------------------|
|--------------------------|
|                          |
| Gtr 2.                   |
|--------------------------|
|--------------------------|
|--------------------------|
|-11---8888888-9--12-11-9-8|
|-9----6666666-7--10-9--7-6|
|--------------------------|


Fourth Interlude:

Gtr. 1
|-5-------------------|
|--5-6-8-6-5-8-5-6-5--|
|-------------7-----7-|
|---------------------|
|---------------------|
|---------------------|
|                     |
| Gtr 2.              |
|---------------------|
|---------------------|
|---------------------|
|-2----------7--------|
|-0----------5--------|
|---------------------|

Gtr. 1
|-------------------|
|-8-5-6-5-6---5-----|
|--7-----7-5-7-7-5--|
|-------------------|
|-------------------|
|-------------------|
|                   |
| Gtr 2.            |
|-------------------|
|-------------------|
|-------------------|
|---------5---------|
|-5-------3---------|
|-3-----------------|


Gtr. 1
|-------------------|
|-6---5---5---------|
|--5-7-7-5-4-5-7-5-4|
|-------------------|
|-------------------|
|-------------------|
|                   |
| Gtr 2.            |
|-------------------|
|-------------------|
|-------------------|
|---------4---------|
|-3-------2---------|
|-1-----------------|


Gtr. 1
|------7-5-5~-------|
|-5-6-8---8---------|
|-------------------|
|-------------------|
|-------------------|
|-------------------|
|                   |
| Gtr 2.            |
|-------------------|
|-------------------|
|-------------------|
|-------------------|
|-2----5----7-------|
|-0----3----5-------|


Then it changes up a little bit
(when singing comes in)

Gtr. 1
|-5-----------------|
|---5-6-5---8--6-5--|
|--------7----7----7|
|-------------------|
|-------------------|
|-------------------|
|                   |
| Gtr 2.            |
|-------------------|
|-------------------|
|-------------------|
|-----------7--7777-|
|-7--7777---5--5555-|
|-5--5555-----------|
     ....      ....

Gtr. 1
|-------------------|
|-8---6-5---6---5---|
|----7---7-----5-7-5|
|-------------------|
|-------------------|
|-------------------|
|                   |
| Gtr 2.            |
|-------------------|
|-------------------|
|-------------------|
|-----------5--5555-|
|-5--5555---3--3333-|
|-3--3333-----------|
     ....      ....

Gtr. 1
|-------------------|
|-6---5----5--------|
|----5-7-5---4-7-5-4|
|-------------------|
|-------------------|
|-------------------|
|                   |
| Gtr 2.            |
|-------------------|
|-------------------|
|-------------------|
|-----------4--4444-|
|-3--3333---2--2222-|
|-1--1111-----------|
     ....      ....

Gtr. 1 (First Time)    (Second Time)
|-------------------| |-12-10-8-7-5~|
|-5-6~---5----------| |-------------|
|---------7-5-4-----| |-------------|
|---------------7-5~| |-------------|
|-------------------| |-------------|
|-------------------| |-------------|
|                   |
| Gtr 2.            |
|-------------------|
|-------------------|
|-------------------|
|-------------------|
|-2-2-2-5-5-5-7-----|
|-0-0-0-3-3-3-5-----|
  . . . . . .

Ending:

Gtr. 1
|8-7|--5---5-7-8-12-10~---8p7p5~-|
|---|----5-----------------------|
|---|----------------------------|
|---|----------------------------|
|---|----------------------------|
|---|----------------------------|
|   |                            |
| Gtr 2.                         |
|12-10|--------------------------|
|-----|--------------------------|
|-----|--------------------------|
|-----|-2------------------------|
|-----|-0-----------5------1----5|
|-----|-------------3------3----3|

Gtr. 1
|-3-|-5-5-7-8-12-10~-12p10--12s13|
|---|--5-------------------------|
|---|----------------------------|
|---|----------------------------|
|---|----------------------------|
|---|----------------------------|
|   |                            |
| Gtr 2.                         |
|---|----------------------------|
|---|----------------------------|
|---|----------------------------|
|---|-2--------------3---5---7---|
|---|-0----------5---1---3---5---|
|---|------------3---------------|

After A while go to this:

Gtr. 1
|-------------------|
|-6~-------5~-------|
|-------------------|
|-------------------|
|-------------------|
|-------------------|
|                   |
| Gtr 2.            |
|-------------------|
|-------------------|
|-------------------|
|-------------------|
|-3---------2-------|
|-1---------0-------|


Gtr. 1
|-----------12------------------|
|-6~----------15-13-12----------|
|--------s14----------14-12-----|
|--------------------------15-14|
|-------------------------------|
|-------------------------------|
|                               |
| Gtr 2.                        |
|-------------------------------|
|-------------------------------|
|-------------------------------|
|-------------------------------|
|-3--------2--------------------|
|-1--------0--------------------|
comments
We did not receive enough feedback on this tab! Please rate:
print report bad tab
1 2 3 4 5
2 comments total.
0 reply
atkm2891 wrote on January 15 2007, 03:52 am

Just, didnt sound rigth at all

0 reply
Beast-mask wrote on March 5 2008, 07:38 am

The tuning is C# not D...

I want to post or [tab]
guest
You may want to rate the tab now too:
select rating
Please do not post tabs as comments. Select "correction" instead!