Oops, an error
Loading. Please wait.

In Your Face Tab

ver2
ver2
More versions @911Tabs.com
73,755 views 54 this week
17 commentsread comments
1 2 3 4 5
excellent!
x 34
Autoscroll
+/-
esc
set tempo
stop
Contributor
Difficulty
Tuning
advanced
C G C F A D
Hey! There's an official Ultimate Guitar app which is ideal
for learning songs when you're away from computer. Get the app
WARNING: You are trying to view
                                    content from Ultimate-Guitar.com
                                    in an unauthorized application,
                                    which is prohibited.

                                    Please use an official Ultimate
                                    Guitar Tabs application for iPhone,
                                    iPad or Android to access legitimate
                                    chords, guitar, bass, and drum tabs
                                    from Ultimate-Guitar.com database.

                                    Type "ultimate guitar tabs" in Apple
                                    App Store's or Android Market's
                                    search to find the application.
                                  IN YOUR FACE
                        As recorded by Children Of Bodom
                         (Released as a Single in 2005)

Words by Alexi Laiho

Music by Children Of Bodom
Arranged by Children Of Bodom
Transcribed by hades

          E5                   B5                   C5                   D5
      0 2 2 x x x          x 2 4 4 x x          x 3 5 5 x x          x 5 7 7 x x

      D5(type 2)               A5                   Bb5              D5(type 3)
      0 0 0 x x x          x 0 2 2 x x          x 1 3 3 x x          0 5 7 x x x

          F5               Bb5(type 2)          F5(type 2)           C5(type 2)
      3 3 3 x x x          x 1 3 x x x          3 3 x x x x          x 3 5 x x x

Gtr I (C G C F A D) - 'Alexi'
Gtr II (C G C F A D) - 'Roope'
Gtr III (C G C F A D) - 'Janne'
Gtr IV (C G C F A D) - 'Janne'
Gtr V (C G C F A D) - 'lead'

   Intro
    Q=115
    N.C.
   4/4
    Gtrs I, IV
    PM--------------------------------------------------------|
    S S S S S S S S S S S S S S E   S S S S S S S S S S S S S S E  4x
||--------------------------------|--------------------------------||
||o-------------------------------|-------------------------------o||
||--------------------------------|--------------------------------||
||--------------------------------|--------------------------------||
||o-------------------------------|-------------------------------o||
||--0-0-0-0---0-0-0-0-0-0---0-0---|-0-0-0-0---0---0---0-0-0-0-0----||


    N.C.
    Gtrs I, II, IV
    PM--------------------------------------------------------|
    S S S S S S S S S S S S S S E   S S S S S S S S S S S S S S E
||--------------------------------|---------------------------------||
||o-------------------------------|--------------------------------o||
||--------------------------------|---------------------------------||
||--------------------------------|---------------------------------||
||o-------------------------------|--------------------------------o||
||--0-0-0-0---0-0-0-0-0-0---0-0---|-0-0-0-0---0---0---0-0-0-0-0-----||


    N.C.
    Gtr III
     S  S  S  S  S  S  S  S  S  S  S  S  S  S  S  S
||--------------------12-13-------------------12-13-|
||o-15-------15-------------15-------15-------------|
||--------------------------------------------------|
||-----12-12----12-12----------12-12----12-12-------|
||o-------------------------------------------------|
||--------------------------------------------------|
|
|   Gtrs I, II, IV
|    PM----------------------------------------------
|    S  S  S  S  S  S  S  S  S  S  S  S  S  S  E
||--------------------------------------------------|
||o-------------------------------------------------|
||--------------------------------------------------|
||--------------------------------------------------|
||o-------------------------------------------------|
||---0--0--0--0-----0--0--0--0--0--0-----0--0-------|


   S  S  S  S  S  S  S  S  S  S  S  S  S  S  S  S
|-------------------12-13-------12-13-------12-13---||
|-15-------15-------------15----------14-----------o||
|---------------------------------------------------||
|----12-12----12-12----------12----------11---------||
|--------------------------------------------------o||
|---------------------------------------------------||
|
|----------------------------------------|
|  S  S  S  S  S  S  S  S  S  S  S  S  S  S  E
|---------------------------------------------------||
|--------------------------------------------------o||
|---------------------------------------------------||
|---------------------------------------------------||
|--------------------------------------------------o||
|--0--0--0--0-----0-----0-----0--0--0--0--0---------||


 Chorus
  D5                      A5
   S  S  S  S  S  S  S  S  S  S  S  S  S  S  S  S
|-------------------12-13-------------------13-15-|
|-15-------15-------------17-------17-------------|
|----------------------------14-14----14-14-------|
|----12-12----12-12-------------------------------|
|-------------------------------------------------|
|-------------------------------------------------|
|
| Gtr I
|  H                       H
|-------------------------------------------------|
|-------------------------------------------------|
|--------------------------2----------------------|
|--0-----------------------2----------------------|
|--0-----------------------0----------------------|
|--0----------------------------------------------|
|
| Gtr II
|  PM----------------------------------------------
|  S  S  S  S  S  S  S  S  S  S  S  S  S  S  E
|-------------------------------------------------|
|-------------------------------------------------|
|-------------------------------------------------|
|-------------------------------------------------|
|-------------------------------------------------|
|--0--0--0--0-----0--0--0--7--7--7-----7--7-------|


  Bb5                     C5
   S  S  S  S  S  S  S  S  S  S  S  S  S  S  S  S
|-------------------15-17-------15-17-------15-17-|
|-18-------18-------------20----------20----------|
|----15-15----15-15----------15----------17-------|
|-------------------------------------------------|
|-------------------------------------------------|
|-------------------------------------------------|
|
|  H                       H
|-------------------------------------------------|
|-------------------------------------------------|
|--3-----------------------5----------------------|
|--3-----------------------5----------------------|
|--1-----------------------3----------------------|
|-------------------------------------------------|
|
|----------|      PM---------------------|
|  S  S  S  S  S  S  S  S  S  S  S  S  S  S  E
|-------------------------------------------------|
|-------------------------------------------------|
|-------------------------------------------------|
|-------------------------------------------------|
|-------------------------------------------------|
|--8--8--8--8-----8-----3-----3--3--3--2--2-------|


  D5                      A5
   S  S  S  S  S  S  S  S  S  S  S  S  S  S  S  S
|-------------------12-13-------------------13-15-|
|-15-------15-------------17-------17-------------|
|----------------------------14-14----14-14-------|
|----12-12----12-12-------------------------------|
|-------------------------------------------------|
|-------------------------------------------------|
|
|  H                       H
|-------------------------------------------------|
|-------------------------------------------------|
|--------------------------2----------------------|
|--7-----------------------2----------------------|
|--5-----------------------0----------------------|
|--0----------------------------------------------|
|
|  PM----------------------------------------------
|  S  S  S  S  S  S  S  S  S  S  S  S  S  S  E
|-------------------------------------------------|
|-------------------------------------------------|
|-------------------------------------------------|
|-------------------------------------------------|
|-------------------------------------------------|
|--0--0--0--0-----0--0--0--7--7--7-----7--7-------|


  Bb5                     Eb5
   S  S  S  S  S  S  S  S  S  S  S   S  S  S  S  S
|-------------------15-17-------12--13-------12-13-|
|-18-------18-------------18-----------17----------|
|----15-15----15-15----------14-----------13-------|
|--------------------------------------------------|
|--------------------------------------------------|
|--------------------------------------------------|
|
|  H                       E     Q.
|--------------------------------------------------|
|--------------------------------------------------|
|--3-----------------------------------------------|
|--3-----------------------1-----------------------|
|--1-----------------------1-----------------------|
|--------------------------1-----------------------|
|
|----------|      PM---|
|  S  S  S  S  S  S  S  S  E     Q.
|--------------------------------------------------|
|--------------------------------------------------|
|--------------------------------------------------|
|--------------------------------------------------|
|--------------------------1-----------------------|
|--8--8--8--8-----8-----8--1-----------------------|


 Pre-Verse
  N.C.
  Gtr I
                      PM----|
  E E     E E E E     S S S S   E E     E E S S S S S S S  S
|-----------------------------|------------------------------|
|-----------------------------|------------------------------|
|-----------------------------|-------------------------4--7-|
|-----------------------------|---------------------3-6------|
|-----------------------------|-----------------2-5----------|
|-6-3b3.5-5-0-6-3b3.5-5-5-0-0-|-6-3b3.5-5-2-3-6--------------|
|
| Gtr II
|                     PM----|
| E E     E E E E     S S S S   E E     E E S S S S S S S  S
|-----------------------------|------------------------------|
|-----------------------------|------------------------------|
|-----------------------------|-------------------------7-10-|
|-----------------------------|---------------------6-9------|
|-----------------------------|-----------------5-8----------|
|-6-3b3.5-5-0-6-3b3.5-5-5-0-0-|-6-3b3.5-5-2-6-9--------------|


  Gtrs I, II
                      PM----|               PM------------|
                                                |-3-| |-3-|
  E E     E E E E     S S S S   E E     E E e e S S S S S S
|-----------------------------|-----------------------------|
|-----------------------------|-----------------------------|
|-----------------------------|-----------------------------|
|-----------------------------|-----------------------------|
|-----------------------------|-----------2-0-0-------------|
|-6-3b3.5-5-0-6-3b3.5-5-5-0-0-|-6-3b3.5-5-2-0-0-3-3-3-3-3-3-|


  G#F5G5D5G#F5G5  D5    G#F5G5E5
  Gtr I
              PM----|
  E E E E E E S S S S   E E E E S S S S S S S  S
|---------------------|--------------------------|
|---------------------|--------------------------|
|---------------------|---------------------4--7-|
|---------------------|-----------------3-6------|
|-6-3-5-0-6-3-5-5-0-0-|-6-3-5-2-----2-5----------|
|-6-3-5-0-6-3-5-5-0-0-|-6-3-5-2-3-6--------------|
|
| Gtr II
|             PM----|
| E E E E E E S S S S   E E E E S S S S S S S  S
|---------------------|--------------------------|
|---------------------|--------------------------|
|---------------------|---------------------7-10-|
|---------------------|-----------------6-9------|
|-6-3-5-0-6-3-5-5-0-0-|-6-3-5-2-----5-8----------|
|-6-3-5-0-6-3-5-5-0-0-|-6-3-5-2-6-9--------------|


  G#F5G5D5G#F5      D5  G#F5G5E5
  Gtr I
              PM--|
              |-3-|
  E E E E E E S S S E   E E E E  Q.      +E
|---------------------|-----------------------|
|---------------------|-----------------------|
|---------------------|---------<3>b5---(<3>)-|
|---------------------|---------<3>b5---(<3>)-|
|-6-3-5-0-6-3-------0-|-6-3-5-2---------------|
|-6-3-5-0-6-3-5-5-5-0-|-6-3-5-2---------------|
|
| Gtr II
|             PM--|
|             |-3-|
| E E E E E E S S S E   E E E E  Q.      +E
|---------------------|-----------------------|
|---------------------|-----------------------|
|---------------------|---------<7>b9---(<7>)-|
|---------------------|---------<7>b9---(<7>)-|
|-6-3-5-0-6-3-------0-|-6-3-5-2---------------|
|-6-3-5-0-6-3-5-5-5-0-|-6-3-5-2---------------|


 Verse
  N.C.                                                        F5 E5
    PM----------|   PM--|               PM----------|   PM--|
  S S S S S S S S S S S S S S S  S    S S S S S S S S S S S S  E E
|-----------------------------------|------------------------------|
|-----------------------------------|------------------------------|
|-----------------------------------|------------------------------|
|-----------------------------------|-------------------------10-9-|
|-5---------------5-------5-3-5--5--|-5---------------5--------8-7-|
|---0-0-0---0-0-0---0-0-0-----------|---0-0-0---0-0-0---0-0-0------|
|
|   PM----------|   PM--|               PM----------|   PM--|
| S S S S S S S S S S S S S S S +S    S S S S S S S S S S S S  E E
|-----------------------------------|------------------------------|
|-----------------------------------|------------------------------|
|-----------------------------------|------------------------------|
|-------------------------3-2-3-(3)-|--------------------------7-6-|
|-5---------------5-----------------|-5---------------5--------8-7-|
|---0-0-0---0-0-0---0-0-0-----------|---0-0-0---0-0-0---0-0-0------|


  N.C.
    PM----------|   PM--|             PM----------|   PM--|
  S S S S S S S S S S S S S S S S   S S S S S S S S S S S S S S E
|---------------------------------|--------------------------------|
|---------------------------------|--------------------------------|
|---------------------------------|-------------------------5-4-5--|
|---------------------------------|-7---------------7--------------|
|-5---------------5-------3-0-1-0-|---0-0-0---0-0-0---0-0-0--------|
|---0-0-0---0-0-0---0-0-0---------|--------------------------------|
|
|   PM----------|   PM--|             PM----------|   PM--|
| S S S S S S S S S S S S S S S S   S S S S S S S S S S S S S S E
|---------------------------------|--------------------------------|
|---------------------------------|--------------------------------|
|---------------------------------|-----------------5-------9-7-9--|
|---------------------------------|-7------------------------------|
|-5---------------5-------3-0-1-0-|---0-0-0---0-0-0---0-0-0--------|
|---0-0-0---0-0-0---0-0-0---------|--------------------------------|


  N.C.                                                          D5C#C5
    PM----------|   PM--|               PM--------------------|
                                                  |-3-| |--3--|
  S S S S S S S S S S S S S S S  S    S S S S S S S S S S S   S E E E
|-----------------------------------|---------------------------------|
|-----------------------------------|---------------------------------|
|-----------------------------------|---------------------------------|
|-----------------------------------|---------------------------7-6-5-|
|-5---------------5-------5-3-5--5--|-5-----------------5-5---5-5-4-3-|
|---0-0-0---0-0-0---0-0-0-----------|---0-0-0---0-0-0-0---------------|
|
|   PM----------|   PM--|               PM------------------|
|                                                 |-3-|
| S S S S S S S S S S S S S S S +S    S S S S S S S S S S   S   E E E
|-----------------------------------|---------------------------------|
|-----------------------------------|---------------------------------|
|-----------------------------------|---------------------------------|
|-------------------------3-2-3-(3)-|---------------------------3-2-1-|
|-5---------------5-----------------|-5-------------------------5-4-3-|
|---0-0-0---0-0-0---0-0-0-----------|---0-0-0---0-0-0-0-0---0---------|


  N.C.
    PM----------|   PM--|             PM----------|   PM--|
  S S S S S S S S S S S S S S S S   S S S S S S S S S S S S S S E
|---------------------------------|--------------------------------|
|---------------------------------|--------------------------------|
|---------------------------------|-------------------------5-4-5--|
|---------------------------------|-7---------------7--------------|
|-5---------------5-------3-0-1-0-|---0-0-0---0-0-0---0-0-0--------|
|---0-0-0---0-0-0---0-0-0---------|--------------------------------|
|
|   PM----------|   PM--|             PM----------|   PM--|
| S S S S S S S S S S S S S S S S   S S S S S S S S S S S S S S E
|---------------------------------|--------------------------------|
|---------------------------------|--------------------------------|
|---------------------------------|-----------------5-------9-7-9--|
|---------------------------------|-7------------------------------|
|-5---------------5-------3-0-1-0-|---0-0-0---0-0-0---0-0-0--------|
|---0-0-0---0-0-0---0-0-0---------|--------------------------------|


   Bridge
    N.C.
      PM  PM  PM  PM  PM  PM  PM  PM    PM  PM  PM  PM  PM  PM    PM|
    S S S S S S S S S S S S S S S S   S S S S S S S S S S S S S S S S
||----------------------------------|----------------------------------|
||o---------------------------------|----------------------------------|
||----------------------------------|----------------------------------|
||----------------------2---3-------|-----2---3-------3---5---3-2------|
||o-1-1-3-1-5-1---1-5-1---1---1---1-|-5---------------------------5-3--|
||----------------------------------|---0---0---0---0---0---0----------|
|
|     PM  PM  PM  PM  PM  PM  PM  PM    PM  PM  PM  PM  PM  PM
|   S S S S S S S S S S S S S S S S   S S S S S S S S S S S S S S E
||----------------------------------|----------------------------------|
||o---------------------------------|----------------------------------|
||--------------------------2-------|---------------------3------------|
||------2---3-------3---5-----------|-3---5---7-------7-------7-5-3----|
||o-5-1---1---1---1---1---1---1---1-|----------------------------------|
||----------------------------------|---0---0---0---0---0---0----------|


  N.C.
    PM  PM  PM  PM  PM  PM  PM  PM
  S S S S S S S S S S S S S S S S
|---------------------------------|
|---------------------------------|
|---------------------------------|
|---------------------2---3-------|
|-1-1-3-1-5-1---1-5-1---1---1---1-|
|---------------------------------|
|
|   PM  PM  PM  PM  PM  PM  PM  PM
| S S S S S S S S S S S S S S S S
|---------------------------------|
|---------------------------------|
|-------------------------2-------|
|-----2---3-------3---5-----------|
|-5-1---1---1---1---1---1---1---1-|
|---------------------------------|


 1.                              2.
    PM  PM  PM  PM                 PM  PM  PM  PM
  S S S S S S S S S S S E. E     S S S S S S S S S S S E S S S
|-----------------------------||--------------------------------|
|----------------------------o||--------------------------------|
|-----------------------------||--------------------------------|
|-----2---3-------------3--2--||-----2---3----------------------|
|-5---------------------1--0-o||-5---------------------1-0------|
|---0---0---0---0-0-2-3-------||---0---0---0---0-0-2-3-----6-2--|
|
|   PM  PM  PM  PM                 PM  PM  PM  PM
| S S S S S S S S S S S E. E     S S S S S S S S S S S E S S S
|-----------------------------||--------------------------------|
|----------------------------o||--------------------------------|
|-----------------------------||--------------------------------|
|-3---5---7-------------3--2--||-3---5---7----------------------|
|-----------------------1--0-o||-----------------------1-0------|
|---0---0---0---0-0-2-3-------||---0---0---0---0-0-2-3-----6-2--|


 Pre-Verse
  N.C.
  Gtr I
                      PM----|
  E E     E E E E     S S S S   E E     E E S S S S S S S  S
|-----------------------------|------------------------------|
|-----------------------------|------------------------------|
|-----------------------------|-------------------------4--7-|
|-----------------------------|---------------------3-6------|
|-----------------------------|-----------------2-5----------|
|-6-3b3.5-5-0-6-3b3.5-5-5-0-0-|-6-3b3.5-5-2-3-6--------------|
|
| Gtr II
|                     PM----|
| E E     E E E E     S S S S   E E     E E S S S S S S S  S
|-----------------------------|------------------------------|
|-----------------------------|------------------------------|
|-----------------------------|-------------------------7-10-|
|-----------------------------|---------------------6-9------|
|-----------------------------|-----------------5-8----------|
|-6-3b3.5-5-0-6-3b3.5-5-5-0-0-|-6-3b3.5-5-2-6-9--------------|


  Gtrs I, II
                      PM----|               PM------------|
                                                |-3-| |-3-|
  E E     E E E E     S S S S   E E     E E e e S S S S S S
|-----------------------------|-----------------------------|
|-----------------------------|-----------------------------|
|-----------------------------|-----------------------------|
|-----------------------------|-----------------------------|
|-----------------------------|-----------2-0-0-------------|
|-6-3b3.5-5-0-6-3b3.5-5-5-0-0-|-6-3b3.5-5-2-0-0-3-3-3-3-3-3-|


  G#F5G5D5G#F5G5  D5    G#F5G5E5
  Gtr I
              PM----|
  E E E E E E S S S S   E E E E S S S S S S S  S
|---------------------|--------------------------|
|---------------------|--------------------------|
|---------------------|---------------------4--7-|
|---------------------|-----------------3-6------|
|-6-3-5-0-6-3-5-5-0-0-|-6-3-5-2-----2-5----------|
|-6-3-5-0-6-3-5-5-0-0-|-6-3-5-2-3-6--------------|
|
| Gtr II
|             PM----|
| E E E E E E S S S S   E E E E S S S S S S S  S
|---------------------|--------------------------|
|---------------------|--------------------------|
|---------------------|---------------------7-10-|
|---------------------|-----------------6-9------|
|-6-3-5-0-6-3-5-5-0-0-|-6-3-5-2-----5-8----------|
|-6-3-5-0-6-3-5-5-0-0-|-6-3-5-2-6-9--------------|


  G#F5G5D5G#F5      D5  G#F5G5E5F5
  Gtr I
              PM--|
              |-3-|
  E E E E E E S S S E   E E E E E Q.
|---------------------|----------------|
|---------------------|----------------|
|---------------------|----------------|
|---------------------|----------------|
|-6-3-5-0-6-3-------0-|-6-3-5-2-3------|
|-6-3-5-0-6-3-5-5-5-0-|-6-3-5-2-3------|
|
| Gtr II
|             PM--|
|             |-3-|
| E E E E E E S S S E   E E E E E Q.
|---------------------|----------------|
|---------------------|----------------|
|---------------------|----------------|
|---------------------|----------------|
|-6-3-5-0-6-3-------0-|-6-3-5-2-3------|
|-6-3-5-0-6-3-5-5-5-0-|-6-3-5-2-3------|


 Verse
  N.C.                                                        F5 E5
    PM----------|   PM--|               PM----------|   PM--|
  S S S S S S S S S S S S S S S  S    S S S S S S S S S S S S  E E
|-----------------------------------|------------------------------|
|-----------------------------------|------------------------------|
|-----------------------------------|------------------------------|
|-----------------------------------|-------------------------10-9-|
|-5---------------5-------5-3-5--5--|-5---------------5--------8-7-|
|---0-0-0---0-0-0---0-0-0-----------|---0-0-0---0-0-0---0-0-0------|
|
|   PM----------|   PM--|               PM----------|   PM--|
| S S S S S S S S S S S S S S S +S    S S S S S S S S S S S S  E E
|-----------------------------------|------------------------------|
|-----------------------------------|------------------------------|
|-----------------------------------|------------------------------|
|-------------------------3-2-3-(3)-|--------------------------7-6-|
|-5---------------5-----------------|-5---------------5--------8-7-|
|---0-0-0---0-0-0---0-0-0-----------|---0-0-0---0-0-0---0-0-0------|


  N.C.
    PM----------|   PM--|             PM----------|   PM--|
  S S S S S S S S S S S S S S S S   S S S S S S S S S S S S S S E
|---------------------------------|--------------------------------|
|---------------------------------|--------------------------------|
|---------------------------------|-------------------------5-4-5--|
|---------------------------------|-7---------------7--------------|
|-5---------------5-------3-0-1-0-|---0-0-0---0-0-0---0-0-0--------|
|---0-0-0---0-0-0---0-0-0---------|--------------------------------|
|
|   PM----------|   PM--|             PM----------|   PM--|
| S S S S S S S S S S S S S S S S   S S S S S S S S S S S S S S E
|---------------------------------|--------------------------------|
|---------------------------------|--------------------------------|
|---------------------------------|-----------------5-------9-7-9--|
|---------------------------------|-7------------------------------|
|-5---------------5-------3-0-1-0-|---0-0-0---0-0-0---0-0-0--------|
|---0-0-0---0-0-0---0-0-0---------|--------------------------------|


  N.C.                                                          D5C#C5
    PM----------|   PM--|               PM--------------------|
                                                  |-3-| |--3--|
  S S S S S S S S S S S S S S S  S    S S S S S S S S S S S   S E E E
|-----------------------------------|---------------------------------|
|-----------------------------------|---------------------------------|
|-----------------------------------|---------------------------------|
|-----------------------------------|---------------------------7-6-5-|
|-5---------------5-------5-3-5--5--|-5-----------------5-5---5-5-4-3-|
|---0-0-0---0-0-0---0-0-0-----------|---0-0-0---0-0-0-0---------------|
|
|   PM----------|   PM--|               PM------------------|
|                                                 |-3-|
| S S S S S S S S S S S S S S S +S    S S S S S S S S S S   S   E E E
|-----------------------------------|---------------------------------|
|-----------------------------------|---------------------------------|
|-----------------------------------|---------------------------------|
|-------------------------3-2-3-(3)-|---------------------------3-2-1-|
|-5---------------5-----------------|-5-------------------------5-4-3-|
|---0-0-0---0-0-0---0-0-0-----------|---0-0-0---0-0-0-0-0---0---------|


  N.C.
    PM----------|   PM--|             PM----------|   PM--|
  S S S S S S S S S S S S S S S S   S S S S S S S S S S S S S S E
|---------------------------------|--------------------------------|
|---------------------------------|--------------------------------|
|---------------------------------|-------------------------5-4-5--|
|---------------------------------|-7---------------7--------------|
|-5---------------5-------3-0-1-0-|---0-0-0---0-0-0---0-0-0--------|
|---0-0-0---0-0-0---0-0-0---------|--------------------------------|
|
|   PM----------|   PM--|             PM----------|   PM--|
| S S S S S S S S S S S S S S S S   S S S S S S S S S S S S S S E
|---------------------------------|--------------------------------|
|---------------------------------|--------------------------------|
|---------------------------------|-----------------5-------9-7-9--|
|---------------------------------|-7------------------------------|
|-5---------------5-------3-0-1-0-|---0-0-0---0-0-0---0-0-0--------|
|---0-0-0---0-0-0---0-0-0---------|--------------------------------|


   Pre-Chorus
    N.C.
    Gtrs I, II, IV
    PM--------------------------------------------------------|
    S S S S S S S S S S S S S S E   S S S S S S S S S S S S S S E
||--------------------------------|---------------------------------||
||o-------------------------------|--------------------------------o||
||--------------------------------|---------------------------------||
||--------------------------------|---------------------------------||
||o-------------------------------|--------------------------------o||
||--0-0-0-0---0-0-0-0-0-0---0-0---|-0-0-0-0---0---0---0-0-0-0-0-----||


 Chorus
  D5(type 2)              A5
  Gtr I
   H                       H
   |                       |
   /                       /

  Gtr III
   S  S  S  S  S  S  S  S  S  S  S  S  S  S  S  S
|-------------------12-13-------------------13-15-|
|-15-------15-------------17-------17-------------|
|----------------------------14-14----14-14-------|
|----12-12----12-12-------------------------------|
|-------------------------------------------------|
|-------------------------------------------------|
|
| Gtr II
|  PM----------------------------------------------
|  S  S  S  S  S  S  S  S  S  S  S  S  S  S  E
|-------------------------------------------------|
|-------------------------------------------------|
|-------------------------------------------------|
|-------------------------------------------------|
|-------------------------------------------------|
|--0--0--0--0-----0--0--0--7--7--7-----7--7-------|


  Bb5                     C5
   H                       H
   |                       |
   /                       /

   S  S  S  S  S  S  S  S  S  S  S  S  S  S  S  S
|-------------------15-17-------15-17-------15-17-|
|-18-------18-------------20----------20----------|
|----15-15----15-15----------15----------17-------|
|-------------------------------------------------|
|-------------------------------------------------|
|-------------------------------------------------|
|
|----------|      PM---------------------|
|  S  S  S  S  S  S  S  S  S  S  S  S  S  S  E
|-------------------------------------------------|
|-------------------------------------------------|
|-------------------------------------------------|
|-------------------------------------------------|
|-------------------------------------------------|
|--8--8--8--8-----8-----3-----3--3--3--2--2-------|


  D5(type 3)              A5
   H                       H
   |                       |
   /                       /

  Gtr III
   S  S  S  S  S  S  S  S  S  S  S  S  S  S  S  S
|-------------------12-13-------------------13-15-|
|-15-------15-------------17-------17-------------|
|----------------------------14-14----14-14-------|
|----12-12----12-12-------------------------------|
|-------------------------------------------------|
|-------------------------------------------------|
|
| Gtr II
|  PM----------------------------------------------
|  S  S  S  S  S  S  S  S  S  S  S  S  S  S  E
|-------------------------------------------------|
|-------------------------------------------------|
|-------------------------------------------------|
|-------------------------------------------------|
|-------------------------------------------------|
|--0--0--0--0-----0--0--0--7--7--7-----7--7-------|


  Bb5                     F5          C5
   H                       Q           Q
   |                       |           |
   /                       /           /

   S  S  S  S  S  S  S  S  S  S  S  S  S  S  S  S
|-------------------15-17-------15-17-------15-17-|
|-18-------18-------------20----------20----------|
|----15-15----15-15----------15----------17-------|
|-------------------------------------------------|
|-------------------------------------------------|
|-------------------------------------------------|
|
|----------|      PM---------------------|
|  S  S  S  S  S  S  S  S  S  S  S  S  S  S  E
|-------------------------------------------------|
|-------------------------------------------------|
|-------------------------------------------------|
|-------------------------------------------------|
|-------------------------------------------------|
|--8--8--8--8-----8-----3-----3--3--3--2--2-------|


  D5(type 2)              A5
  Gtr I
   H                       H
   |                       |
   /                       /

  Gtr III
   S  S  S  S  S  S  S  S  S  S  S  S  S  S  S  S
|-------------------12-13-------------------13-15-|
|-15-------15-------------17-------17-------------|
|----------------------------14-14----14-14-------|
|----12-12----12-12-------------------------------|
|-------------------------------------------------|
|-------------------------------------------------|
|
| Gtr V
|     PM|      PM|            PM|      PM|
|  S  S  S  S  S  S  S  S  S  S  S  S  S  S  S  S
|-10-------10-------12-13-12-------12-------13-15-|
|----------------------------10-10----10-10-------|
|-----7--7-----7--7-------------------------------|
|-------------------------------------------------|
|-------------------------------------------------|
|-------------------------------------------------|
|
| Gtr II
|  PM----------------------------------------------
|  S  S  S  S  S  S  S  S  S  S  S  S  S  S  E
|-------------------------------------------------|
|-------------------------------------------------|
|-------------------------------------------------|
|-------------------------------------------------|
|-------------------------------------------------|
|--0--0--0--0-----0--0--0--7--7--7-----7--7-------|


  Bb5                     C5
   H                       H
   |                       |
   /                       /

   S  S  S  S  S  S  S  S  S  S  S  S  S  S  S  S
|-------------------15-17-------15-17-------15-17-|
|-18-------18-------------20----------20----------|
|----15-15----15-15----------15----------17-------|
|-------------------------------------------------|
|-------------------------------------------------|
|-------------------------------------------------|
|
|     PM|      PM|
|  S  S  S  S  S  S  S  S  S  S  S  S  S  S  S  S
|-13-------13-------15-17-15-13-15-17-15----15-17-|
|----11-11----11-11----------------------13-------|
|-------------------------------------------------|
|-------------------------------------------------|
|-------------------------------------------------|
|-------------------------------------------------|
|
|----------|      PM---------------------|
|  S  S  S  S  S  S  S  S  S  S  S  S  S  S  E
|-------------------------------------------------|
|-------------------------------------------------|
|-------------------------------------------------|
|-------------------------------------------------|
|-------------------------------------------------|
|--8--8--8--8-----8-----3-----3--3--3--2--2-------|


  D5(type 3)              A5
   H                       H
   |                       |
   /                       /

  Gtr III
   S  S  S  S  S  S  S  S  S  S  S  S  S  S  S  S
|-------------------12-13-------------------13-15-|
|-15-------15-------------17-------17-------------|
|----------------------------14-14----14-14-------|
|----12-12----12-12-------------------------------|
|-------------------------------------------------|
|-------------------------------------------------|
|
|     PM|      PM|            PM|      PM|
|  S  S  S  S  S  S  S  S  S  S  S  S  S  S  S  S
|-10-------10-------12-13-12-------12-------13-15-|
|----------------------------10-10----10-10-------|
|-----7--7-----7--7-------------------------------|
|-------------------------------------------------|
|-------------------------------------------------|
|-------------------------------------------------|
|
| Gtr II
|  PM----------------------------------------------
|  S  S  S  S  S  S  S  S  S  S  S  S  S  S  E
|-------------------------------------------------|
|-------------------------------------------------|
|-------------------------------------------------|
|-------------------------------------------------|
|-------------------------------------------------|
|--0--0--0--0-----0--0--0--7--7--7-----7--7-------|


  Bb5(type 2)          F5(type 2)     C5(type 2)
   S  S  S  S  S  S  S  S  S  S  S  S  S  S  E
   |  |  |  |     |     |     |  |  |  |  |
   /  /  /  /     /     /     /  /  /  /  /

   S  S  S  S  S  S  S  S  S  S  S  S  S  S  S  S
|-------------------15-17-------15-17-------15-17-|
|-18-------18-------------20----------20----------|
|----15-15----15-15----------15----------17-------|
|-------------------------------------------------|
|-------------------------------------------------|
|-------------------------------------------------|
|
|     PM|      PM|
|  S  S  S  S  S  S  S  S  S  S  S  S  S  S  S  S
|-13-------13-------15-17-15-13-15-17-15----15-17-|
|----11-11----11-11----------------------13-------|
|-------------------------------------------------|
|-------------------------------------------------|
|-------------------------------------------------|
|-------------------------------------------------|
|
|----------|      PM---------------------|
|  S  S  S  S  S  S  S  S  S  S  S  S  S  S  E
|-------------------------------------------------|
|-------------------------------------------------|
|-------------------------------------------------|
|-------------------------------------------------|
|-------------------------------------------------|
|--8--8--8--8-----8-----3-----3--3--3--2--2-------|


 1st Guitar Solo
    E5                      F5 F#5      F5 F#5
  Gtr V
                 PM|      PM------------------|
     E     E     S  S  S  S  S  S  S  S  S  S  S  S
|---11----11-------------------------------------16-|
|---14b16-14b16-------------------------11-14-15----|
|------------------------------11-13-14-------------|
|---------------------11-12-13----------------------|
|---------------11-13-------------------------------|
|---------------------------------------------------|
|
| Gtrs I, II
|                PM------|         PM|         PM|
| a  E     E     e     S  S  S  S  S  S  S  S  S  S
|---------------------------------------------------|
|---------------------------------------------------|
|---------------------------------------------------|
|---------------------------------------------------|
|-1s=2-----1-----------------3s=4--------3s=4-------|
|-1s=2-----1-----1-----1--1--3s=4--1--1--3s=4--1--1-|


  Bb5   C#5                F5 F#5          F5 F#5
   E     E     E  E         S  E         S  Q
|-11----11---------------------------------16\------|
|-14b16-14b16----11b11.5------11b11.5------16\------|
|----------------11b11.5------11b11.5---------------|
|-------------13-----------13-----------13----------|
|---------------------------------------------------|
|---------------------------------------------------|
|
|              PM--------|            PM|       PM|
|  E     E     e  S      S  S  S      S  S  S S S S
|---------------------------------------------------|
|---------------------------------------------------|
|---------------------------------------------------|
|--3-----6------------------------------------------|
|--1-----4------------------3s=4------------3s4-----|
|--------------1--1------1--3s=4------1--1--3s4-1-1-|


    E5      Eb5                         F5      F#5          F5      F#5
             |--3--|          |---3---|            |---3---|            |---3---|
     E       S  S  S  E       S  S    S  E         S  S    S  E         S  S    S
|---14b14.5----------16b16.5------------14b14.5--------------16b16.5--------------|
|-----------16p14------------16p14----------------16p14----------------16p14------|
|-----------------15-----------------15-------------------15-------------------15-|
|---------------------------------------------------------------------------------|
|---------------------------------------------------------------------------------|
|---------------------------------------------------------------------------------|
|
|                     PM-----------|               PM---|               PM---|
| a  E       E        e       S    S     S      S  S    S     S      S  S    S
|---------------------------------------------------------------------------------|
|---------------------------------------------------------------------------------|
|---------------------------------------------------------------------------------|
|---------------------------------------------------------------------------------|
|-1s=2-------1---------------------------3s=====4-------------3s=====4------------|
|-1s=2-------1--------1-------1----1-----3s=====4--1----1-----3s=====4--1----1----|


  B5             C#5            Eb5             F#5             Eb5      C#5
   |--3--|  |---3----|  |--3--|  |--3---|  |----3----|  |--3--|  |--3--|  |--3--|
   S  S  S  S  S     S  S  S  S  S   S  S  S  S      S  S  S  S  S  S  S  S  S  S
|-18p16-------21p===16-------18p16--------21p16-----------18p16-------21p16--------|
|-------19p16----------19p16--------19p16-----------19p16-------19p16-------19p16--|
|----------------------------------------------------------------------------------|
|----------------------------------------------------------------------------------|
|----------------------------------------------------------------------------------|
|----------------------------------------------------------------------------------|
|
|  E.            E.              E.              E.              E        E
|----------------------------------------------------------------------------------|
|----------------------------------------------------------------------------------|
|----------------------------------------------------------------------------------|
|--4-------------6---------------8--------------11---------------8--------6--------|
|--2-------------4---------------6---------------9---------------6--------4--------|
|----------------------------------------------------------------------------------|


 2nd Guitar Solo
    Eb5   D5                      E5    F5         E5     F5
            ~~~~~~~~
                      |----3----|
     E     +Q         S  +S     S  S     +S   S  S  S      +S  S  S
|---------------------------------16b17r(16)-13----21pb22r(21)---21pb22r|
|---13b15r(13)b15====13r(13)---10---------------15----------------------|
|-----------------------------------------------------------------------|
|-----------------------------------------------------------------------|
|-----------------------------------------------------------------------|
|-----------------------------------------------------------------------|
|
|                  PM--------|                PM|              PM|
| a  E      E      e  S      S     S      S   S  S  S       S  S  S
|-----------------------------------------------------------------------|
|-----------------------------------------------------------------------|
|-----------------------------------------------------------------------|
|-----------------------------------------------------------------------|
|-0h=1------0----------------------2s=====3---------2s======3-----------|
|-0h=1------0------0--0------0-----2s=====3---0--0--2s======3--0--0-----|


  A5     C5
                                                  ~~~
   +S  S  S      +E     S      +S       +S   +E   E.      +S   +S  S
|-(21)---21pb22r(21)---21pb22r(21)b22==(21)-(21)-24------(24)r(24)-----|
|----------------------------------------------------------------------|
|------------------------------------------------------------------x\--|
|------------------------------------------------------------------x\--|
|----------------------------------------------------------------------|
|----------------------------------------------------------------------|
|
|                    PM--------------------------------------------|
|   E     E          e          S        S    e   S  S S   S    S  S
|----------------------------------------------------------------------|
|----------------------------------------------------------------------|
|----------------------------------------------------------------------|
|---2-----5------------------------------------------------------------|
|---0-----3------------------------------------------------------------|
|--------------------0----------0--------0----0---0--0-2---3----2--0---|


    Eb5      D5                           E5    F5              E5    F5
     |--3--|  |--3--|  |--3--|  |---3---|  |---3---|  |---3---|  |---3---|  |---3---|
     S  S  S  S  S  S  S  S  S  S  S    S  S  S    S  S  S    S  S  S    S  S  S    S
|---13-10-12-13-12-10-----------------------------------------------------------------|
|---------------------13-10-12-13-12---10-13-12---10----10--------------10------------|
|----------------------------------------------------13------13-12-10------13-12---10-|
|-------------------------------------------------------------------------------------|
|-------------------------------------------------------------------------------------|
|-------------------------------------------------------------------------------------|
|
|                      PM------------|                PM---|                PM---|
| a  E        E        e        S    S     S    S     S    S     S    S     S    S
|-------------------------------------------------------------------------------------|
|-------------------------------------------------------------------------------------|
|-------------------------------------------------------------------------------------|
|-------------------------------------------------------------------------------------|
|-0h=1--------0----------------------------2s===3----------------2s===3---------------|
|-0h=1--------0--------0--------0----0-----2s===3-----0----0-----2s===3-----0----0----|


  Bb5         C5             D5            F5            D5      C5
           \3             \3            \3            \3     \3_________|
                                                          |------3------|
   S  T  T S    S   T  T  S   S   T  T  S   S   T  T  S   E  S    S  S  S
|-10--8-10-8--/13--12-13-12--15--13-15-13--17--15-17-15--20-17---20-17-20---|
|---------------------------------------------------------------------------|
|---------------------------------------------------------------------------|
|---------------------------------------------------------------------------|
|---------------------------------------------------------------------------|
|---------------------------------------------------------------------------|
|
|  E.           E.            E.            E.            E       E
|---------------------------------------------------------------------------|
|---------------------------------------------------------------------------|
|---------------------------------------------------------------------------|
|--3------------5-------------7------------10-------------7-------5---------|
|--1------------3-------------5-------------8-------------5-------3---------|
|---------------------------------------------------------------------------|


 Keyboard solo
  Bb5                            D5
            ~~~~
   Q       +Q.    +S   +S  Q     W
|-20b22===(20)---(20)r(20)-----|----------------------------|
|--------------------------x\--|----------------------------|
|--------------------------x\--|----------------------------|
|------------------------------|----------------------------|
|------------------------------|----------------------------|
|------------------------------|----------------------------|
|
| Gtr I
|                                         PM  PM  PM
|  W                             Q.   +S  S S S S S S S S S
|------------------------------|----------------------------|
|------------------------------|----------------------------|
|------------------------------|----------------------------|
|--3---------------------------|-7----(7)-------2---3-2-----|
|--1---------------------------|-5----(5)---5-----------5-3-|
|------------------------------|----------0---0---0---------|
|
| Gtr II
|                                         PM  PM  PM
|  W                             Q.   +S  S S S S S S S S S
|------------------------------|----------------------------|
|------------------------------|----------------------------|
|------------------------------|----------------------------|
|--3---------------------------|-0----(0)---3---5---7-5-3---|
|--1---------------------------|-0----(0)-----------------7-|
|------------------------------|-0----(0)-0---0---0---------|


  Bb5        D5   D5 Bb5A5
  Gtrs I, II
  W          H    E. E. E
|----------|--------------|
|----------|--------------|
|----------|--------------|
|-3--------|-7-------3--2-|
|-1--------|-5----0--1--0-|
|----------|------0-------|


  Bb5        D5
  Gtr I
                      PM  PM  PM
  W          Q.   +S  S S S S S S S S S
|----------|----------------------------|
|----------|----------------------------|
|----------|----------------------------|
|-3--------|-7----(7)-------2---3-2-----|
|-1--------|-5----(5)---5-----------5-3-|
|----------|----------0---0---0---------|
|
| Gtr II
|                     PM  PM  PM
| W          Q.   +S  S S S S S S S S S
|----------|----------------------------|
|----------|----------------------------|
|----------|----------------------------|
|-3--------|-0----(0)---3---5---7-5-3---|
|-1--------|-0----(0)-----------------7-|
|----------|-0----(0)-0---0---0---------|


  Bb5        D5   D5 Bb5A5
  Gtrs I, II
  W          H    E. E. E
|----------|--------------|
|----------|--------------|
|----------|--------------|
|-3--------|-7-------3--2-|
|-1--------|-5----0--1--0-|
|----------|------0-------|


   Bridge
    N.C.
    Gtr I
      PM  PM  PM  PM  PM  PM  PM  PM    PM  PM  PM  PM  PM  PM    PM|
    S S S S S S S S S S S S S S S S   S S S S S S S S S S S S S S S S
||----------------------------------|----------------------------------|
||o---------------------------------|----------------------------------|
||----------------------------------|----------------------------------|
||----------------------2---3-------|-----2---3-------3---5---3-2------|
||o-1-1-3-1-5-1---1-5-1---1---1---1-|-5---------------------------5-3--|
||----------------------------------|---0---0---0---0---0---0----------|
|
|   Gtr II
|     PM  PM  PM  PM  PM  PM  PM  PM    PM  PM  PM  PM  PM  PM
|   S S S S S S S S S S S S S S S S   S S S S S S S S S S S S S S E
||----------------------------------|----------------------------------|
||o---------------------------------|----------------------------------|
||--------------------------2-------|---------------------3------------|
||------2---3-------3---5-----------|-3---5---7-------7-------7-5-3----|
||o-5-1---1---1---1---1---1---1---1-|----------------------------------|
||----------------------------------|---0---0---0---0---0---0----------|


  N.C.
    PM  PM  PM  PM  PM  PM  PM  PM
  S S S S S S S S S S S S S S S S
|---------------------------------|
|---------------------------------|
|---------------------------------|
|---------------------2---3-------|
|-1-1-3-1-5-1---1-5-1---1---1---1-|
|---------------------------------|
|
|   PM  PM  PM  PM  PM  PM  PM  PM
| S S S S S S S S S S S S S S S S
|---------------------------------|
|---------------------------------|
|-------------------------2-------|
|-----2---3-------3---5-----------|
|-5-1---1---1---1---1---1---1---1-|
|---------------------------------|


 1.                              2.
    PM  PM  PM  PM                 PM  PM  PM  PM
  S S S S S S S S S S S E. E     S S S S S S S S S S S E S S S
|-----------------------------||--------------------------------|
|----------------------------o||--------------------------------|
|-----------------------------||--------------------------------|
|-----2---3-------------3--2--||-----2---3----------------------|
|-5---------------------1--0-o||-5------------------------------|
|---0---0---0---0-0-2-3-------||---0---0---0---0-0-2-3-8-7-6-2--|
|
|   PM  PM  PM  PM                 PM  PM  PM  PM
| S S S S S S S S S S S E. E     S S S S S S S S S S S E S S S
|-----------------------------||--------------------------------|
|----------------------------o||--------------------------------|
|-----------------------------||--------------------------------|
|-3---5---7-------------3--2--||-3---5---7----------------------|
|-----------------------1--0-o||-----------------------1-0------|
|---0---0---0---0-0-2-3-------||---0---0---0---0-0-2-3-----6-2--|


 Pre-Verse
  N.C.
  Gtr I
                      PM--------|
                      |-3-| |-3-|               |-3-| |-3-| |-3-| |-3-|
  E E     E E E E     S S S S S S   E E     E E S S S S S S S S S S S S
|---------------------------------|-----------------------------4-7-4---|
|---------------------------------|---------------------------6-------6-|
|---------------------------------|-----------------------4-7-----------|
|---------------------------------|-------------------3-6---------------|
|---------------------------------|---------------2-5-------------------|
|-6-3b3.5-5-0-6-3b3.5-5-5-5-0-0-0-|-6-3b3.5-5-2-5-----------------------|
|
| Gtr II
|                     PM--------|
|                     |-3-| |-3-|
| E E     E E E E     S S S S S S   E E     E E             H
|---------------------------------|-------------------------------------|
|---------------------------------|-------------------------------------|
|---------------------------------|-------------------------------------|
|---------------------------------|-------------------------------------|
|---------------------------------|-------------------------------------|
|-6-3b3.5-5-0-6-3b3.5-5-5-5-0-0-0-|-6-3b3.5-5-2-------------------------|


  N.C.
  Gtrs I, II
                      PM--|                 PM------------|
                      |-3-|                     |-3-| |-3-|
  E E     E E E E     S S S E   E E     E E e e S S S S S S
|-----------------------------|-----------------------------|
|-----------------------------|-----------------------------|
|-----------------------------|-----------------------------|
|-----------------------------|-----------------------------|
|---------------------3-3-3---|-----------2-0-0-------------|
|-6-3b3.5-5-0-6-3b3.5-------0-|-6-3b3.5-5-2-0-0-3-3-3-3-3-3-|


  G#F5G5D5G#F5G5  D5    G#F5G5E5
  Gtr I
              PM----|
  E E E E E E S S S S   E E E E S S S S S S S  S
|---------------------|--------------------------|
|---------------------|--------------------------|
|---------------------|---------------------4--7-|
|---------------------|-----------------3-6------|
|-6-3-5-0-6-3-5-5-0-0-|-6-3-5-2-----2-5----------|
|-6-3-5-0-6-3-5-5-0-0-|-6-3-5-2-3-6--------------|
|
| Gtr II
|             PM----|
| E E E E E E S S S S   E E E E S S S S S S S  S
|---------------------|--------------------------|
|---------------------|--------------------------|
|---------------------|---------------------7-10-|
|---------------------|-----------------6-9------|
|-6-3-5-0-6-3-5-5-0-0-|-6-3-5-2-----5-8----------|
|-6-3-5-0-6-3-5-5-0-0-|-6-3-5-2-6-9--------------|


  G#F5G5D5G#F5      D5  G#F5G5D5
  Gtr I
              PM--|
              |-3-|
  E E E E E E S S S E   E E E E +Q   Q
|---------------------|------------------|
|---------------------|------------------|
|---------------------|------------------|
|---------------------|-------0-(0)--x\--|
|-6-3-5-0-6-3-------0-|-6-3-5-0-(0)--x\--|
|-6-3-5-0-6-3-5-5-5-0-|-6-3-5-0-(0)--x\--|
|
| Gtr II
|             PM--|
|             |-3-|
| E E E E E E S S S E   E E E E +Q   Q
|---------------------|------------------|
|---------------------|------------------|
|---------------------|------------------|
|---------------------|-------0-(0)--x\--|
|-6-3-5-0-6-3-------0-|-6-3-5-0-(0)--x\--|
|-6-3-5-0-6-3-5-5-5-0-|-6-3-5-0-(0)--x\--|


    N.C.
    Gtrs I, II, IV
    PM--------------------------------------------------------|
    S S S S S S S S S S S S S S E   S S S S S S S S S S S S S S E
||--------------------------------|---------------------------------||
||o-------------------------------|--------------------------------o||
||--------------------------------|---------------------------------||
||--------------------------------|---------------------------------||
||o-------------------------------|--------------------------------o||
||--0-0-0-0---0-0-0-0-0-0---0-0---|-0-0-0-0---0---0---0-0-0-0-0-----||


   Out-Chorus
    N.C.
    Gtr III
     S  S  S  S  S  S  S  S  S  S  S  S  S  S  S  S
||--------------------12-13-------------------12-13-|
||o-15-------15-------------15-------15-------------|
||--------------------------------------------------|
||-----12-12----12-12----------12-12----12-12-------|
||o-------------------------------------------------|
||--------------------------------------------------|
|
|   Gtrs I, II, IV
|    PM----------------------------------------------
|    S  S  S  S  S  S  S  S  S  S  S  S  S  S  E
||--------------------------------------------------|
||o-------------------------------------------------|
||--------------------------------------------------|
||--------------------------------------------------|
||o-------------------------------------------------|
||---0--0--0--0-----0--0--0--0--0--0-----0--0-------|


   S  S  S  S  S  S  S  S  S  S  S  S  S  S  S  S
|-------------------12-13-------12-13-------12-13---||
|-15-------15-------------15----------14-----------o||
|---------------------------------------------------||
|----12-12----12-12----------12----------11---------||
|--------------------------------------------------o||
|---------------------------------------------------||
|
|----------------------------------------|
|  S  S  S  S  S  S  S  S  S  S  S  S  S  S  E
|---------------------------------------------------||
|--------------------------------------------------o||
|---------------------------------------------------||
|---------------------------------------------------||
|--------------------------------------------------o||
|--0--0--0--0-----0-----0-----0--0--0--0--0---------||


  D5(type 2)              A5
  Gtr I
   H                       H
   |                       |
   /                       /

  Gtr III
   S  S  S  S  S  S  S  S  S  S  S  S  S  S  S  S
|-------------------12-13-------------------13-15-|
|-15-------15-------------17-------17-------------|
|----------------------------14-14----14-14-------|
|----12-12----12-12-------------------------------|
|-------------------------------------------------|
|-------------------------------------------------|
|
| Gtr II
|  PM----------------------------------------------
|  S  S  S  S  S  S  S  S  S  S  S  S  S  S  E
|-------------------------------------------------|
|-------------------------------------------------|
|-------------------------------------------------|
|-------------------------------------------------|
|-------------------------------------------------|
|--0--0--0--0-----0--0--0--7--7--7-----7--7-------|


  Bb5                     C5
   H                       H
   |                       |
   /                       /

   S  S  S  S  S  S  S  S  S  S  S  S  S  S  S  S
|-------------------15-17-------15-17-------15-17-|
|-18-------18-------------20----------20----------|
|----15-15----15-15----------15----------17-------|
|-------------------------------------------------|
|-------------------------------------------------|
|-------------------------------------------------|
|
|----------|      PM---------------------|
|  S  S  S  S  S  S  S  S  S  S  S  S  S  S  E
|-------------------------------------------------|
|-------------------------------------------------|
|-------------------------------------------------|
|-------------------------------------------------|
|-------------------------------------------------|
|--8--8--8--8-----8-----3-----3--3--3--2--2-------|


  D5(type 3)              A5
   H                       H
   |                       |
   /                       /

  Gtr III
   S  S  S  S  S  S  S  S  S  S  S  S  S  S  S  S
|-------------------12-13-------------------13-15-|
|-15-------15-------------17-------17-------------|
|----------------------------14-14----14-14-------|
|----12-12----12-12-------------------------------|
|-------------------------------------------------|
|-------------------------------------------------|
|
| Gtr II
|  PM----------------------------------------------
|  S  S  S  S  S  S  S  S  S  S  S  S  S  S  E
|-------------------------------------------------|
|-------------------------------------------------|
|-------------------------------------------------|
|-------------------------------------------------|
|-------------------------------------------------|
|--0--0--0--0-----0--0--0--7--7--7-----7--7-------|


  Bb5                     F5          C5
   H                       Q           Q
   |                       |           |
   /                       /           /

   S  S  S  S  S  S  S  S  S  S  S  S  S  S  S  S
|-------------------15-17-------15-17-------15-17-|
|-18-------18-------------20----------20----------|
|----15-15----15-15----------15----------17-------|
|-------------------------------------------------|
|-------------------------------------------------|
|-------------------------------------------------|
|
|----------|      PM---------------------|
|  S  S  S  S  S  S  S  S  S  S  S  S  S  S  E
|-------------------------------------------------|
|-------------------------------------------------|
|-------------------------------------------------|
|-------------------------------------------------|
|-------------------------------------------------|
|--8--8--8--8-----8-----3-----3--3--3--2--2-------|


  D5(type 2)              A5
  Gtr I
   H                       H
   |                       |
   /                       /

  Gtr III
   S  S  S  S  S  S  S  S  S  S  S  S  S  S  S  S
|-------------------12-13-------------------13-15-|
|-15-------15-------------17-------17-------------|
|----------------------------14-14----14-14-------|
|----12-12----12-12-------------------------------|
|-------------------------------------------------|
|-------------------------------------------------|
|
| Gtr V
|     PM|      PM|            PM|      PM|
|  S  S  S  S  S  S  S  S  S  S  S  S  S  S  S  S
|-10-------10-------12-13-12-------12-------13-15-|
|----------------------------10-10----10-10-------|
|-----7--7-----7--7-------------------------------|
|-------------------------------------------------|
|-------------------------------------------------|
|-------------------------------------------------|
|
| Gtr II
|  PM----------------------------------------------
|  S  S  S  S  S  S  S  S  S  S  S  S  S  S  E
|-------------------------------------------------|
|-------------------------------------------------|
|-------------------------------------------------|
|-------------------------------------------------|
|-------------------------------------------------|
|--0--0--0--0-----0--0--0--7--7--7-----7--7-------|


  Bb5                     C5
   H                       H
   |                       |
   /                       /

   S  S  S  S  S  S  S  S  S  S  S  S  S  S  S  S
|-------------------15-17-------15-17-------15-17-|
|-18-------18-------------20----------20----------|
|----15-15----15-15----------15----------17-------|
|-------------------------------------------------|
|-------------------------------------------------|
|-------------------------------------------------|
|
|     PM|      PM|
|  S  S  S  S  S  S  S  S  S  S  S  S  S  S  S  S
|-13-------13-------15-17-15-13-15-17-15----15-17-|
|----11-11----11-11----------------------13-------|
|-------------------------------------------------|
|-------------------------------------------------|
|-------------------------------------------------|
|-------------------------------------------------|
|
|----------|      PM---------------------|
|  S  S  S  S  S  S  S  S  S  S  S  S  S  S  E
|-------------------------------------------------|
|-------------------------------------------------|
|-------------------------------------------------|
|-------------------------------------------------|
|-------------------------------------------------|
|--8--8--8--8-----8-----3-----3--3--3--2--2-------|


  D5(type 3)              A5
   H                       H
   |                       |
   /                       /

  Gtr III
   S  S  S  S  S  S  S  S  S  S  S  S  S  S  S  S
|-------------------12-13-------------------13-15-|
|-15-------15-------------17-------17-------------|
|----------------------------14-14----14-14-------|
|----12-12----12-12-------------------------------|
|-------------------------------------------------|
|-------------------------------------------------|
|
|     PM|      PM|            PM|      PM|
|  S  S  S  S  S  S  S  S  S  S  S  S  S  S  S  S
|-10-------10-------12-13-12-------12-------13-15-|
|----------------------------10-10----10-10-------|
|-----7--7-----7--7-------------------------------|
|-------------------------------------------------|
|-------------------------------------------------|
|-------------------------------------------------|
|
| Gtr II
|  PM----------------------------------------------
|  S  S  S  S  S  S  S  S  S  S  S  S  S  S  E
|-------------------------------------------------|
|-------------------------------------------------|
|-------------------------------------------------|
|-------------------------------------------------|
|-------------------------------------------------|
|--0--0--0--0-----0--0--0--7--7--7-----7--7-------|


  Bb5(type 2)          F5(type 2)     C5(type 2)
   S  S  S  S  S  S  S  S  S  S  S  S  S  S  E      W
   |  |  |  |     |     |     |  |  |  |  |
   /  /  /  /     /     /     /  /  /  /  /

   S  S  S  S  S  S  S  S  S  S  S  S  S  S  S  S   W
|-------------------15-17-------15-17-------15-17-|--------------------------------*|
|-18-------18-------------20----------20----------|--------------------------------*|
|----15-15----15-15----------15----------17-------|--------------------------------*|
|-------------------------------------------------|--------------------------------*|
|-------------------------------------------------|--------------------------------*|
|-------------------------------------------------|--------------------------------*|
|
|     PM|      PM|
|  S  S  S  S  S  S  S  S  S  S  S  S  S  S  S  S   W
|-13-------13-------15-17-15-13-15-17-15----15-17-|--------------------------------*|
|----11-11----11-11----------------------13-------|--------------------------------*|
|-------------------------------------------------|--------------------------------*|
|-------------------------------------------------|--------------------------------*|
|-------------------------------------------------|--------------------------------*|
|-------------------------------------------------|--------------------------------*|
|
|                                                   Gtrs I, II
|----------|      PM---------------------|          PM----|   PM--------------|
|  S  S  S  S  S  S  S  S  S  S  S  S  S  S  E      S S S S S S S S S S S S S S E
|-------------------------------------------------|--------------------------------*|
|-------------------------------------------------|--------------------------------*|
|-------------------------------------------------|--------------------------------*|
|-------------------------------------------------|--------------------------------*|
|-------------------------------------------------|--------------------------------*|
|--8--8--8--8-----8-----3-----3--3--3--2--2-------|-0-0-0-0---0---0---0-0-0-0-0----*|


Duration Legend
---------------
W - whole; H - half; Q - quarter; E - 8th; S - 16th; T - 32nd; X - 64th; a - acciaccatura
+ - note tied to previous; . - note dotted; .. - note double dotted
Uncapitalized letters represent notes that are staccato (1/2 duration)
Irregular groupings are notated above the duration line
Duration letters will always appear directly above the note/fret number it represents the
duration for.  Duration letters with no fret number below them represent rests.  Multi-
bar rests are notated in the form Wxn, where n is the number of bars to rest for.  Low
melody durations appear below the staff

Tablature Legend
----------------
 h   - hammer-on
 p   - pull-off
 b   - bend
 pb  - pre-bend
 r   - bend release (if no number after the r, then release immediately)
 /\  - slide into or out of (from/to "nowhere")
 s   - legato slide
 S   - shift slide
  - natural harmonic
[n]  - artificial harmonic
n(n) - tapped harmonic
 ~   - vibrato
 tr  - trill
 T   - tap
 TP  - trem. picking
 PM  - palm muting
\n/  - tremolo bar dip; n = amount to dip
 \n  - tremolo bar down
 n/  - tremolo bar up
/n\  - tremolo bar inverted dip
 =   - hold bend; also acts as connecting device for hammers/pulls
 <>  - volume swell (louder/softer)
 x   - on rhythm slash represents muted slash
 o   - on rhythm slash represents single note slash

Misc Legend
-----------
 |  - bar
||  - double bar
||o - repeat start
o|| - repeat end
*|  - double bar (ending)
 :  - bar (freetime)
 $  - Segno
 &  - Coda
Tempo markers -  = BPM(8/16=s8/s16), where s8 = swing 8ths, s16 = swing 16ths
comments
print report bad tab
17 comments total. Showing first comments. show 1 bad comment
+3 reply
THE NEKRYPH wrote on June 13 2006, 06:32 am

I knew the other tabs were off when I listened to the song, and I started to tab it myself, but thankfully, you saved me that trouble. Very thorough tab you've done here. Thanks so much...for tabbing what I think is one of the only decent songs on Are You Dead Yet?

+10 reply
pHaKe wrote on August 10 2007, 08:07 pm

Your stupidity is only surpassed by your ignorance, ixilthixilix. Alexi is the lead guitarist and Janne is the keyboardist, I'll give you that much credit. However, Roope is not bass. Roope is rhythm, his last name is Latvala. Henkka is bass. The last two, (The second Janne and "lead") are the two solos. Please, get YOUR facts straight and then criticize me.

I want to post or [tab]
guest
You may want to rate the tab now too:
select rating
Please do not post tabs as comments. Select "correction" instead!