Oops, an error
Loading. Please wait.

Kissing The Shadows Bass Tab

ver1
ver1

Whole song

More versions @911Tabs.com
1,558 views 1 this week
no commentswrite comment
1 2 3 4 5
excellent!
x 2
Autoscroll
+/-
esc
set tempo
stop
Contributor
Hey! There's an official Ultimate Guitar app which is ideal
for learning songs when you're away from computer. Get the app
WARNING: You are trying to view
                                    content from Ultimate-Guitar.com
                                    in an unauthorized application,
                                    which is prohibited.

                                    Please use an official Ultimate
                                    Guitar Tabs application for iPhone,
                                    iPad or Android to access legitimate
                                    chords, guitar, bass, and drum tabs
                                    from Ultimate-Guitar.com database.

                                    Type "ultimate guitar tabs" in Apple
                                    App Store's or Android Market's
                                    search to find the application.
    PM----------------|            PM--------|     ~~~
    S  S S S S S S S S S S S  Q    S  S S S S S S S Q   Q

||-------------------------------|--------------------------|
||o-5--7-------------------------|-5--7---------------------|
||o------0-0-0-0-0-0-0-0-0-0--8--|------0-0-0-0-0-0-5--3----|
||-------------------------------|--------------------------|


                                1.
       PM----------------|           PM--------|
  S  S S S S S S S S S S S Q    S  S S S S S S S  Q   Q
|-----------------------------|-----------------------------||
|-5--7---------------------5--|-5--7--------------2---3----o||
|------0-0-0-0-0-0-0-0-0-0----|------0-0-0-0-0-0-----------o||
|-----------------------------|-----------------------------||


  2.               PM-------------------------------
| Q  Q   Q   Q      S S S S S S S S S S S S S S S S
|---------------||----------------------------------|
|---------------||o---------------------------------|
|-3--5---8--10--||o-2-2-2-2-2-2-2-2-----------------|
|---------------||------------------2-2-2-2-2-2-2-2-|

|-------------------------------|
| S S S S S S S S S S S S S S S S
|-----------------------------------|
|-----------------------------------|
|-2-2-2-2-2-2-2-2-------------------|
|-----------------2-2-2-2-2-2-2-2---|


| PM--------------------------------------------------------------|
| S S S S S S S S S S S S S S S S   S S S S S S S S S S S S S S S S
|---------------------------------|------------------------------------||
|---------------------------------|-----------------------------------o||
|-5-5-5-5-5-5-5-5-----------------|-2-2-2-2-2-2-2-2-------------------o||
|-----------------5-5-5-5-5-5-5-5-|-----------------2-2-2-2-2-2-2-2----||


   E  S  S  S  S  q  q  E                           +W
|-------------------------------------------------|--------------------------|
|-------------------------------------------------|-(5)----------------------|
|--2--2--2--2--2----------------------------------|-(5)----------------------|
|-----------------2-----3-------------------------|-(3)----------------------|


|    W
||----------------------------------------------|
||o--3------------------------------------------|
||o--3------------------------------------------|
||---1------------------------------------------|


| W
|------------------------------------------|
|-5----------------------------------------|
|-5----------------------------------------|
|-3----------------------------------------|

  PM----------------------------------------------|
  S S E E S E S S S S S S S   S S E E S S S E S E E
|---------------------------|------------------------||
|---------------------------|-----------------------o||
|-0-0-0-0-0-0-0-0-0-0-0-0-0-|-0-0-0-0-0-0-0-0-0-0-0-o||
|---------------------------|------------------------||



|    S  S S S S S  S  S  S S  S  S  S  S  S  S
||---------------------------------------------|
||o--------------------------------------------|
||o--2--2-2-2-2-2--2--2------------------------|
||-----------------------2-2--2--2--2--2--2--2-|

|   S  S S S S S  S  S  S S  S  S  S  S  S  S
||---------------------------------------------|
||---------------------------------------------|
||--2--2-2-2-2-2--2--2-------------------------|
||----------------------2-2--2--2--2--2--2--2--|


|  S  S  S  S  S  S  S  S  S  S  S  S  S  S  S  S
|-------------------------------------------------|
|-------------------------------------------------|
|--5--5--5--5--5--5--5--5-------------------------|
|--------------------------5--5--5--5--5--5--5--5-|


|  S  S  S  S  S  S  S  S  S  S  S  S  S  S  S  S
|--------------------------------------------------||
|-------------------------------------------------o||
|--2--2--2--2--2--2--2--2-------------------------o||
|--------------------------2--2--2--2--2--2--2--2--||


|                         PM|
|   q   Q.   Q.     q   E S S Q   Q     q  Q.   Q.
|-----------------|-------------------|---------------|
|-----------------|-------------------|---------------|
|---2--------0----|-2-----------------|-2-------0-----|
|-----------------|-------3-3-3---5---|---------------|

|                  PM-------------------------------
| q  Q   Q  Q   E  S  S  E  S  S  E  S  S  E  S  S
|-------------|------------------------------------|
|-------------|------------------------------------|
|-2-----------|-2--2--2--2--2--2--2--2--2--2--2--2-|
|--------3--5-|------------------------------------|

|------------------|
|  E  S  S  S S  S  S  Q     Q
|---------------------------------------------|
|---------------------------------------------|
|--2--2--2--2-2--2--2-------------------------|
|----------------------3-----5----------------|


|     PM---------|      PM---------|
|  E  S  S  E  S  S  E  S  S  E  S  S
|-------------------------------------|
|-------------------------------------|
|--2--2--2--2--2--2--5--5--5--5--5--5-|
|-------------------------------------|

                                            2/4
|     PM------------|      PM------|           PM------|      PM|
|  E  S  S  S  S  S  S  E  S  S  S  S  E       S  S  S  S  E  S  S
|-------------------------------------------|-------------------------|
|-------------------------------------------|-------------------------|
|--7--7--7--7--7--7--7--9--9--9--9--9--9----|--9--9--9--9--9--9--9----|
|-------------------------------------------|-------------------------|


4/4
|     PM-------------------------------
|  E  S  S  E  S  S  E  S  S  E  S  S
|-------------------------------------|
|-------------------------------------|
|--2--2--2--2--2--2--2--2--2--2--2--2-|
|-------------------------------------|

|------------------|
|  E  S  S  S S  S  S  Q           Q
|----------------------------------------------|
|----------------------------------------------|
|--2--2--2--2-2--2--2--------------------------|
|----------------------3-----------5-----------|


|     PM---------|      PM---------|
|  E  S  S  E  S  S  E  S  S  E  S  S
|-------------------------------------|
|-------------------------------------|
|--2--2--2--2--2--2--5--5--5--5--5--5-|
|-------------------------------------|


|     PM-----------|         PM------|
|  E  S  S  S S  S  S  E     S  S  S  S  E
|---------------------------------------------|
|---------------------------------------------|
|--7--7--7--7-7--7--7--9-----9--9--9--9--9----|
|---------------------------------------------|


2/4                       4/4
|  PM------|         PM|           PM------|         PM------|         PM|
|  S  S  S  S  E     S  S    E     S  S  S  S  E     S  S  S  S  E     S  S
|-------------------------|-------------------------------------------------|
|-------------------------|-------------------------------------------------|
|--9--9--9--9--9-----9--9-|-10----10-10-10-10--9-----9--9--9--9--9-----9--9-|
|-------------------------|-------------------------------------------------|


  PM----------------------------------------------------------------------|
  S S E E S E S S S S S S S   S S E E S S S E S E E   S S E E S S S E S E E
|---------------------------|-----------------------|-----------------------|
|---------------------------|-----------------------|-----------------------|
|-2-2-2-2-2-2-2-2-2-2-2-2-2-|-2-2-2-2-2-2-2-2-2-2-2-|-2-2-2-2-2-2-2-2-2-2---|
|---------------------------|-----------------------|---------------------2-|


|  Q  H.              W
|----------------||----------------------------------------------|
|--4-------------||o--3------------------------------------------|
|--4-------------||o--3------------------------------------------|
|--2-------------||---1------------------------------------------|


| W
|-------------------------------------------|
|-5-----------------------------------------|
|-5-----------------------------------------|
|-3-----------------------------------------|

                            1.
  PM--------------------------------------------|
  S S E E S E S S S S S E   S S E E S S S E S E E
|-------------------------|---------------------------||
|-------------------------|--------------------------o||
|-0-0-0-0-0-0-0-0-0-0-0-0-|-0-0-0-0-0-0-0-0-0-0-0----o||
|-------------------------|---------------------------||


  2.
|
|  PM-----------------------------------------
|  S    S     E    E     S     S   S E S E E
|--------------------------------------------|
|--------------------------------------------|
|--0----0-----0----0-----0-----0---0-0-0-0-0-|
|--------------------------------------------|

  PM------------------------------------|
  S S E E E E E E E   S S E E E  E  E E E
|-------------------|------------------------|
|-------------------|------------------------|
|-0-0-0-0-0-0-0-0-0-|-0-0-0-0-0--0--0-0-0----|
|-------------------|------------------------|
|
|-|       PM  PM------|       PM ~~~
| E E E Q E E S S     E E E Q E  Q
|-------------------|------------------------|
|---7-7-5---5-------|---7-7-5---[5]----------|
|-0-------0---0-0---|-0-------0--------------|
|-------------------|------------------------|


  PM----------------------------|
  S S E E E E E E  E       S  S  E     E     E    +H
|-----------------------|------------------------------------------------|
|-----------------------|------------------------------------------------|
|-0-0-0-0-0-0-0-0--0----|--0--0--0-----0---------------------------------|
|-----------------------|--------------------3----(3)--------------------|


    PM|      PM  PM----|   PM   PM  PM
  E S S E Q  E E E     E E E Q  E E E
|--------------------|--------------------|
|-------7-2----2-----|---7---5----5-------|
|---0-0------0---0---|-0---0----0---0-----|
|--------------------|--------------------|
|
| PM         PM  PM----|        PM  PM|
| E E   E Q  E E S S   E E E Q  E E S S
|--------------------|--------------------|
|---7---7-5----5-----|---7-7-5----5-------|
|-0----------0---0-0-|-0--------0---0-0---|
|--------------------|--------------------|


  PM  PM   PM   PM-----|            PM
  E E E Q  E E  E       E     E     E     E    +H
|--------------------|------------------------------------------------|
|---7---2----2-------|------------------------------------------------|
|-0---0----0----0----|--0-----3-----0---------------------------------|
|--------------------|--------------------3----(3)--------------------|


         PM----------------|            PM--------|     ~~~
    S  S S S S S S S S S S S  Q    S  S S S S S S S Q   Q

||-------------------------------|--------------------------|
||o-5--7-------------------------|-5--7---------------------|
||o------0-0-0-0-0-0-0-0-0-0--8--|------0-0-0-0-0-0-5--3----|
||-------------------------------|--------------------------|

                                1.
       PM----------------|           PM--------|
  S  S S S S S S S S S S S Q    S  S S S S S S S  Q   Q
|-----------------------------|----------------------------||
|-5--7---------------------5--|-5--7--------------2---3---o||
|------0-0-0-0-0-0-0-0-0-0----|------0-0-0-0-0-0----------o||
|-----------------------------|----------------------------||

  2.
| Q  Q   Q   Q       S  S S S S S  S  S  S S  S  S  S  S  S  S
|---------------||---------------------------------------------|
|---------------||o--------------------------------------------|
|-3--5---8--10--||o--2--2-2-2-2-2--2--2------------------------|
|---------------||-----------------------2-2--2--2--2--2--2--2-|


|  S  S S S S S  S  S  S S  S  S  S  S  S  S
|----------------------------------------------|
|----------------------------------------------|
|--2--2-2-2-2-2--2--2--------------------------|
|----------------------2-2--2--2--2--2--2--2---|


|  S  S  S  S  S  S  S  S  S  S  S  S  S  S  S  S
|-------------------------------------------------|
|-------------------------------------------------|
|--5--5--5--5--5--5--5--5-------------------------|
|--------------------------5--5--5--5--5--5--5--5-|


|  S  S  S  S  S  S  S  S  S  S  S  S  S  S  S  S

|----------------------------------------------------||
|---------------------------------------------------o||
|--2--2--2--2--2--2--2--2---------------------------o||
|--------------------------2--2--2--2--2--2--2--2----||


|                        PM|
|  q   Q.   Q.     q   E S S Q   Q     q  Q.   Q.     q  Q  Q  Q
|----------------|-------------------|--------------|--------------|
|----------------|-------------------|--------------|--------------|
|--2--------0----|-2-----------------|-2-------0----|-2------------|
|----------------|-------3-3-3---5---|--------------|-------3--5---|


|    PM-------------------------------
| E  S  S  E  S  S  E  S  S  E  S  S
|------------------------------------|
|------------------------------------|
|-2--2--2--2--2--2--2--2--2--2--2--2-|
|------------------------------------|


|------------------|
|  E  S  S  S S  S  S  Q           Q
|---------------------------------------------|
|---------------------------------------------|
|--2--2--2--2-2--2--2-------------------------|
|----------------------3-----------5----------|


|     PM---------|      PM---------|
|  E  S  S  E  S  S  E  S  S  E  S  S
|-------------------------------------|
|-------------------------------------|
|--2--2--2--2--2--2--5--5--5--5--5--5-|
|-------------------------------------|

                                               2/4
|     PM-----------|         PM------|           PM------|         PM|
|  E  S  S  S S  S  S  E     S  S  S  S  E       S  S  S  S  E     S  S
|---------------------------------------------|--------------------------|
|---------------------------------------------|--------------------------|
|--7--7--7--7-7--7--7--9-----9--9--9--9--9----|--9--9--9--9--9-----9--9--|
|---------------------------------------------|--------------------------|

4/4
|     PM-------------------------------
|  E  S  S  E  S  S  E  S  S  E  S  S
|-------------------------------------|
|-------------------------------------|
|--2--2--2--2--2--2--2--2--2--2--2--2-|
|-------------------------------------|


|------------------|
|  E  S  S  S S  S  S  Q           Q
|----------------------------------------------|
|----------------------------------------------|
|--2--2--2--2-2--2--2--------------------------|
|----------------------3-----------5-----------|


|     PM---------|      PM---------|
|  E  S  S  E  S  S  E  S  S  E  S  S
|-------------------------------------|
|-------------------------------------|
|--2--2--2--2--2--2--5--5--5--5--5--5-|
|-------------------------------------|

                                               2/4
|     PM-----------|         PM------|           PM------|         PM|
|  E  S  S  S S  S  S  E     S  S  S  S  E       S  S  S  S  E     S  S
|---------------------------------------------|--------------------------|
|---------------------------------------------|--------------------------|
|--7--7--7--7-7--7--7--9-----9--9--9--9--9----|--9--9--9--9--9-----9--9--|
|---------------------------------------------|--------------------------|

4/4
|        PM------|         PM------|         PM|
|  E     S  S  S  S  E     S  S  S  S  E     S  S
|-------------------------------------------------|
|-------------------------------------------------|
|-10----10-10-10-10--9-----9--9--9--9--9-----9--9-|
|-------------------------------------------------|


|  E  H..
|-11-------------------------------------------------|
|-11-------------------------------------------------|
|--9-------------------------------------------------|
|----------------------------------------------------|


|  W
|-------------------------------------------------|
|-------------------------------------------------|
|-------------------------------------------------|
|-------------------------------------------------|

                         H.=H
                 PM----|
  Q  Q   Q  Q    e e e e H
|--------------|--------------|
|-8--9------8--|--------------|
|-------10-----|-5-3-2-0------|
|--------------|---------3----|
|
| or             PM----|
| Q  Q   Q  Q    e e e e H
|--------------|--------------|
|-4--5---2--4--|--------------|
|--------------|-5-3-2-0------|
|--------------|---------3----|


               Q=126
4/4          2/4        4/4
|                               PM------------------------|
| +W             H          E   S     S    S    S     S     S    E  E  E E
|------------|----------|-----------------------------------------------------|
|-(5)--------|----------|-----------------------------------------------------|
|-(5)--------|----------|-----------------------------------------------------|
|-(3)--------|--/x-----|---5---5-----5----5----5-----5-----5----6-10--8-6----|


|           PM---------------------------------------|
|  E        S  S  S  S  S  S  S  S  S  S  S  S  S    S
|---------------------------------------------------------|
|---------------------------------------------------------|
|-----------------------------------------5--5--8----8----|
|--5--------5--5--5--5--5--5--6--6--6--6------------------|


|        PM------------|
|  E     S  S  S  S  S  S  E     E     E     E
|--------------------------------------------------|
|--------------------------------------------------|
|--------------------------------------------------|
|--5-----5--5--5--5--5--5--6----10-----8-----6-----|


|        PM-----------------------------------------------------|
|  E     S  S  S  S  S  S  S  S  S  S  S         S           S  S
|-----------------------------------------------------------------|
|-----------------------------------------------------------------|
|--------------------------------------5---------5-----------8--8-|
|--5-----5--5--5--5--5--5--6--6--6--6-----------------------------|

|  H                                   H
|-----------------------------------------------------------------------|
|-----------------------------------------------------------------------|
|--3-----------------------------------5--------------------------------|
|--1-----------------------------------3--------------------------------|


|          PM--------------------------------------------------------|
|  E       S   S     S   S     S   S     S  S S S  S   S      S      S
|----------------------------------------------------------------------|
|----------------------------------------------------------------------|
|----------------------------------------------------------------------|
|--5-------5---5-----5---5-----5---5-----5--5-5-5--5---5------5------5-|


| H                                 H
|----------------------------------------------------------------------|
|----------------------------------------------------------------------|
|-3---------------------------------5----------------------------------|
|-1---------------------------------3----------------------------------|

|         PM-------------------------|
| E       S    S     S    S     S    S     e        Q.
|---------------------------------------------------------------------------------|
|---------------------------------------------------------------------------------|
|-7----------------------------------------7--------------------------------------|
|-5-------5----5-----5----5-----5----5-----5--------------------------------------|


    PM--------|                 PM-------------------------|
  E S S S S S S  E  E  E  E   E S S S S S S S S S S S S  S  S
|---------------------------|----------------------------------|
|---------------------------|----------------------------------|
|---------------------------|-----------------------7-7-10-10--|
|-7-7-7-7-7-7-7--8-12-10--8-|-7-7-7-7-7-7-7-8-8-8-8------------|


                PM------------------------|
  H    H      E S S S S S S S S S S S S S S
|-----------|-------------------------------|
|-----------|-------------------------------|
|-----------|-------------------------------|
|-3----5----|-7-7-7-7-7-7-7-7-7-7-7-7-7-7-7-|

|  Q.        E  H
|--------------------------------------------------------------------------|
|--------------------------------------------------------------------------|
|--5---------3--1----------------------------------------------------------|
|--------------------------------------------------------------------------|


|  E.        E.        E  H
|-------------------------------|
|-------------------------------|
|--1---------3---------5--5-----|
|-------------------------------|
|
|  Q.                        E      H
|------------------------------------------------------------|
|------------------------------------------------------------|
|--5-------------------------3------1------------------------|
|------------------------------------------------------------|

|  E.            E.            E     H
|------------------------------------------------|
|------------------------------------------------|
|--1-------------3-------------5-----5-----------|
|------------------------------------------------|

|  Q.                           E        H
|---------------------------------------------------------------------------|
|---------------------------------------------------------------------------|
|--5----------------------------3--------1----------------------------------|
|---------------------------------------------------------------------------|

|  E.             E.              E        H
|--------------------------------------------------------------------------|
|--------------------------------------------------------------------------|
|--1--------------3---------------5--------5-------------------------------|
|--------------------------------------------------------------------------|

|  Q.         E  H
|---------------------------------------|
|---------------------------------------|
|--5----------7--8----------------------|
|---------------------------------------|

|  H           E  Q.
|--------------------------------------------------------------------------|
|--------------------------------------------------------------------------|
|-10----------12-----------------------------------------------------------|
|--------------------------------------------------------------------------|

|  Q.     E     H                E. E. E H      Q.   E H      E. E. E H
|------------------------------|--------------|-------------|--------------|
|------------------------------|--------------|-------------|--------------|
|--7------5-----3--------------|-3--5--5-7----|-7----5-3----|-3--5--5-7----|
|------------------------------|--------------|-------------|--------------|


  Q.   E H      E. E. E H   Q.   E H      H    E +Q.
?|-------------|-----------|-------------|----------------|
?|-------------|-----------|-------------|----------------|
?|-7----5-3----|-3--5--5-7-|-------------|----------------|
?|-------------|-----------|-7----2-3----|-5----7-(7)----|


|  E  H..
|---------------------------------------------------------------------------|
|o-------------------------------------------------------------------------o|
|o-7-----------------------------------------------------------------------o|
|---------------------------------------------------------------------------|


|  E        H.                                                        S  S
|--------------------------------------------------------------------------|
|---------------------------------------------------------------------x--x-|
|--7------------------------------------------------------------------x--x-|
|--------------------------------------------------------------------------|


|  E        H..
|-------------------------------------------------------------|
|-------------------------------------------------------------|
|--2----------------------------------------------------------|
|--0----------------------------------------------------------|

|    S    S     S    S     S    S     S    S     S    S     S    S     S
S     S    S
||--------------------------------------------------------------------------------------|
||o-------------------------------------------------------------------------------------|
||o-7----7-----7----7-----6----6-----6----6-----7----7-----7----7-----------------------|
||--------------------------------------------------------------------7----7-----7----7-|


|  S    S     S    S     S    S     S    S     S    S     S    S      S S S
S
|------------------------------------------------------------------------------||
|-----------------------------------------------------------------------------o||
|------------------------7----7-----7----7-----9----9-----9----9--------------o||
|--8----8-----8----8--------------------------------------------------7-7-7-7--||
comments
We did not receive enough feedback on this tab! Please rate:
print report bad tab
1 2 3 4 5
I want to post or [tab]
guest
You may want to rate the tab now too:
select rating
Please do not post tabs as comments. Select "correction" instead!