Oops, an error
Loading. Please wait.

Kissing The Shadows Tab

56,060 views 135 this week
21 commentsread comments
1 2 3 4 5
excellent!
x 15
Autoscroll
+/-
esc
set tempo
stop
Contributor
WARNING: You are trying to view
                                    content from Ultimate-Guitar.com
                                    in an unauthorized application,
                                    which is prohibited.

                                    Please use an official Ultimate
                                    Guitar Tabs application for iPhone,
                                    iPad or Android to access legitimate
                                    chords, guitar, bass, and drum tabs
                                    from Ultimate-Guitar.com database.

                                    Type "ultimate guitar tabs" in Apple
                                    App Store's or Android Market's
                                    search to find the application.
Gtr I (D G C F A D) - 'Untitled'
Gtr II (D G C F A D) - 'Untitled'

    Q=142
   4/4
    Gtr I
         PM----------------|            PM--------|     ~~~
    S  S S S S S S S S S S S  Q    S  S S S S S S S Q   Q
||-------------------------------|--------------------------|
||o------------------------------|--------------------------|
||---------------------------10--|--------------------------|
||--5--7---------------------10--|-5--7-------------7--[7]--|
||o------0-0-0-0-0-0-0-0-0-0--8--|------0-0-0-0-0-0-5-------|
||-------------------------------|--------------------------|
|
|   Gtr II
|        PM----------------|            PM--------|     ~~~
|   S  S S S S S S S S S S S  Q    S  S S S S S S S Q   Q
||-------------------------------|--------------------------|
||o------------------------------|--------------------------|
||-------------------------------|---------------------[5]--|
||--9-10----------------------6--|-9-10-------------7-------|
||o------0-0-0-0-0-0-0-0-0-0-----|------0-0-0-0-0-0-5-------|
||-------------------------------|--------------------------|


                                1.
       PM----------------|           PM--------|
  S  S S S S S S S S S S S Q    S  S S S S S S S  Q   Q
|-----------------------------|-----------------------------||
|-----------------------------|----------------------------o||
|--------------------------7--|-------------------4---5-----||
|-5--7---------------------5--|-5--7--------------2---3-----||
|------0-0-0-0-0-0-0-0-0-0----|------0-0-0-0-0-0-----------o||
|-----------------------------|-----------------------------||
|
|      PM----------------|           PM--------|
| S  S S S S S S S S S S S Q    S  S S S S S S S  Q   Q
|-----------------------------|-----------------------------||
|-----------------------------|----------------------------o||
|-----------------------------|-----------------------------||
|-9-10---------------------9--|-9-10------------------------||
|------0-0-0-0-0-0-0-0-0-0----|------0-0-0-0-0-0-10--12----o||
|-----------------------------|-----------------------------||


  2.
  Q  Q   Q   Q      S S S S S S S S S S S S S S S S
|---------------||----------------------------------|
|---------------||o---------------------------------|
|---------------||--7-7-7-7-7-7-7-7-6-6-6-6-6-6-6-6-|
|-5--7--10--10--||----------------------------------|
|-3--5---8--10--||o---------------------------------|
|---------------||----------------------------------|
|
|                   PM-------------------------------
| Q  Q   Q   Q      S S S S S S S S S S S S S S S S
|---------------||----------------------------------|
|---------------||o---------------------------------|
|---------------||----------------------------------|
|-5--7--10--10--||--4-4-4-4-4-4-4-4-----------------|
|-3--5---8--10--||o-2-2-2-2-2-2-2-2-4-4-4-4-4-4-4-4-|
|---------------||------------------2-2-2-2-2-2-2-2-|


  S S S S S S S S S S S S S S S S
|-----------------------------------|
|-----------------------------------|
|-7-7-7-7-7-7-7-7-6-6-6-6-6-6-6-6---|
|-----------------------------------|
|-----------------------------------|
|-----------------------------------|
|
|-------------------------------|
| S S S S S S S S S S S S S S S S
|-----------------------------------|
|-----------------------------------|
|-----------------------------------|
|-4-4-4-4-4-4-4-4-------------------|
|-2-2-2-2-2-2-2-2-4-4-4-4-4-4-4-4---|
|-----------------2-2-2-2-2-2-2-2---|


  S S S S S S S S S S S S S S S S   S S S S S S S S S S S S S S S S
|---------------------------------|------------------------------------||
|-7-7-7-7-7-7-7-7-5-5-5-5-5-5-5-5-|-----------------------------------o||
|-7-7-7-7-7-7-7-7-6-6-6-6-6-6-6-6-|-7-7-7-7-7-7-7-7-6-6-6-6-6-6-6-6----||
|---------------------------------|------------------------------------||
|---------------------------------|-----------------------------------o||
|---------------------------------|------------------------------------||
|
| PM--------------------------------------------------------------|
| S S S S S S S S S S S S S S S S   S S S S S S S S S S S S S S S S
|---------------------------------|------------------------------------||
|---------------------------------|-----------------------------------o||
|---------------------------------|------------------------------------||
|-7-7-7-7-7-7-7-7-----------------|-4-4-4-4-4-4-4-4--------------------||
|-5-5-5-5-5-5-5-5-7-7-7-7-7-7-7-7-|-2-2-2-2-2-2-2-2-4-4-4-4-4-4-4-4---o||
|-----------------5-5-5-5-5-5-5-5-|-----------------2-2-2-2-2-2-2-2----||


   E  S  S  S  S  q  q  E                           +W
|-------------------------------------------------|--------------------------|
|-------------------------------------------------|--------------------------|
|--4-----------------4----------------------------|--------------------------|
|--4--------------4--4--5-------------------------|-(5)----------------------|
|--2--2--2--2--2--4--2--5-------------------------|-(5)----------------------|
|-----------------2-----3-------------------------|-(3)----------------------|
|
|                                                    \6                 |
|  S  S  S  S  S  S  S  S  S  S  S  S  S  S  S  S    H.                +Q
|-14-12-10----------15-14-12----------------------|--------------------------|
|----------14-12-10----------15-14-12-------------|--------------------------|
|-------------------------------------14-12-------|--------------------------|
|-------------------------------------------16-14-|-12----------------(12)---|
|-------------------------------------------------|--------------------------|
|-------------------------------------------------|--------------------------|


     S  S S S  S  S  S  S  S  S  S  S  S  S S S
||----------------------------------------------|
||o-------8-8-10-10-------13-13-10-10-12-12-8-8-|
||--10-10-----------10-10-----------------------|
||----------------------------------------------|
||o---------------------------------------------|
||----------------------------------------------|
|
|    W
||----------------------------------------------|
||o---------------------------------------------|
||----------------------------------------------|
||---3------------------------------------------|
||o--3------------------------------------------|
||---1------------------------------------------|


  S S S S  S  S S S  S  S  S  S  S  S S S
|------------------------------------------|
|-----8-8-10-10-----13-13-10-10-12-12-8-8--|
|-9-9-----------9-9------------------------|
|------------------------------------------|
|------------------------------------------|
|------------------------------------------|
|
| W
|------------------------------------------|
|------------------------------------------|
|------------------------------------------|
|-5----------------------------------------|
|-5----------------------------------------|
|-3----------------------------------------|


  PM----------------------------------------------|
  S S E E S E S S S S S S S   S S E E S S S E S E E
|---------------------------|------------------------||
|---------------------------|-----------------------o||
|---------------------------|------------------------||
|---------------------------|------------------------||
|-0-0-0-0-0-0-0-0-0-0-0-0-0-|-0-0-0-0-0-0-0-0-0-0-0-o||
|---------------------------|------------------------||


     Q.            S  S  E    S  S  S  S  S  S    Q.            S  S  E    S  S  S  S  S  S
||---------------------------------------------|--------------------------17-15-14----------|
||o---------------14-15-17---15-14-15-14-------|---------------14-15-17------------17-15-14-|
||--16-----------------------------------16-14-|-16-----------------------------------------|
||---------------------------------------------|--------------------------------------------|
||o--------------------------------------------|--------------------------------------------|
||---------------------------------------------|--------------------------------------------|
|
|    S  S S S S S  S  S  S S  S  S  S  S  S  S    S  S S S S S  S  S  S S  S  S  S  S  S  S
||---------------------------------------------|--------------------------------------------|
||o--------------------------------------------|--------------------------------------------|
||---7--7-7-7-7-7--7--7--6-6--6--6--6--6--6--6-|--7--7-7-7-7-7--7--7--6-6--6--6--6--6--6--6-|
||---------------------------------------------|--------------------------------------------|
||o--2--2-2-2-2-2--2--2------------------------|--2--2-2-2-2-2--2--2------------------------|
||-----------------------2-2--2--2--2--2--2--2-|----------------------2-2--2--2--2--2--2--2-|


   S  S  S  S  S  S  S  S  S  S  S  S  S  S  S  S
|-------14----17-15-14----------------15-14-------|
|-15-17----15----------17-14-15-17-14-------17-15-|
|-------------------------------------------------|
|-------------------------------------------------|
|-------------------------------------------------|
|-------------------------------------------------|
|
|  S  S  S  S  S  S  S  S  S  S  S  S  S  S  S  S
|-------------------------------------------------|
|--7--7--7--7--7--7--7--7--5--5--5--5--5--5--5--5-|
|--7--7--7--7--7--7--7--7--6--6--6--6--6--6--6--6-|
|-------------------------------------------------|
|--5--5--5--5--5--5--5--5-------------------------|
|--------------------------5--5--5--5--5--5--5--5-|


   S  S  S  S  S  S  S  S  S  S  S  S  S  S  S  S
|-------------14-15-14----14-----------------------||
|----14-15-17----------17----17-15-14-15-14-------o||
|-16----------------------------------------16-14--||
|--------------------------------------------------||
|-------------------------------------------------o||
|--------------------------------------------------||
|
|  S  S  S  S  S  S  S  S  S  S  S  S  S  S  S  S
|--------------------------------------------------||
|-------------------------------------------------o||
|--7--7--7--7--7--7--7--7--6--6--6--6--6--6--6--6--||
|--------------------------------------------------||
|--2--2--2--2--2--2--2--2-------------------------o||
|--------------------------2--2--2--2--2--2--2--2--||


                                  ~~~
    q               H.            Q
|--19\------------|-------------------|---------------|
|-----------------|-------------------|---------------|
|-----------------|-------------------|---------------|
|-----------------|--------------[7]--|---------------|
|-----------------|-------------------|---------------|
|-----------------|-------------------|---------------|
|
|                         PM|
|   q   Q.   Q.     q   E S S Q   Q     q  Q.   Q.
|-----------------|-------------------|---------------|
|-----------------|-------------------|---------------|
|---4--------2----|-4-----------------|-4-------2-----|
|---4--------2----|-4---------5---7---|-4-------2-----|
|---2--------0----|-2---------5---7---|-2-------0-----|
|-----------------|-------3-3-3---5---|---------------|


                E  S  S  e  S  S  e  S  S  e  S  S
|-------------|---14-12-14-------------------------|
|-------------|------------15-14-15-12-11-12-15-14-|
|-------------|------------------------------------|
|-------------|------------------------------------|
|-------------|------------------------------------|
|-------------|------------------------------------|
|
|                  PM-------------------------------
| q  Q   Q  Q   E  S  S  E  S  S  E  S  S  E  S  S
|-------------|------------------------------------|
|-------------|------------------------------------|
|-4-----------|-4----------------------------------|
|-4------5--7-|-4----------------------------------|
|-2------5--7-|-2--2--2--2--2--2--2--2--2--2--2--2-|
|--------3--5-|------------------------------------|


   e  S  S  e    S  S  S  S  S  S  S  S  S  S
|---------------------12-14-12----------------|
|-15-12-11-12---14-15----------15-14-12-11-14-|
|---------------------------------------------|
|---------------------------------------------|
|---------------------------------------------|
|---------------------------------------------|
|
|------------------|
|  E  S  S  S S  S  S  Q     Q
|---------------------------------------------|
|---------------------------------------------|
|---------------------------------------------|
|----------------------5-----7----------------|
|--2--2--2--2-2--2--2--5-----7----------------|
|----------------------3-----5----------------|


   E  S  S  e  S  S  e  S  S  e  S  S
|----14-12-14-------------------------|
|-12----------15-14-15-12-11-12-15-14-|
|-------------------------------------|
|-------------------------------------|
|-------------------------------------|
|-------------------------------------|
|
|     PM---------|      PM---------|
|  E  S  S  E  S  S  E  S  S  E  S  S
|-------------------------------------|
|-------------------------------------|
|--4-----------------7----------------|
|--4-----------------7----------------|
|--2--2--2--2--2--2--5--5--5--5--5--5-|
|-------------------------------------|


                                             2/4
   e  S  S  e  S  S  S  S  S  S  S  S  S  S    S  S  S  S  S  S  S  S
|-------------------12-14-12----------12-14-|-12----------14-12-------|
|-15-12-11-12-14-15----------15-14-12-------|----15-14-12-------15-14-|
|-------------------------------------------|-------------------------|
|-------------------------------------------|-------------------------|
|-------------------------------------------|-------------------------|
|-------------------------------------------|-------------------------|
|
|     PM------------|      PM------|           PM------|      PM|
|  E  S  S  S  S  S  S  E  S  S  S  S  E       S  S  S  S  E  S  S
|-------------------------------------------|-------------------------|
|-------------------------------------------|-------------------------|
|--9-------------------11-------------11----|-------------11----------|
|--9-------------------11-------------11----|-------------11----------|
|--7--7--7--7--7--7--7--9--9--9--9--9--9----|--9--9--9--9--9--9--9----|
|-------------------------------------------|-------------------------|


 4/4
   E  S  S  e  S  S  e  S  S  e  S  S
|----14-12-14-------------------------|
|-12----------15-14-15-12-11-12-15-14-|
|-------------------------------------|
|-------------------------------------|
|-------------------------------------|
|-------------------------------------|
|
|     PM-------------------------------
|  E  S  S  E  S  S  E  S  S  E  S  S
|-------------------------------------|
|-------------------------------------|
|--4----------------------------------|
|--4----------------------------------|
|--2--2--2--2--2--2--2--2--2--2--2--2-|
|-------------------------------------|


   e  S  S  e    S  S  S  S  S  S  S   S  S  S
|---------------------12-14-12-----------------|
|-15-12-11-12---14-15----------15-14--12-11-14-|
|----------------------------------------------|
|----------------------------------------------|
|----------------------------------------------|
|----------------------------------------------|
|
|------------------|               ~~~
|  E  S  S  S S  S  S  Q           Q
|----------------------------------------------|
|----------------------------------------------|
|----------------------------------------------|
|----------------------5----------[7]----------|
|--2--2--2--2-2--2--2--5-----------7-----------|
|----------------------3-----------5-----------|


   E  S  S  e  S  S  e  S  S  e  S  S
|----14-12-14-------------------------|
|-12----------15-14-15-12-11-12-15-14-|
|-------------------------------------|
|-------------------------------------|
|-------------------------------------|
|-------------------------------------|
|
|     PM---------|      PM---------|
|  E  S  S  E  S  S  E  S  S  E  S  S
|-------------------------------------|
|-------------------------------------|
|--4-----------------7----------------|
|--4-----------------7----------------|
|--2--2--2--2--2--2--5--5--5--5--5--5-|
|-------------------------------------|


   e  S  S  e    S  S  S  S  S  S  S  S  S  S
|---------------------12-14-12----------------|
|-15-12-11-12---14-15----------15-14-12-14-15-|
|---------------------------------------------|
|---------------------------------------------|
|---------------------------------------------|
|---------------------------------------------|
|
|     PM-----------|         PM------|
|  E  S  S  S S  S  S  E     S  S  S  S  E
|---------------------------------------------|
|---------------------------------------------|
|--9------------------11----------------11----|
|--9------------------11----------------11----|
|--7--7--7--7-7--7--7--9-----9--9--9--9--9----|
|---------------------------------------------|


 2/4                       4/4
   S  S  S  S  S  S  S  S    S  S  S  S  S  S  S  S  S  S  S  S  S  S  S  S
|-12-14-12----14-12-------|-15-14----------14-15-18-19-18-15-14-------------|
|----------15-------15-14-|-------17-15-17----------------------17-15-14----|
|-------------------------|----------------------------------------------16-|
|-------------------------|-------------------------------------------------|
|-------------------------|-------------------------------------------------|
|-------------------------|-------------------------------------------------|
|
|  PM------|         PM|           PM------|         PM------|         PM|
|  S  S  S  S  E     S  S    E     S  S  S  S  E     S  S  S  S  E     S  S
|-------------------------|-------------------------------------------------|
|-------------------------|-------------------------------------------------|
|-------------11----------|-12----------------11----------------11----------|
|-------------11----------|-12----------------11----------------11----------|
|--9--9--9--9--9-----9--9-|-10----10-10-10-10--9-----9--9--9--9--9-----9--9-|
|-------------------------|-------------------------------------------------|


  PM----------------------------------------------------------------------|
  S S E E S E S S S S S S S   S S E E S S S E S E E   S S E E S S S E S E E
|---------------------------|-----------------------|-----------------------|
|---------------------------|-----------------------|-----------------------|
|---------------------------|-----------------------|-----------------------|
|---------------------------|-----------------------|-----------------------|
|-2-2-2-2-2-2-2-2-2-2-2-2-2-|-2-2-2-2-2-2-2-2-2-2-2-|-2-2-2-2-2-2-2-2-2-2---|
|---------------------------|-----------------------|---------------------2-|


   ~~~
   Q     H.           S  S S S  S  S  S  S  S  S  S  S  S  S S S
|----------------||----------------------------------------------|
|----------------||o-------8-8-10-10-------13-13-10-10-12-12-8-8-|
|--3-------------||--10-10-----------10-10-----------------------|
|-[4]------------||----------------------------------------------|
|----------------||o---------------------------------------------|
|----------------||----------------------------------------------|
|
|  Q  H.              W
|----------------||----------------------------------------------|
|----------------||o---------------------------------------------|
|----------------||----------------------------------------------|
|--4-------------||---3------------------------------------------|
|--4-------------||o--3------------------------------------------|
|--2-------------||---1------------------------------------------|


  S S S S  S  S S S  S  S  S  S  S  S S S
|-------------------------------------------|
|-----8-8-10-10-----13-13-10-10-12-12-8-8---|
|-9-9-----------9-9-------------------------|
|-------------------------------------------|
|-------------------------------------------|
|-------------------------------------------|
|
| W
|-------------------------------------------|
|-------------------------------------------|
|-------------------------------------------|
|-5-----------------------------------------|
|-5-----------------------------------------|
|-3-----------------------------------------|


                            1.
  PM--------------------------------------------|
  S S E E S E S S S S S E   S S E E S S S E S E E
|-------------------------|---------------------------||
|-------------------------|--------------------------o||
|-------------------------|---------------------------||
|-------------------------|---------------------------||
|-0-0-0-0-0-0-0-0-0-0-0-0-|-0-0-0-0-0-0-0-0-0-0-0----o||
|-------------------------|---------------------------||


  2.
        \5         \1/         \5
   E.  +S    +E    E    +Q    +Q
|--------------------------------------------|
|--------------------------------------------|
|-<5>-(<5>)-(<5>)-<5>--(<5>)-(<5>)-----------|
|--------------------------------------------|
|--------------------------------------------|
|--------------------------------------------|
|
|  PM-----------------------------------------
|  S    S     E    E     S     S   S E S E E
|--------------------------------------------|
|--------------------------------------------|
|--------------------------------------------|
|--------------------------------------------|
|--0----0-----0----0-----0-----0---0-0-0-0-0-|
|--------------------------------------------|


  PM------------------------------------|
  S S E E E E E E E   S S E E E  E  E E E
|-------------------|------------------------|
|-------------------|------------------------|
|-------------------|------------------------|
|-------------------|------------------------|
|-0-0-0-0-0-0-0-0-0-|-0-0-0-0-0--0--0-0-0----|
|-------------------|------------------------|
|
|-|       PM  PM------|       PM ~~~
| E E E Q E E S S     E E E Q E  Q
|-------------------|------------------------|
|-------------------|-------3----------------|
|---9-9-4---4-------|---5-5-4----------------|
|---7-7-5---5-------|---7-7-5---[5]----------|
|-0-------0---0-0---|-0-------0--------------|
|-------------------|------------------------|


  PM----------------------------|
  S S E E E E E E  E       S  S  E     E     E    +H
|-----------------------|------------------------------------------------|
|-----------------------|------------------------------------------------|
|-----------------------|--------------2---------------------------------|
|-----------------------|--------------2-----5----(5)--------------------|
|-0-0-0-0-0-0-0-0--0----|--0--0--0-----0-----5----(5)--------------------|
|-----------------------|--------------------3----(3)--------------------|
|
| PM          PM
| E   E E Q   E E  S  S    S  S  S  S  S  S  S  S  S   S S  S  S S  S  S
|-----------------------|-------------10---------------------------------|
|-----------------10-12-|-13-10-12-13----13-12-10------------------------|
|-----9-9-9-----9-------|-------------------------12--10-9---------------|
|-----7-7-7-----7-------|----------------------------------12-10-9-------|
|-0-----------0---------|------------------------------------------12-10-|
|-----------------------|------------------------------------------------|


    PM|      PM  PM----|   PM   PM  PM
  E S S E Q  E E E     E E E Q  E E E
|--------------------|--------------------|
|--------------------|--------------------|
|-------9-4----4-----|---9---7----7-------|
|-------7-2----2-----|---7---5----5-------|
|---0-0------0---0---|-0---0----0---0-----|
|--------------------|--------------------|
|
| PM         PM  PM----|        PM  PM|
| E E   E Q  E E S S   E E E Q  E E S S
|--------------------|--------------------|
|--------------------|--------------------|
|---9---9-4----4-----|---9-9-4----4-------|
|---7---7-5----5-----|---7-7-5----5-------|
|-0----------0---0-0-|-0--------0---0-0---|
|--------------------|--------------------|


  PM  PM   PM   PM-----|            PM
  E E E Q  E E  E       E     E     E     E    +H
|--------------------|------------------------------------------------|
|--------------------|------------------------------------------------|
|---9---4----4-------|------------------------------------------------|
|---7---2----2-------|--------5-----------5----(5)--------------------|
|-0---0----0----0----|--0-----3-----0-----5----(5)--------------------|
|--------------------|--------------------3----(3)--------------------|
|
| PM       PM
| E E E Q  E E  S  S    S  S  S  S  S  S  S  S  S   S S  S  S S  S  S
|--------------------|-------------10---------------------------------|
|--------------10-12-|-13-10-12-13----13-12-10------------------------|
|---9-9-4----4-------|-------------------------12--10-9---------------|
|---7-7-5----5-------|----------------------------------12-10-9-------|
|-0--------0---------|------------------------------------------12-10-|
|--------------------|------------------------------------------------|


         PM----------------|            PM--------|     ~~~
    S  S S S S S S S S S S S  Q    S  S S S S S S S Q   Q
||-------------------------------|--------------------------|
||o------------------------------|---------------------[6]--|
||---------------------------10--|--------------------------|
||--5--7---------------------10--|-5--7-------------7-------|
||o------0-0-0-0-0-0-0-0-0-0--8--|------0-0-0-0-0-0-5-------|
||-------------------------------|--------------------------|
|
|        PM----------------|            PM--------|     ~~~
|   S  S S S S S S S S S S S  Q    S  S S S S S S S Q   Q
||-------------------------------|--------------------------|
||o------------------------------|--------------------------|
||-------------------------------|---------------------[9]--|
||--9-10----------------------6--|-9-10-------------7-------|
||o------0-0-0-0-0-0-0-0-0-0-----|------0-0-0-0-0-0-5-------|
||-------------------------------|--------------------------|


                                1.
       PM----------------|           PM--------|
  S  S S S S S S S S S S S Q    S  S S S S S S S  Q   Q
|-----------------------------|----------------------------||
|-----------------------------|---------------------------o||
|--------------------------7--|-------------------4---5----||
|-5--7---------------------5--|-5--7--------------2---3----||
|------0-0-0-0-0-0-0-0-0-0----|------0-0-0-0-0-0----------o||
|-----------------------------|----------------------------||
|
|      PM----------------|           PM--------|
| S  S S S S S S S S S S S Q    S  S S S S S S S  Q   Q
|-----------------------------|----------------------------||
|-----------------------------|---------------------------o||
|-----------------------------|----------------------------||
|-9-10---------------------9--|-9-10-----------------------||
|------0-0-0-0-0-0-0-0-0-0----|------0-0-0-0-0-0-10--12---o||
|-----------------------------|----------------------------||


  2.
  Q  Q   Q   Q       Q.            S  S  E    S  S  S  S  S  S
|---------------||---------------------------------------------|
|---------------||o---------------14-15-17---15-14-15-14-------|
|---------------||--16-----------------------------------16-14-|
|-5--7--10--10--||---------------------------------------------|
|-3--5---8--10--||o--------------------------------------------|
|---------------||---------------------------------------------|
|
| Q  Q   Q   Q       S  S S S S S  S  S  S S  S  S  S  S  S  S
|---------------||---------------------------------------------|
|---------------||o--------------------------------------------|
|---------------||---7--7-7-7-7-7--7--7--6-6--6--6--6--6--6--6-|
|-5--7--10--10--||---------------------------------------------|
|-3--5---8--10--||o--2--2-2-2-2-2--2--2------------------------|
|---------------||-----------------------2-2--2--2--2--2--2--2-|


   Q.            S  S  E    S  S  S  S  S  S
|--------------------------17-15-14------------|
|---------------14-15-17------------17-15-14---|
|-16-------------------------------------------|
|----------------------------------------------|
|----------------------------------------------|
|----------------------------------------------|
|
|  S  S S S S S  S  S  S S  S  S  S  S  S  S
|----------------------------------------------|
|----------------------------------------------|
|--7--7-7-7-7-7--7--7--6-6--6--6--6--6--6--6---|
|----------------------------------------------|
|--2--2-2-2-2-2--2--2--------------------------|
|----------------------2-2--2--2--2--2--2--2---|


   S  S  S  S  S  S  S  S  S  S  S  S  S  S  S  S
|-------14----17-15-14----------------15-14-------|
|-15-17----15----------17-14-15-17-14-------17-15-|
|-------------------------------------------------|
|-------------------------------------------------|
|-------------------------------------------------|
|-------------------------------------------------|
|
|  S  S  S  S  S  S  S  S  S  S  S  S  S  S  S  S
|-------------------------------------------------|
|--7--7--7--7--7--7--7--7--5--5--5--5--5--5--5--5-|
|--7--7--7--7--7--7--7--7--6--6--6--6--6--6--6--6-|
|-------------------------------------------------|
|--5--5--5--5--5--5--5--5-------------------------|
|--------------------------5--5--5--5--5--5--5--5-|


   S  S  S  S  S  S  S  S  S  S  S  S  S  S  S  S
|-------------14-15-14----14-------------------------||
|----14-15-17----------17----17-15-14-15-14---------o||
|-16----------------------------------------16-14----||
|----------------------------------------------------||
|---------------------------------------------------o||
|----------------------------------------------------||
|
|  S  S  S  S  S  S  S  S  S  S  S  S  S  S  S  S
|----------------------------------------------------||
|---------------------------------------------------o||
|--7--7--7--7--7--7--7--7--6--6--6--6--6--6--6--6----||
|----------------------------------------------------||
|--2--2--2--2--2--2--2--2---------------------------o||
|--------------------------2--2--2--2--2--2--2--2----||


                                 ~~~
   q   H.          H.            Q     W              W
|-19\------------|-------------------|--------------|--------------|
|----------------|-------------------|--------------|--------------|
|----------------|-------------------|--------------|--------------|
|----------------|--------------[7]--|--------------|--------------|
|----------------|-------------------|--------------|--------------|
|----------------|-------------------|--------------|--------------|
|
|                        PM|
|  q   Q.   Q.     q   E S S Q   Q     q  Q.   Q.     q  Q  Q  Q
|----------------|-------------------|--------------|--------------|
|----------------|-------------------|--------------|--------------|
|--4--------2----|-4-----------------|-4-------2----|-4------------|
|--4--------2----|-4---------5---7---|-4-------2----|-4-----5--7---|
|--2--------0----|-2---------5---7---|-2-------0----|-2-----5--7---|
|----------------|-------3-3-3---5---|--------------|-------3--5---|


  E  S  S  e  S  S  e  S  S  e  S  S
|---14-12-14-------------------------|
|------------15-14-15-12-11-12-15-14-|
|------------------------------------|
|------------------------------------|
|------------------------------------|
|------------------------------------|
|
|    PM-------------------------------
| E  S  S  E  S  S  E  S  S  E  S  S
|------------------------------------|
|------------------------------------|
|-4----------------------------------|
|-4----------------------------------|
|-2--2--2--2--2--2--2--2--2--2--2--2-|
|------------------------------------|


   e  S  S  e    S  S  S  S  S  S  S  S  S  S
|---------------------12-14-12----------------|
|-15-12-11-12---14-15----------15-14-12-11-14-|
|---------------------------------------------|
|---------------------------------------------|
|---------------------------------------------|
|---------------------------------------------|
|
|------------------|
|  E  S  S  S S  S  S  Q           Q
|---------------------------------------------|
|---------------------------------------------|
|---------------------------------------------|
|----------------------5-----------7----------|
|--2--2--2--2-2--2--2--5-----------7----------|
|----------------------3-----------5----------|


   E  S  S  e  S  S  e  S  S  e  S  S
|----14-12-14-------------------------|
|-12----------15-14-15-12-11-12-15-14-|
|-------------------------------------|
|-------------------------------------|
|-------------------------------------|
|-------------------------------------|
|
|     PM---------|      PM---------|
|  E  S  S  E  S  S  E  S  S  E  S  S
|-------------------------------------|
|-------------------------------------|
|--4-----------------7----------------|
|--4-----------------7----------------|
|--2--2--2--2--2--2--5--5--5--5--5--5-|
|-------------------------------------|


                                               2/4
   e  S  S  e    S  S  S  S  S  S  S  S  S  S    S  S  S  S  S  S  S  S
|---------------------12-14-12----------12-14-|-12----------14-12--------|
|-15-12-11-12---14-15----------15-14-12-------|----15-14-12-------15-14--|
|---------------------------------------------|--------------------------|
|---------------------------------------------|--------------------------|
|---------------------------------------------|--------------------------|
|---------------------------------------------|--------------------------|
|
|     PM-----------|         PM------|           PM------|         PM|
|  E  S  S  S S  S  S  E     S  S  S  S  E       S  S  S  S  E     S  S
|---------------------------------------------|--------------------------|
|---------------------------------------------|--------------------------|
|--9------------------11----------------11----|-------------11-----------|
|--9------------------11----------------11----|-------------11-----------|
|--7--7--7--7-7--7--7--9-----9--9--9--9--9----|--9--9--9--9--9-----9--9--|
|---------------------------------------------|--------------------------|


 4/4
   E  S  S  e  S  S  e  S  S  e  S  S
|----14-12-14-------------------------|
|-12----------15-14-15-12-11-12-15-14-|
|-------------------------------------|
|-------------------------------------|
|-------------------------------------|
|-------------------------------------|
|
|     PM-------------------------------
|  E  S  S  E  S  S  E  S  S  E  S  S
|-------------------------------------|
|-------------------------------------|
|--4----------------------------------|
|--4----------------------------------|
|--2--2--2--2--2--2--2--2--2--2--2--2-|
|-------------------------------------|


   e  S  S  e    S  S  S  S  S  S  S   S  S  S
|---------------------12-14-12-----------------|
|-15-12-11-12---14-15----------15-14--12-11-14-|
|----------------------------------------------|
|----------------------------------------------|
|----------------------------------------------|
|----------------------------------------------|
|
|------------------|               ~~~
|  E  S  S  S S  S  S  Q           Q
|----------------------------------------------|
|----------------------------------------------|
|----------------------------------------------|
|----------------------5----------[7]----------|
|--2--2--2--2-2--2--2--5-----------7-----------|
|----------------------3-----------5-----------|


   E  S  S  e  S  S  e  S  S  e  S  S
|----14-12-14-------------------------|
|-12----------15-14-15-12-11-12-15-14-|
|-------------------------------------|
|-------------------------------------|
|-------------------------------------|
|-------------------------------------|
|
|     PM---------|      PM---------|
|  E  S  S  E  S  S  E  S  S  E  S  S
|-------------------------------------|
|-------------------------------------|
|--4-----------------7----------------|
|--4-----------------7----------------|
|--2--2--2--2--2--2--5--5--5--5--5--5-|
|-------------------------------------|


                                               2/4
   e  S  S  e    S  S  S  S  S  S  S  S  S  S    S  S  S  S  S  S  S  S
|---------------------12-14-12----------------|-12-14-12----14-12--------|
|-15-12-11-12---14-15----------15-14-12-14-15-|----------15-------15-14--|
|---------------------------------------------|--------------------------|
|---------------------------------------------|--------------------------|
|---------------------------------------------|--------------------------|
|---------------------------------------------|--------------------------|
|
|     PM-----------|         PM------|           PM------|         PM|
|  E  S  S  S S  S  S  E     S  S  S  S  E       S  S  S  S  E     S  S
|---------------------------------------------|--------------------------|
|---------------------------------------------|--------------------------|
|--9------------------11----------------11----|-------------11-----------|
|--9------------------11----------------11----|-------------11-----------|
|--7--7--7--7-7--7--7--9-----9--9--9--9--9----|--9--9--9--9--9-----9--9--|
|---------------------------------------------|--------------------------|


 4/4
   S  S  S  S  S  S  S  S  S  S  S  S  S  S  S  S
|-15-14----------14-15-18-19-18-15-14-------------|
|-------17-15-17----------------------17-15-14----|
|----------------------------------------------16-|
|-------------------------------------------------|
|-------------------------------------------------|
|-------------------------------------------------|
|
|        PM------|         PM------|         PM|
|  E     S  S  S  S  E     S  S  S  S  E     S  S
|-------------------------------------------------|
|-------------------------------------------------|
|-12----------------11----------------11----------|
|-12----------------11----------------11----------|
|-10----10-10-10-10--9-----9--9--9--9--9-----9--9-|
|-------------------------------------------------|


   S  S    S  S  S  S  S  S  S  S  S  S  S  S  S  S
|-12-14---12----------------12-14-12----14-12--------|
|------------15-14-12-14-15----------15-------15-14--|
|----------------------------------------------------|
|----------------------------------------------------|
|----------------------------------------------------|
|----------------------------------------------------|
|
|  E  H..
|----------------------------------------------------|
|----------------------------------------------------|
|-11-------------------------------------------------|
|-11-------------------------------------------------|
|--9-------------------------------------------------|
|----------------------------------------------------|


   S  S  S  S  S  S  S  S  S  S  S  S  S  S  S  S
|-15-14----------14-15-18-19-18-15-14-------------|
|-------17-15-17----------------------17-15-14----|
|----------------------------------------------16-|
|-------------------------------------------------|
|-------------------------------------------------|
|-------------------------------------------------|
|
|  W
|-------------------------------------------------|
|-------------------------------------------------|
|-------------------------------------------------|
|-------------------------------------------------|
|-------------------------------------------------|
|-------------------------------------------------|


                         H.=H
                 PM----|
  Q  Q   Q  Q    e e e e H
|--------------|--------------|
|--------------|--------------|
|--------------|-7-5-4-2------|
|-8--9------8--|-7-5-4-2-5----|
|-------10-----|-5-3-2-0-5----|
|--------------|---------3----|
|
|                PM----|
| Q  Q   Q  Q    e e e e H
|--------------|--------------|
|--------------|--------------|
|-6--7---4--6--|-7-5-4-2------|
|-4--5---2--4--|-7-5-4-2-5----|
|--------------|-5-3-2-0-5----|
|--------------|---------3----|


               Q=126
 4/4          2/4        4/4
                                \1_________|    \1/   \1/   \1/
                                                |-----3-----|
  +W                H       S  +S    +S   +S   +E    +E    +E    H
|------------|----------|-/17-(17)--(17)-(17)-(17)--(17)--(17)--17------------|
|------------|----------|-----------------------------------------------------|
|------------|----------|-----------------------------------------------------|
|-(5)--------|----------|-----------------------------------------------------|
|-(5)--------|----------|-----------------------------------------------------|
|-(3)--------|----------|-----------------------------------------------------|
|
|                               PM------------------------|
| +W             H          E   S     S    S    S     S     S    E  E  E E
|------------|----------|-----------------------------------------------------|
|------------|----------|-----------------------------------------------------|
|------------|----------|-----------------------------------------------------|
|-(5)--------|----------|-----------------------------------------------------|
|-(5)--------|----------|---7------------------------------------8-12-10-8----|
|-(3)--------|--/x\-----|---5---5-----5----5----5-----5-----5----6-10--8-6----|


                                                |---3---|
   S  T  T  S  S  S  S  S  S  S  S  S  S  S  S  S  S    S
|-17-18-17----17-18-22-17-18-21-17-18-17------------------|
|----------20----------------------------20-20-17-18---17-|
|---------------------------------------------------------|
|---------------------------------------------------------|
|---------------------------------------------------------|
|---------------------------------------------------------|
|
|           PM---------------------------------------|
|  E        S  S  S  S  S  S  S  S  S  S  S  S  S    S
|---------------------------------------------------------|
|---------------------------------------------------------|
|---------------------------------------------------------|
|---------------------------------------------------------|
|--7--------------------------------------5--5--8----8----|
|--5--------5--5--5--5--5--5--6--6--6--6------------------|


   S  S  S  S  S  S  S  S  S  S  S  S  S  S  S  S
|--------------------------------------------------|
|--------------------------------------------------|
|-19-18-------18-------18-------18-------18--------|
|-------20-19-------------20-19-------------20-19--|
|----------------20-19-------------20-19-----------|
|--------------------------------------------------|
|
|        PM------------|
|  E     S  S  S  S  S  S  E     E     E     E
|--------------------------------------------------|
|--------------------------------------------------|
|--------------------------------------------------|
|--------------------------------------------------|
|--7-----------------------8----12----10-----8-----|
|--5-----5--5--5--5--5--5--6----10-----8-----6-----|


                                       |------3------|
   S  S  S  S  S  S  S  S  S  S  S  S  S     +S     +S      +E
|-------------------18-17-15-17-18-22-21b22r(21)---(21)b22-(21)---|
|-----------------------------------------------------------------|
|----------21-19-18-----------------------------------------------|
|-20-19-17--------------------------------------------------------|
|-----------------------------------------------------------------|
|-----------------------------------------------------------------|
|
|        PM-----------------------------------------------------|
|  E     S  S  S  S  S  S  S  S  S  S  S         S           S  S
|-----------------------------------------------------------------|
|-----------------------------------------------------------------|
|-----------------------------------------------------------------|
|-----------------------------------------------------------------|
|--7-----------------------------------5---------5-----------8--8-|
|--5-----5--5--5--5--5--5--6--6--6--6-----------------------------|


   |--3--|  |--3--|  |--3--|  |--3--|  |--3--|  |-3--|  |-3--|  |-3--|
   S  S  S  S  S  S  S  S  S  S  S  S  S  S  S  S S  S  S S  S  S S  S
|----------10-12-13-12-10-----------------------------------------------|
|-10-12-13----------------13-12-10-13-12-10-----------------------------|
|-------------------------------------------12-10-9-12-10-9-------------|
|-----------------------------------------------------------12-10-9-12--|
|-----------------------------------------------------------------------|
|-----------------------------------------------------------------------|
|
|  H                                   H
|-----------------------------------------------------------------------|
|-----------------------------------------------------------------------|
|-----------------------------------------------------------------------|
|-----------------------------------------------------------------------|
|--3-----------------------------------5--------------------------------|
|--1-----------------------------------3--------------------------------|


                                                   \1/    \1/    \1/
   |-3--|  |--3---|  |--3---|  |--3---|            |------3------|
   S S  S  S S    S  S S    S  S S    S  Q        +E     +E     +E
|----------------------------------------------------------------------|
|----------------------------------------------------------------------|
|---------------------------------------[9]-------(9)----(9)----(9)----|
|-10-9-----------------------------------------------------------------|
|------12-10-8---12-10-8-----------------------------------------------|
|--------------------------12-10-8---10--------------------------------|
|
|          PM--------------------------------------------------------|
|  E       S   S     S   S     S   S     S  S S S  S   S      S      S
|----------------------------------------------------------------------|
|----------------------------------------------------------------------|
|----------------------------------------------------------------------|
|----------------------------------------------------------------------|
|--7-------------------------------------------------------------------|
|--5-------5---5-----5---5-----5---5-----5--5-5-5--5---5------5------5-|


  |--3--|  |-3--|  |-3--|  |--3--|  |--3--|  |--3--|  |--3--|  |--3--|
  S  S  S  S  S S  S S  S  S  S  S  S  S  S  S  S  S  S  S  S  S  S  S
|---------------8-10-8----------------------------10-12-10-------------|
|------------10--------10----------------------12----------12----------|
|---------10--------------10----------------12----------------12-------|
|------10--------------------10----------12----------------------12----|
|-8-12--------------------------12-10-14----------------------------14-|
|----------------------------------------------------------------------|
|
| H                                 H
|----------------------------------------------------------------------|
|----------------------------------------------------------------------|
|----------------------------------------------------------------------|
|----------------------------------------------------------------------|
|-3---------------------------------5----------------------------------|
|-1---------------------------------3----------------------------------|


  |--3--| |---3---|  |---3---|  |---3---|  |--3--|               |--3--|  |--3--|
  S  S  S S  S    S  S  S    S  S  S    S  S  S  S  T   T  T  T  S  S  S  S  S  S
|------------------------------------------------------------20S24-20-------------|
|---------------------------------------------------------------------20----------|
|-----------------------------------------17-19-21-16--17-19-------------21-17----|
|------------------------------14-15---17--------------------------------------17-|
|---------8-10---12-14-15---17----------------------------------------------------|
|-8-10-12-------------------------------------------------------------------------|
|
|         PM-------------------------|
| E       S    S     S    S     S    S     e        Q.
|---------------------------------------------------------------------------------|
|---------------------------------------------------------------------------------|
|---------------------------------------------------------------------------------|
|---------------------------------------------------------------------------------|
|-7----------------------------------------7--------------------------------------|
|-5-------5----5-----5----5-----5----5-----5--------------------------------------|


    PM--------|                 PM-------------------------|
  E S S S S S S  E  E  E  E   E S S S S S S S S S S S S  S  S
|---------------------------|----------------------------------|
|---------------------------|----------------------------------|
|---------------------------|----------------------------------|
|---------------------------|----------------------------------|
|-9-------------10-14-12-10-|-9---------------------7-7-10-10--|
|-7-7-7-7-7-7-7--8-12-10--8-|-7-7-7-7-7-7-7-8-8-8-8------------|


    PM--------|                 PM-------------------------|
  E S S S S S S  E  E  E  E   E S S S S S S S S S S S S  S  S
|---------------------------|----------------------------------|
|---------------------------|----------------------------------|
|---------------------------|----------------------------------|
|---------------------------|----------------------------------|
|-9-------------10-14-12-10-|-9---------------------7-7-10-10--|
|-7-7-7-7-7-7-7--8-12-10--8-|-7-7-7-7-7-7-7-8-8-8-8------------|


                PM------------------------|
  H    H      E S S S S S S S S S S S S S S
|-----------|-------------------------------|
|-----------|-------------------------------|
|-----------|-------------------------------|
|-----------|-------------------------------|
|-5----7----|-9-----------------------------|
|-3----5----|-7-7-7-7-7-7-7-7-7-7-7-7-7-7-7-|


                PM------------|
                    |-3-| |-3-|
  H    H      E S S S S S S S S E +E     Q
|-----------|--------------------------------|
|-----------|--------------------------------|
|-----------|--------------------------------|
|-----------|--------------------------------|
|-5----7----|-9-----------------9-(9)\-/17\--|
|-3----5----|-7-7-7-7-7-7-7-7-7-7-(7)\-------|


   |--3---|  |--3--|  |--3--|  |--3--|  |--3--|  |--3--|  |--3--|  |--3--|
   S   S  S  S  S  S  S  S  S  S  S  S  S  S  S  S  S  S  S  S  S  S  S  S
|-18--17-15----------------------------------------------------------------|
|-----------18-17-15-18-17-15----------------------------------------------|
|-----------------------------17-15-14-17-15-14----------------------------|
|-----------------------------------------------17-15-14-17-15-14----------|
|-----------------------------------------------------------------17-15-13-|
|--------------------------------------------------------------------------|
|
|  Q.        E  H
|--------------------------------------------------------------------------|
|--------------------------------------------------------------------------|
|--------------------------------------------------------------------------|
|--7---------5--3----------------------------------------------------------|
|--5---------3--1----------------------------------------------------------|
|--------------------------------------------------------------------------|


   S   S  S  S   S  S  S  S  H
|-------------------------------|
|-------------------------------|
|-------------------------------|
|--------12-14--15-14-12----12--|
|-12--15-----------------15-----|
|-------------------------------|
|
|  E.        E.        E  H
|-------------------------------|
|-------------------------------|
|-------------------------------|
|--3---------5---------7--7-----|
|--1---------3---------5--5-----|
|-------------------------------|


                                        \1/           \1/
   E     S      E     S      E     +E   S    S  S. a  S.   S
|-15b17-15pb17-15b17-15pb17-15b18-(15)-15p==13h15p13S15p==13-|
|-16b18-16pb18-16b18-16pb18-16b19-(16)-----------------------|
|------------------------------------------------------------|
|------------------------------------------------------------|
|------------------------------------------------------------|
|------------------------------------------------------------|
|
|  Q.                        E      H
|------------------------------------------------------------|
|------------------------------------------------------------|
|------------------------------------------------------------|
|--7-------------------------5------3------------------------|
|--5-------------------------3------1------------------------|
|------------------------------------------------------------|


      \1/           \1/
                                     ~~~~~~~~~~~
                                     |--3--|
   S  a    S  S  S  a    S  S  S  S  E  E  E  Q
|-15p13S==15p13-15p13S==15p13-15p13-17-15-13-----|
|--------------------------------------------15--|
|------------------------------------------------|
|------------------------------------------------|
|------------------------------------------------|
|------------------------------------------------|
|
|  E.            E.            E     H
|------------------------------------------------|
|------------------------------------------------|
|------------------------------------------------|
|--3-------------5-------------7-----7-----------|
|--1-------------3-------------5-----5-----------|
|------------------------------------------------|


   |--3---|  |--3--|   |--3--|  |--3--|  |--3--|  |--3--|  |--3--|  |--3--|
   S   S  S  S  S  S   S  S  S  S  S  S  S  S  S  S  S  S  S  S  S  S  S  S
|--------------13-17-/22-17----------------------------13-15-13-------------|
|-----------15--------------18----------------------15----------15----------|
|--------14--------------------19-14-------------15----------------15-------|
|-----15-----------------------------15-------15----------------------15----|
|-17------------------------------------13-17----------------------------17-|
|---------------------------------------------------------------------------|
|
|  Q.                           E        H
|---------------------------------------------------------------------------|
|---------------------------------------------------------------------------|
|---------------------------------------------------------------------------|
|--7----------------------------5--------3----------------------------------|
|--5----------------------------3--------1----------------------------------|
|---------------------------------------------------------------------------|


   |--3---|  |---3----|  |--3--|  |--3--|  |-----5-----|  |--3--|  |--3--|
   S   S  S  S  S     S  S  S  S  S  S  S  S  S  S  S  S  S  S  S  S  S  S
|--------------------15-17-15----------------------------------------18-20-|
|--------------17-------------17-------------------------17-18-20h22-------|
|-----------17-------------------17-------------15-17-19-------------------|
|--------17-------------------------17----17-19----------------------------|
|-15--19-------------------------------19----------------------------------|
|--------------------------------------------------------------------------|
|
|  E.             E.              E        H
|--------------------------------------------------------------------------|
|--------------------------------------------------------------------------|
|--------------------------------------------------------------------------|
|--3--------------5---------------7--------7-------------------------------|
|--1--------------3---------------5--------5-------------------------------|
|--------------------------------------------------------------------------|


           |3-|
   E    E  S  E  S  E  S  S  E  S  S  S
|-22--/22-------------------------------|
|---------18-22----18----------------18-|
|---------------17----17----17----17----|
|------------------------19----19-------|
|---------------------------------------|
|---------------------------------------|
|
|  Q.         E  H
|---------------------------------------|
|---------------------------------------|
|---------------------------------------|
|--7----------9-10----------------------|
|--5----------7--8----------------------|
|---------------------------------------|


   |--3--|  |--3--|   |--3--|  |--3--|  |--3--|  |--3--|  |--3--|  |--3--|
   S  S  S  S  S  S   S  S  S  S  S  S  S  S  S  S  S  S  S  S  S  S  S  S
|----------15-----------------15-17-18-20-18-17----------------------------|
|-15-17-18----18-17--15-17-18-------------------20-18-17-15-18-17-15-------|
|--------------------------------------------------------------------18-17-|
|--------------------------------------------------------------------------|
|--------------------------------------------------------------------------|
|--------------------------------------------------------------------------|
|
|  H           E  Q.
|--------------------------------------------------------------------------|
|--------------------------------------------------------------------------|
|--------------------------------------------------------------------------|
|-12----------14-----------------------------------------------------------|
|-10----------12-----------------------------------------------------------|
|--------------------------------------------------------------------------|


          \1/   \1/   \4
   Q.    +E    +E    +E   +Q                    W             W
|------------------------------|--------------|-------------|--------------|
|------------------------------|--------------|-------------|--------------|
|-16----(16)--(16)--(16)-(16)--|--------------|-------------|--------------|
|------------------------------|--------------|-------------|--------------|
|------------------------------|--------------|-------------|--------------|
|------------------------------|--------------|-------------|--------------|
|
|  Q.     E     H                E. E. E H      Q.   E H      E. E. E H
|------------------------------|--------------|-------------|--------------|
|------------------------------|--------------|-------------|--------------|
|------------------------------|--------------|-------------|--------------|
|--9------7-----5--------------|-5--7--7-9----|-9----7-5----|-5--7--7-9----|
|--7------5-----3--------------|-3--5--5-7----|-7----5-3----|-3--5--5-7----|
|------------------------------|--------------|-------------|--------------|


  Q.   E H      E. E. E H   Q.   E H      H    E +Q.
|-------------|-----------|-------------|----------------|
|-------------|-----------|-------------|----------------|
|-------------|-----------|-------------|----------------|
|-9----7-5----|-5--7--7-9-|-9----4-5----|-7----9-(9)\----|
|-7----5-3----|-3--5--5-7-|-7----4-5----|-7----9-(9)\----|
|-------------|-----------|-7----2-3----|-5----7-(7)\----|


   |---3---|  |--3--|  |--3--|  |--3--|  |--3--|  |--3--|  |--3--|  |--3--|
   S  S    S  S  S  S  S  S  S  S  S  S  S  S  S  S  S  S  S  S  S  S  S  S
|-24-19------------19-20-17----------17-19-15----------15-17-14----------14-|
|---------20----20----------19----19----------17----17----------16----16----|
|------------21----------------20----------------16----------------17-------|
|---------------------------------------------------------------------------|
|---------------------------------------------------------------------------|
|---------------------------------------------------------------------------|
|
|  E  H..
|---------------------------------------------------------------------------|
|---------------------------------------------------------------------------|
|--9------------------------------------------------------------------------|
|--9------------------------------------------------------------------------|
|--7------------------------------------------------------------------------|
|---------------------------------------------------------------------------|


                                                           ~~
   |--3--|  |---3---|  |--3--|  |--3--|  |--3--|  |--3--|
   S  S  S  S    S  S  S  S  S  S  S  S  S  S  S  S  S  S  Q
|-15-12------------------------------12-15----------------19--|
|-------12------------------------12-------17----------17-----|
|----------12------------------12-------------16----16--------|
|---------------14----------14-------------------17-----------|
|------------------14----14-----------------------------------|
|---------------------12--------------------------------------|
|
|  E        H..
|-------------------------------------------------------------|
|-------------------------------------------------------------|
|--9----------------------------------------------------------|
|--9----------------------------------------------------------|
|--7----------------------------------------------------------|
|-------------------------------------------------------------|


   |--3--|  |--3---|  |--3--|  |--3--|  |--3--|  |--3--|  |--3--|  |--3--|
   S  S  S  S   S  S  S  S  S  S  S  S  S  S  S  S  S  S  S  S  S  S  S  S
|-24-19-----------19-20-17----------17-19-15----------15-17-14----------14-|
|-------20-----20----------19----19----------17----17----------16----16----|
|----------21-----------------20----------------16----------------17-------|
|--------------------------------------------------------------------------|
|--------------------------------------------------------------------------|
|--------------------------------------------------------------------------|
|
|  E        H.                                                        S  S
|--------------------------------------------------------------------------|
|--------------------------------------------------------------------------|
|--9-----------------------------------------------------------------------|
|--9------------------------------------------------------------------x--x-|
|--7------------------------------------------------------------------x--x-|
|--------------------------------------------------------------------------|


                                                           ~~
   |--3--|  |---3---|  |--3--|  |--3--|  |--3--|  |--3--|
   S  S  S  S    S  S  S  S  S  S  S  S  S  S  S  S  S  S  Q
|-15-12------------------------------12-15----------------19--|
|-------12------------------------12-------17----------17-----|
|----------12------------------12-------------16----16--------|
|---------------14----------14-------------------17-----------|
|------------------14----14-----------------------------------|
|---------------------12--------------------------------------|
|
|  E        H..
|-------------------------------------------------------------|
|-------------------------------------------------------------|
|-------------------------------------------------------------|
|--2----------------------------------------------------------|
|--2----------------------------------------------------------|
|--0----------------------------------------------------------|


     |---3---|  |---3---|  |---3---|  |---3---|  |---3---|  |---3---|  |---3---|  |---3---|
     S  S    S  S  S    S  S  S    S  S  S    S  S  S    S  S  S    S  S  S    S  S  S    S
||--24-19--------------19-20-17--------------17-19-15--------------15-17-14--------------14-|
||o---------20----20--------------19----19--------------17----17--------------16----16------|
||-------------21--------------------20--------------------16--------------------17---------|
||------------------------------------------------------------------------------------------|
||o-----------------------------------------------------------------------------------------|
||------------------------------------------------------------------------------------------|
|
|    S    S     S    S     S    S     S    S     S    S     S    S     S    S     S    S
||------------------------------------------------------------------------------------------|
||o-----------------------------------------------------------------------------------------|
||------------------------------------------------------------------------------------------|
||------------------------------------------------------------------------------------------|
||o--7----7-----7----7-----6----6-----6----6-----7----7-----7----7--------------------------|
||---------------------------------------------------------------------7----7-----7----7----|


                                                                      ~~~
   |---3---|  |---3---|  |---3---|  |---3---|  |---3---|  |---3---|
   S  S    S  S  S    S  S  S    S  S  S    S  S  S    S  S  S    S   Q
|-15-12--------------12-15-12--------------12-14-11--------------11-/23--------||
|---------13----13--------------12----12--------------12----12----------------o||
|------------12--------------------12--------------------11--------------------||
|------------------------------------------------------------------------------||
|-----------------------------------------------------------------------------o||
|------------------------------------------------------------------------------||
|
|  S    S     S    S     S    S     S    S     S    S     S    S      S S S S
|------------------------------------------------------------------------------||
|-----------------------------------------------------------------------------o||
|------------------------------------------------------------------------------||
|------------------------------------------------------------------------------||
|------------------------7----7-----7----7-----9----9-----9----9--------------o||
|--8----8-----8----8--------------------------------------------------7-7-7-7--||


                                                                     ~~~~~~~
   E  S  S  S  S  S  E     S  S  E  S  E   E   E.    +E.            +H
|----------15-------19----17-15-22-19----|----24b27r(24)b27r=======(24)b27----|
|----17-19----19-17-------------------20-|------------------------------------|
|-16-------------------------------------|------------------------------------|
|----------------------------------------|------------------------------------|
|----------------------------------------|------------------------------------|
|----------------------------------------|------------------------------------|
|
|                                                            \0.5/   \0.5/
|  E  S  E     S  E     E     S  E  S  E   Q.               +E      +H
|----------------------------------------|------------------------------------|
|----------------------------------------|------------------------------------|
|----------------------------------------|------------------------------------|
|--------------------------------7--7--7-|-9----------------(9)-----(9)-------|
|--7--x--9-----9--9----10-----x--5--5--5-|-7----------------(7)-----(7)-------|
|--5--x--7-----7--7-----8-----x----------|------------------------------------|


                                                         \1/   \1/
   S  S  S  S  S  S  S  S  S  S  S  e     S  E    Q.    +E    +H
|-24-19-------22-19-------------19-21b22-19----|----------------------|
|-------22-20-------20-19-20-22-------------22-|-20----(20)--(20)-----|
|----------------------------------------------|----------------------|
|----------------------------------------------|----------------------|
|----------------------------------------------|----------------------|
|----------------------------------------------|----------------------|
|
|  E     S  E     S  E     E     S  E     S  E    W
|----------------------------------------------|----------------------|
|----------------------------------------------|----------------------|
|----------------------------------------------|----------------------|
|--9-----x--5-----5--5--------------7-----7--7-|--5-------------------|
|--7-----x--3-----3--3-----5-----x--5-----5--5-|--3-------------------|
|--------------------------3-----x-------------|----------------------|


   |--3--|  |---3---|  |---3---|  |--3--|  |--3--|  |---3---|  |---3---|  |--3--|
   S  S  S  S  S    S  S  S    S  S  S  S  S  S  S  S  S    S  S  S    S  S  S  S
|------------------------------------------------------------------------17-19-20-|
|-------------------------------------------------------------17-19---20----------|
|--------------------------------16-17-19----------16-17---19---------------------|
|---------------------16-17---19----------16-17-19--------------------------------|
|----------15-17---19-------------------------------------------------------------|
|-15-17-19------------------------------------------------------------------------|
|
|  E        S    E          S     E        E        S    E          S     E
|---------------------------------------------------------------------------------|
|---------------------------------------------------------------------------------|
|---------------------------------------------------------------------------------|
|----------------5----------5-----5--------7--------x----5----------5-----5-------|
|--5--------x----3----------3-----3--------5--------x----3----------3-----3-------|
|--3--------x---------------------------------------------------------------------|


   |--3--|  |--3--|  |--3--|  |--3--|  |--3--|  |--3--|  |--3--|  |--3--|
   S  S  S  S  S  S  S  S  S  S  S  S  S  S  S  S  S  S  S  S  S  S  S  S
|-22-20-19----------------------------------------------------------------|
|----------22-20-19-17-20-19-17-------------------------------------------|
|-------------------------------19-17-16-19-17-16-------------------------|
|-------------------------------------------------19-17-16-19-17-16-------|
|-------------------------------------------------------------------19-17-|
|-------------------------------------------------------------------------|
|
|  W
|-------------------------------------------------------------------------|
|-------------------------------------------------------------------------|
|-------------------------------------------------------------------------|
|-------------------------------------------------------------------------|
|--5----------------------------------------------------------------------|
|--3----------------------------------------------------------------------|


   S  S S  S  S  S  S  S  S  S  S  S  S  S  S  S
|---------------------------------------17-22----|
|---------------------------17-20-17-19-------19-|
|------------------16-19-17----------------------|
|---------16-19-17-------------------------------|
|-15-19------------------------------------------|
|------------------------------------------------|
|
|  E  S E  S  E  E  S  E  S  E
|------------------------------------------------|
|------------------------------------------------|
|----------------7--x----------------------------|
|--5--x-7--7--7--5--x--7--7--7-------------------|
|--3--x-5--5--5--------5--5--5-------------------|
|------------------------------------------------|


   S  S  S  S  e  S  S  S  S  E   Q
|--------------------------------------|
|-20-20-20-20-20-20-20-20-20-20\-------|
|--------------------------------------|
|--------------------------------------|
|--------------------------------------|
|--------------------------------------|
|
|  S  S  S  S  e  S  S  S  S  E   Q
|--------------------------------------|
|--------------------------------------|
|--9--9--9--9--9--9--9--9--9--9\-------|
|--9--9--9--9--9--9--9--9--9--9\-------|
|--7--7--7--7--7--7--7--7--7--7\-------|
|--------------------------------------|
comments
print report bad tab
21 comments total. Showing first comments.
0 reply
EpitaphMan440 wrote on March 8 2003, 12:00 am

Great work man. Congrats very, very good!

0 reply
connak wrote on April 27 2003, 12:00 am

holy sh-t

0 reply
just a random g wrote on November 30 2004, 12:00 am

dude this is sweet, gonna take me a while 2 learn this 1. (25 pages!)

I want to post or [tab]
guest
You may want to rate the tab now too:
select rating
Please do not post tabs as comments. Select "correction" instead!