Oops, an error
Loading. Please wait.

Lake Bodom Bass Tab

ver1
ver1
More versions @911Tabs.com
2,470 views 3 this week
1 commentread comment
1 2 3 4 5
worth learning
x 3
Autoscroll
+/-
esc
set tempo
stop
Contributor
Hey! There's an official Ultimate Guitar app which is ideal
for learning songs when you're away from computer. Get the app
WARNING: You are trying to view
                                    content from Ultimate-Guitar.com
                                    in an unauthorized application,
                                    which is prohibited.

                                    Please use an official Ultimate
                                    Guitar Tabs application for iPhone,
                                    iPad or Android to access legitimate
                                    chords, guitar, bass, and drum tabs
                                    from Ultimate-Guitar.com database.

                                    Type "ultimate guitar tabs" in Apple
                                    App Store's or Android Market's
                                    search to find the application.
Tune Down

C#||-----|------------------|------------------||---------------------|
G#||-----|------------------|------------------||---------------------|
E ||-----|------------------|------------------||*--------------------|
B ||-----|------------------|------------------||*--------------------|
F#||--0--|------------------|------------------||---0--------------0--|
C#||-----|------------------|------------------||---------------------|


                      2x                             
----------------------||----------------------------|
----------------------||----------------------------|
---------------------*||*---------------------------|
---------------------*||*---------------------------|
--0--------3----------||---0--0--0--0--0-0-0--0--0--|
----------------3-----||----------------------------|


                          3x                                       
--------------------------||-------------------|------------------|
--------------------------||-------------------|------------------|
-------------------------*||-------------------|------------------|
-------------------------*||-------------------|------------------|
--0--0--0-0-0--3----------||-------------------|------------------|
--------------------3-----||--0----------------|------------------|


                                                             
------------------|---------------------|-------------------|
------------------|---------------------|-------------------|
------------------|---------------------|-------------------|
------------------|---------------------|-------------------|
------------------|---------------------|--0----------------|
------------------|------------0--1--3--|-------------------|


                                                                
---------------------|-------------------|---------------------|
---------------------|-------------------|---------------------|
---------------------|-------------------|---------------------|
---------------------|-------------------|---------------------|
---------------------|--0----------------|---------------------|
------------0--1--3--|-------------------|------------0--1--3--|


                                                                         
-------------------|---------------------||-----------------------------|
-------------------|---------------------||-----------------------------|
-------------------|---------------------||*----------------------------|
-------------------|---------------------||*----------------------------|
--0----------------|---------------------||---0--0-0--0-0-0-0---0--0-0--|
-------------------|------------0--1--3--||-----------------------------|


                           2x                                                 
---------------------------||----------------------------|-------------------|
---------------------------||----------------------------|-------------------|
--------------------------*||----------------------------|-------------------|
--------------------------*||----------------------------|-------------------|
--0---0--0-0--0------------||--0--0-0--0-0-0-0---0--0-0--|----------0--------|
-----------------0--1--3---||----------------------------|-------------------|


                                                         
----------------------------|---------------------------|
----------------------------|---------------------------|
----------------------------|---------------------------|
----------------------------|------------7--7-----------|
--0--0-0-0--0--0--0-0-0--0--|--0--0-0-0-----------------|
----------------------------|------------------0--1--3--|


                                                         
----------------------------|---------------------------|
----------------------------|---------------------------|
----------------------------|---------------------------|
----------------------------|---------------------------|
--0--0-0-0--0--0--0-0-0--0--|--0--0-0-0--0--0-----------|
----------------------------|------------------0--1--3--|


                                                         
----------------------------|---------------------------|
----------------------------|---------------------------|
----------------------------|---------------------------|
----------------------------|---------------------------|
--0--0-0-0--0--0--0-0-0--0--|--0--0-0-0--0--0-----------|
----------------------------|------------------0--1--3--|


                                                              
----------------------------|--------------------------------|
----------------------------|--------------------------------|
----------------------------|--------------------------------|
----------------------------|--------------------------------|
--0--0-0-0--0--0--0-0-0--0--|--0--0-0-0-0-0-0----------------|
----------------------------|-----------------x----x----x----|


                                                         
----------------------------|---------------------------|
----------------------------|---------------------------|
----------------------------|---------------------------|
----------------------------|---------------------------|
----------------------------|---------------------------|
--0--0-0--0-0--0--0-0--0-0--|--0--0-0--0-0--0--0--3--2--|


                                                             
|-----------------------------|----------------------------||
|-----------------------------|----------------------------||
|*----------------------------|---------------------------*||
|*----------------------------|---------------------------*||
|-----------------------------|----------------------------||
|---0--0-0--0-0--0--0-0--0-0--|--0--0-0--0-0--0--0--3--2---||


                                                         
----------------------------|---------------------------|
----------------------------|---------------------------|
----------------------------|---------------------------|
----------------------------|---------------------------|
----------------------------|------------------------3--|
--0--0-0--0-0--0--0-0--0-0--|--0--0-0--0-0--0--0--3-----|


                                                                      
----------------------------------|----------------------------------|
----------------------------------|----------------------------------|
----------------------------------|----------------------------------|
----------------------------------|----------------------------------|
--2-2-2-2-2-2-2-2-2-2-2-2-2-2-2-2-|--3-3-3-3-3-3-3-3-3-3-3-3-3-3-3-3-|
----------------------------------|----------------------------------|


                                                               
----------------------------------|---------------------------|
----------------------------------|---------------------------|
----------------------------------|---------------------------|
----------------------------------|----------5-5-5-5----------|
--2-2-2-2-2-2-2-2-3-3-3-3-5-5-5-5-|--3-3-3-3---------3--------|
----------------------------------|---------------------------|


                                                                          
------------------------------|------------------------------------------|
------------------------------|------------------------------------------|
------------------------------|------------------------------------------|
--9--9-9-9-9-9--9--9-9-9--9-9-|--10--10-10-10-10-10--10--10-10-10--10-10-|
------------------------------|------------------------------------------|
------------------------------|------------------------------------------|


                                                  
----------------------------|--------------------|
----------------------------|--------------------|
----------------------------|--------------------|
--7--7-7-7-7-7--9--9-9-9----|--------------------|
----------------------------|--7--------7--------|
----------------------------|--------------------|


                                                                      
----------------------------------|----------------------------------|
----------------------------------|----------------------------------|
----------------------------------|----------------------------------|
----------------------------------|----------------------------------|
--2-2-2-2-2-2-2-2-2-2-2-2-2-2-2-2-|--3-3-3-3-3-3-3-3-3-3-3-3-3-3-3-3-|
----------------------------------|----------------------------------|


                                                               
----------------------------------|---------------------------|
----------------------------------|---------------------------|
----------------------------------|---------------------------|
----------------------------------|----------5-5-5-5----------|
--2-2-2-2-2-2-2-2-3-3-3-3-5-5-5-5-|--3-3-3-3---------3--------|
----------------------------------|---------------------------|


                                                                          
------------------------------|------------------------------------------|
------------------------------|------------------------------------------|
------------------------------|------------------------------------------|
--9--9-9-9-9-9--9--9-9-9--9-9-|--10--10-10-10-10-10--10--10-10-10--10-10-|
------------------------------|------------------------------------------|
------------------------------|------------------------------------------|


                                                   
----------------------------|---------------------|
----------------------------|---------------------|
----------------------------|---------------------|
--7--7-7-7-7-7--9--9-9-9----|---------------------|
----------------------------|---------------------|
----------------------------|--0-------0-0--------|


                                                                        
|-----------------------------------|----------------------------------|
|-----------------------------------|----------------------------------|
|*----------------------------------|----------------------------------|
|*----------------------------------|----------------------------------|
|-----------------------------------|----------------------------------|
|---3-3-3-3-3-3-1-1-3-3-3-3-1-1-1-1-|--3-3-3-3-3-3-3-3-3-3-3-3-1-1-1-1-|


                                                                       
----------------------------------|----------------------------------||
----------------------------------|----------------------------------||
----------------------------------|---------------------------------*||
----------------------------------|---------------------------------*||
----------------------------------|------------------6-6-6-6-6-6-6---||
--3-3-3-3-3-3-1-1-3-3-3-3-1-1-1-1-|--1-1-1-1-1-1-1-1-----------------||


                                                         
---------------------------|----------------------------|
---------------------------|----------------------------|
---------------------------|----------------------------|
---------------------------|----------------------------|
--5--5--5--5--5-5-5--5--5--|--5--5-5-5-5-5--1--1--3--3--|
---------------------------|----------------------------|


                                                        
---------------------------|---------------------------|
---------------------------|---------------------------|
---------------------------|---------------------------|
---------------------------|---------------------------|
--5--5--5--5--5-5-5--5--5--|--5--5-5-5-5-5--8--8--3----|
---------------------------|---------------------------|


                                                       
---------------------------|--------------------------|
---------------------------|--------------------------|
---------------------------|--------------------------|
---------------------------|--------------------------|
--5--5--5--5--5-5-5--5--5--|--5--5-5-5-5-5--1----3----|
---------------------------|--------------------------|


                                                          
---------------------------|-----------------------------|
---------------------------|-----------------------------|
---------------------------|-----------------------------|
---------------------------|-----------------------------|
--5--5--5--5--5-5-5--5--5--|--5-5-5-5-5-5-5-5-5--8--3----|
---------------------------|-----------------------------|


                                                           2x
|-----------------------------|----------------------------||
|-----------------------------|----------------------------||
|*----------------------------|---------------------------*||
|*----------------------------|---------------------------*||
|-----------------------------|------------------2--3--5---||
|---0--0-0--0-0--0--0-0--0-0--|--0--0-0--0-0--0------------||


                                                                                
----------------------------|---------------------------|----------------------|
----------------------------|---------------------------|----------------------|
----------------------------|---------------------------|----------------------|
----------------------------|---------------------------|----------------------|
----------------------------|------------------2--3--5--|----------------------|
--0--0-0--0-0--0--0-0--0-0--|--0--0-0--0-0--0--0--------|--0----0--2--3--------|


                                                                    
----------------------|----------------------|---------------------|
----------------------|----------------------|---------------------|
----------------------|----------------------|---------------------|
----------------------|----------------------|---------------------|
--5--------7----7--5--|----------------------|--5----2----7--------|
----------------------|--0----0--2--3--------|---------------------|


                                                                      
----------------------------------|----------------------------------|
----------------------------------|----------------------------------|
----------------------------------|----------------------------------|
----------------------------------|----------------------------------|
----------------------------------|--5-5-5-5-5-5-5-5-0-0-0-0-0-0-0-0-|
--0-0-0-0-0-0-2-2-3-3-3-3-3-3-3-3-|----------------------------------|


                                                                               
----------------------------------|-----------------------|-------------------|
----------------------------------|-----------------------|-------------------|
----------------------------------|-----------------------|-------------------|
----------------------------------|-----------------------|-------------------|
----------------------------------|--3--3--5--5--7--------|-------------------|
--0-0-0-0-0-0-2-2-3-3-3-3-3-3-3-3-|-----------------------|--0----------------|


                                                                
---------------------|-------------------|---------------------|
---------------------|-------------------|---------------------|
---------------------|-------------------|---------------------|
-----------5----4----|-------------------|---------------------|
---------------------|-------------------|-----------3----5----|
--0------------------|--0----------------|--0------------------|


                                                                
----------------------------------|----------------------------|
----------------------------------|----------------------------|
----------------------------------|----------------------------|
----------------------------------|----------------------------|
----------------------------------|----------------------------|
--2-2-2-2-2-2-2-2-5-5-2-2-5-5-0-0-|--2-2-2-2-2-2-2-2-5----0----|


                                                               
----------------------------------|---------------------------|
----------------------------------|---------------------------|
----------------------------------|---------------------------|
----------------------------------|---------------------------|
----------------------------------|----------------------7----|
--2-2-2-2-2-2-2-2-5-5-2-2-5-5-0-0-|--2--2-2-2-2-2-2-5---------|


                                                              
---------------------------------|---------------------------|
---------------------------------|---------------------------|
---------------------------------|---------------------------|
---------------------------------|---------------------------|
---------------------------------|---------------------------|
--2--2-2-2-2-2-2-5-5-2-2-5-5-0-0-|--2--2-2-2-2-2-2-5----0----|


                                                          
----------------------------------|----------------------|
----------------------------------|----------------------|
----------------------------------|----------------------|
----------------------------------|----------------------|
--2-2-2-2-2-2-2-2-4-4-4-4-4-4-4-4-|--5----4--4-----------|
----------------------------------|-------------2--------|


                                                               
---------------------------------|----------------------------|
---------------------------------|----------------------------|
---------------------------------|----------------------------|
---------------------------------|----------------------------|
--3--3-3-3-3-3-3-6-6-3-3-6-6-----|--3-3-3-3-3-3-3-3-6----1----|
-----------------------------6-6-|----------------------------|


                                                               
---------------------------------|----------------------------|
---------------------------------|----------------------------|
---------------------------------|----------------------------|
---------------------------------|----------------------------|
--3--3-3-3-3-3-3-6-6-3-3-6-6-----|--3-3-3-3-3-3-3-3-----------|
-----------------------------6-6-|------------------4----6----|


                                                               
---------------------------------|----------------------------|
---------------------------------|----------------------------|
---------------------------------|----------------------------|
---------------------------------|----------------------------|
--3--3-3-3-3-3-3-6-6-3-3-6-6-----|--3-3-3-3-3-3-3-3-6----1----|
-----------------------------6-6-|----------------------------|


                                                          
---------------------------------|-----------------------|
---------------------------------|-----------------------|
---------------------------------|-----------------------|
---------------------------------|-----------------------|
--3--3-3-3-3-3-3-6-6-3-3-6-6-----|--3---5---6---7---8----|
-----------------------------6-6-|-----------------------|


                                                                      
----------------------------------|----------------------------------|
----------------------------------|----------------------------------|
----------------------------------|----------------------------------|
----------------------------------|----------------------------------|
----------------------------------|----------------------------------|
--3-3-3-3-3-3-1-1-3-3-3-3-1-1-1-1-|--3-3-3-3-3-3-3-3-3-3-3-3-1-1-1-1-|


                                                                     
----------------------------------|---------------------------------|
----------------------------------|---------------------------------|
----------------------------------|---------------------------------|
----------------------------------|---------------------------------|
----------------------------------|------------------6-6-6-6-6-6-6--|
--3-3-3-3-3-3-1-1-3-3-3-3-1-1-1-1-|--1-1-1-1-1-1-1-1----------------|


                                                                      
----------------------------------|----------------------------------|
----------------------------------|----------------------------------|
----------------------------------|----------------------------------|
----------------------------------|----------------------------------|
----------------------------------|----------------------------------|
--3-3-3-3-3-3-1-1-3-3-3-3-1-1-1-1-|--3-3-3-3-3-3-3-3-3-3-3-3-1-1-1-1-|


                                                                     
----------------------------------|---------------------------------|
----------------------------------|---------------------------------|
----------------------------------|---------------------------------|
----------------------------------|---------------------------------|
----------------------------------|------------------6-6-6-6-6-6-6--|
--3-3-3-3-3-3-1-1-3-3-3-3-1-1-1-1-|--1-1-1-1-1-1-1-1----------------|


                                                                                
-------------------|-------------------|-------------------|-------------------|
-------------------|-------------------|-------------------|-------------------|
-------------------|-------------------|-------------------|-------------------|
-------------------|-------------------|-------------------|-------------------|
--0----------------|--6----------------|--0----------------|--6----------------|
-------------------|-------------------|-------------------|-------------------|


                                                                               
------------------|------------------|------------------|---------------------|
------------------|------------------|------------------|---------------------|
------------------|------------------|------------------|---------------------|
------------------|------------------|------------------|---------------------|
------------------|------------------|------------------|---------------------|
------------------|------------------|------------------|------------0--1--3--|


                                                               
-------------------|---------------------|--------------------|
-------------------|---------------------|--------------------|
-------------------|---------------------|--------------------|
-------------------|---------------------|--------------------|
--0----------------|---------------------|--0-----------------|
-------------------|------------0--1--3--|-----------1--------|


                                                                 
-------------------|----------------------|---------------------|
-------------------|----------------------|---------------------|
-------------------|----------------------|---------------------|
-------------------|----------------------|---------------------|
-------------------|--0----0--2--3--------|-----------0---------|
--0----------------|----------------------|--3---------------3--|


                                                                             
---------------------|---------------------|--------------------------------|
---------------------|---------------------|--------------------------------|
---------------------|---------------------|--------------------------------|
---------------------|---------------------|--------------------------------|
--0------2--3--------|------------0--------|--0--0-0-0-0-2-2-3--3-3-3-3-3-3-|
---------------------|--0----3-------------|--------------------------------|


                                                                    
--------------------------------|----------------------------------|
--------------------------------|----------------------------------|
--------------------------------|----------------------------------|
--------------------------------|----------------------------------|
-----------------5--5-5-5-5-5-5-|--0-0-0-0-0-0-2-2-3-3-3-3-3-3-3-3-|
--3--3-3-3-3-3-3----------------|----------------------------------|


                       
---------------------||
---------------------||
---------------------||
--3----5----7~-------||
--3----5----7~-------||
--1----3----5~-------||
comments
We did not receive enough feedback on this tab! Please rate:
print report bad tab
1 2 3 4 5
1 comment total.
0 reply
Carlun wrote on April 2 2009, 01:22 am

can't you pleaze take away some strings?
In the tab you neber use 2 of the strings...

I want to post or [tab]
guest
You may want to rate the tab now too:
select rating
Please do not post tabs as comments. Select "correction" instead!