Oops, an error
Loading. Please wait.

Lake Bodom Tab

ver2
ver2
More versions @911Tabs.com
6,055 views 3 this week
7 commentsread comments
1 2 3 4 5
accurate
x 5
Autoscroll
+/-
esc
set tempo
stop
WARNING: You are trying to view
                                    content from Ultimate-Guitar.com
                                    in an unauthorized application,
                                    which is prohibited.

                                    Please use an official Ultimate
                                    Guitar Tabs application for iPhone,
                                    iPad or Android to access legitimate
                                    chords, guitar, bass, and drum tabs
                                    from Ultimate-Guitar.com database.

                                    Type "ultimate guitar tabs" in Apple
                                    App Store's or Android Market's
                                    search to find the application.
Gtr I (Db Gb B E Ab Db) - 'Alexi:Lead Guitar'
Gtr II (Db Gb B E Ab Db) - 'Alexander:Rythym Guitar'

Key:
n(n) - tapped harmonic

This tab is pretty accurate. If you see any mistakes or have any suggestions/comments
please e-mail them to DeThRoNeD ChRiSt@aol.com.

  
  Gtr I
|---|---5-7-8-------------12-17-(17)----|----5-7-8----------15-13-12-10-8-7----|
|---|-5-------10-10-12-13---------------|----------10-12-13-----------------8--|
|---|-----------------------------------|--------------------------------------|
|---|-----------------------------------|--------------------------------------|
|---|--------------------------------19-|-19-----------------------------------|
|---|-----------------------------------|--------------------------------------|
|
| Gtr II
|---|-----------------------------------|--------------------------------------|
|---|-----------------------------------|--------------------------------------|
|---|-----------------------------------|--------------------------------------|
|---|-----------------------------------|--------------------------------------|
|-7-|-7-------------------------------7-|--7-----------------3--------5--------|
|-5-|-5-------------------------------5-|--5-----------------1--------3--------|


|------------------------12-17-(17)----|
|---10-12-13-------12-13---------------|
|-9----------14-14---------------------|
|--------------------------------------|
|-----------------------------------19-|
|--------------------------------------|
|
|--------------------------------------|
|--------------------------------------|
|--------------------------------------|
|--------------------------------------|
|-7----------------------------------7-|
|-5----------------------------------5-|


|----5-7-8----------12-15-13-12-10-8-7---|
|----------10-12-13--------------------8-|
|----------------------------------------|
|----------------------------------------|
|-19-------------------------------------|
|----------------------------------------|
|
|----------------------------------------|
|--------------------1-------------------|
|--------------------0-------------------|
|----------------------------------------|
|--7-----------------3-----------5-------|
|--5-----------------------------3-------|


|------------------------12-17-(17)----|
|---10-12-13-------12-13---------------|
|-9----------14-14---------------------|
|--------------------------------------|
|-----------------------------------19-|
|--------------------------------------|
|
|--------------------------------------|
|--------------------------------------|
|--------------------------------------|
|--------------------------------------|
|-7----------------------------------7-|
|-5----------------------------------5-|


|----5-7-8----------12-15-13-12-10-8-7---|
|----------10-12-13--------------------8-|
|----------------------------------------|
|----------------------------------------|
|-19-------------------------------------|
|----------------------------------------|
|
|----------------------------------------|
|--------------------1-------------------|
|--------------------0-------------------|
|----------------------------------------|
|--7-----------------3-----------5-------|
|--5-----------------------------3-------|


|------------------------12-17-(17)----|
|---10-12-13-------12-13---------------|
|-9----------14-14---------------------|
|--------------------------------------|
|-----------------------------------19-|
|--------------------------------------|
|
|--------------------------------------|
|--------------------------------------|
|--------------------------------------|
|--------------------------------------|
|-7----------------------------------7-|
|-5----------------------------------5-|


|----5-7-8----------12-15-13-12-10-8-7---|
|----------10-12-13--------------------8-|
|----------------------------------------|
|----------------------------------------|
|-19-------------------------------------|
|----------------------------------------|
|
|----------------------------------------|
|--------------------1-------------------|
|--------------------0-------------------|
|----------------------------------------|
|--7-----------------3-----------5-------|
|--5-----------------------------3-------|


|------------------------12-17-(17)----|
|---10-12-13-------12-13---------------|
|-9----------14-14---------------------|
|--------------------------------------|
|-----------------------------------19-|
|--------------------------------------|
|
|--------------------------------------|
|--------------------------------------|
|--------------------------------------|
|--------------------------------------|
|-7-----7-----7--7-----7--7--7---7---7-|
|-5-----5-----5--5-----5--5--5---5---5-|


|----5-7-8------------12-15-13-12-10-8-7---|
|----------10---12-13--------------------8-|
|------------------------------------------|
|------------------------------------------|
|-19---------------------------------------|
|------------------------------------------|
|
|------------------------------------------|
|----------------------1-------------------|
|----------------------0-------------------|
|------------------------------------------|
|--7---7----7-7--7-----3-----------5-------|
|--5---5----5-5--5-----------------3-------|


|------------------------12-17-(17)----|
|---10-12-13-------12-13---------------|
|-9----------14-14---------------------|
|--------------------------------------|
|-----------------------------------19-|
|--------------------------------------|
|
|--------------------------------------|
|--------------------------------------|
|--------------------------------------|
|--------------------------------------|
|-7-----7-----7--7-----7--7--7---7---7-|
|-5-----5-----5--5-----5--5--5---5---5-|


|----5-7-8------------12-15-13-12-10-8-7---|
|----------10---12-13--------------------8-|
|------------------------------------------|
|------------------------------------------|
|-19---------------------------------------|
|------------------------------------------|
|
|------------------------------------------|
|----------------------1-------------------|
|----------------------0-------------------|
|------------------------------------------|
|--7---7----7-7--7-----3-----------5-------|
|--5---5----5-5--5-----------------3-------|


|------------------------12-17-(17)----|
|---10-12-13-------12-13---------------|
|-9----------14-14---------------------|
|--------------------------------------|
|-----------------------------------19-|
|--------------------------------------|
|
|--------------------------------------|
|--------------------------------------|
|--------------------------------------|
|--------------------------------------|
|-7-----7-----7--7-----7--7--7---7---7-|
|-5-----5-----5--5-----5--5--5---5---5-|


|----5-7-8------------12-15-13-12-10-8-7---|
|----------10---12-13--------------------8-|
|------------------------------------------|
|------------------------------------------|
|-19---------------------------------------|
|------------------------------------------|
|
|------------------------------------------|
|----------------------1-------------------|
|----------------------0-------------------|
|------------------------------------------|
|--7---7----7-7--7-----3-----------5-------|
|--5---5----5-5--5-----------------3-------|


|------------------------12-17-(17)----|
|---10-12-13-------12-13---------------|
|-9----------14-14---------------------|
|--------------------------------------|
|-----------------------------------19-|
|--------------------------------------|
|
|--------------------------------------|
|--------------------------------------|
|--------------------------------------|
|--------------------------------------|
|-7-----7-----7--7-----7--7--7---7---7-|
|-5-----5-----5--5-----5--5--5---5---5-|


|----5-7-8------------12-15-13-12-10-8-7---|
|----------10---12-13--------------------8-|
|------------------------------------------|
|------------------------------------------|
|-19---------------------------------------|
|------------------------------------------|
|
|------------------------------------------|
|----------------------1-------------------|
|----------------------0-------------------|
|------------------------------------------|
|--7---7----7-7--7-----3-----------5-------|
|--5---5----5-5--5-----------------3-------|


|-------------------------7-5-4---5-4---|---4-------1-0-1---1---1---1---1-|
|------9-10-12-13-12-10-9-------6-----6-|-5---6-5-3-------3---1---0-------|
|-9-10----------------------------------|-----------------------------1---|
|---------------------------------------|---------------------------------|
|---------------------------------------|---------------------------------|
|---------------------------------------|---------------------------------|
|
|---------------------------------------|---------------------------------|
|---------------------------------------|---------------------------------|
|---------------------------------------|---------------------------------|
|---------------------------------------|---------------------------------|
|-2-------------------------------------|---------------------------------|
|-0-------------------------------------|---------------------------------|


|---------------------------------|---------------------------|
|---------------------------------|---------------------------|
|--2------------------------------|---------------------------|
|---------------------------------|---------------------------|
|---------------------------------|--------------------0-3--5-|
|---------------------------------|--------------------0-1--3-|
|
|---------------------------------|---------------------------|
|---------------------------------|---------------------------|
|---------------------------------|---------------------------|
|---------------------------------|---------------------------|
|-12-0-0-(0)-0-12-14-0-0-(0)-0-15-|-17-0-0-(0)-0-17-19-7-8-10-|
|-12---------------------------15-|-15-----------17-17-5-8--7-|


|----------------------------------|
|----------------------------------|
|----------------------------------|
|----------------------------------|
|--7-------------------------------|
|--5-------------------------------|
|
|----------------------------------|
|----------------------------------|
|----------------------------------|
|----------------------------------|
|-12-0-0-(0)-0-12-14-0-0-(0)-0-15--|
|-12---------------------------15--|


|---------------------------|---------------------------------|
|---------------------------|---------------------------------|
|---------------------------|---------------------------------|
|---------------------------|---------------------------------|
|--------------------0-3--5-|--7------------------------------|
|--------------------0-1--3-|--5------------------------------|
|
|---------------------------|---------------------------------|
|---------------------------|---------------------------------|
|---------------------------|---------------------------------|
|---------------------------|---------------------------------|
|-17-0-0-(0)-0-17-19-7-8-10-|-12-0-0-(0)-0-12-14-0-0-(0)-0-15-|
|-15-----------17-17-5-8--7-|-12---------------------------15-|


|------------------------------|
|------------------------------|
|------------------------------|
|------------------------------|
|--------------------0--0---0--|
|--------------------0--0---0--|
|
|------------------------------|
|------------------------------|
|------------------------------|
|------------------------------|
|-17-0-0-(0)-0-17-19-7--8--10--|
|-15-----------17-17-5--8---7--|


|-----------------------------------|---------------------------|
|-----------------------------------|---------------------------|
|-----------------------------------|---------------------------|
|-----------------------------------|---------------------------|
|--7--------------------------------|------------------7-7-3--5-|
|--5-5-5-(5)-5--5-5--5---5-(5)-5--5-|--5---5-(5)-5--5--5-8-1--3-|
|
|-----------------------------------|---------------------------|
|-----------------------------------|---------------------------|
|-----------------------------------|---------------------------|
|-----------------------------------|---------------------------|
|-12-0-0-(0)-0-12---14-0-0-(0)-0-15-|-17-0-0-(0)-0-17-19-7-8-10-|
|-12-----------------------------15-|-15-----------17-17-5-8--7-|


|------------------------------------|
|------------------------------------|
|------------------------------------|
|------------------------------------|
|--7---------------------------------|
|--5-5-5-(5)-5--5-5--5---5-(5)-5--5--|
|
|------------------------------------|
|------------------------------------|
|------------------------------------|
|------------------------------------|
|-12-0-0-(0)-0-12---14-0-0-(0)-0-15--|
|-12-----------------------------15--|


|---------------------------|
|---------------------------|
|---------------------------|
|---------------------------|
|------------------7-7-3--5-|
|--5---5-(5)-5--5--5-8-1--3-|
|
|---------------------------|
|---------------------------|
|---------------------------|
|---------------------------|
|-17-0-0-(0)-0-17-19-7-8-10-|
|-15-----------17-17-5-8--7-|


|-----------------------------------|---------------------------|
|-----------------------------------|---------------------------|
|-----------------------------------|---------------------------|
|-----------------------------------|---------------------------|
|--7--------------------------------|------------------7-7-3--5-|
|--5-5-5-(5)-5--5-5--5---5-(5)-5--5-|--5---5-(5)-5--5--5-8-1--3-|
|
|-----------------------------------|---------------------------|
|-----------------------------------|---------------------------|
|-----------------------------------|---------------------------|
|-----------------------------------|---------------------------|
|-12-0-0-(0)-0-12---14-0-0-(0)-0-15-|-17-0-0-(0)-0-17-19-7-8-10-|
|-12-----------------------------15-|-15-----------17-17-5-8--7-|


|-----------------------------------|---------------------------|
|-----------------------------------|---------------------------|
|-----------------------------------|---------------------------|
|-----------------------------------|---------------------------|
|--7--------------------------------|------------------7-7-3--5-|
|--5-5-5-(5)-5--5-5--5---5-(5)-5--5-|--5---5-(5)-5--5--5-8-1--3-|
|
|-----------------------------------|---------------------------|
|-----------------------------------|---------------------------|
|-----------------------------------|---------------------------|
|-----------------------------------|---------------------------|
|-12-0-0-(0)-0-12---14-0-0-(0)-0-15-|-17-0-0-(0)-0-17-19-7-8-10-|
|-12-----------------------------15-|-15-----------17-17-5-8--7-|


|------------------------------------|
|------------------------------------|
|------------------------------------|
|------------------------------------|
|--7---------------------------------|
|--5-5-5-(5)-5--5-5--5---5-(5)-5--5--|
|
|------------------------------------|
|------------------------------------|
|------------------------------------|
|------------------------------------|
|-12-0-0-(0)-0-12---14-0-0-(0)-0-15--|
|-12-----------------------------15--|


|-12------------------------|-------------------------|
|----13-12-10--------0------|-------------------------|
|----------13-10-9-5-1-2----|-------------------------|
|----12----------0----------|-------------------------|
|---------------------------|-7-----------------------|
|---------------------------|-5-5-5-5-5-5-5-5-5-5-5-5-|
|
|---------------------------|-------------------------|
|---------------------------|---------------------1---|
|---------------------------|-2-------2---4-------0---|
|---------------------------|-------------------------|
|--7------------------------|---0-0-0-----------------|
|--5------------------------|---------------5-5-5-----|


|-------------------------------|
|-------------------------------|
|-------------------------------|
|-------------------------------|
|-------------3-3-5-5-7-7-10-10-|
|-5-5-5-5-5-5-------------------|
|
|-------------------------------|
|---------3---------------------|
|-0-------2---2-----------------|
|-0-----------2-----------------|
|---0-0-0---------7---8---10----|
|-----------------5---8----7----|


|--------------------------|-------------------------|
|--------------------------|-------------------------|
|--------------------------|-------------------------|
|--------------------------|-------------------------|
|-12-0-0-0-0-0-0-0-0-0-0-0-|-0-0-0-0-0-0-0-10---5----|
|--------------------------|----------------8---3----|
|
|--------------------------|-------------------------|
|----------------------1---|-----------3-------------|
|--2-------2---4-------0---|-0---------2----2--------|
|--------------------------|-0--------------2--------|
|----0-0-0-----------------|---0-0-0----------7-8-10-|
|----------------5-5-5-----|------------------5-8--7-|


|-------------------------|--------------------------------|
|-------------------------|--------------------------------|
|-------------------------|--------------------------------|
|-------------------------|--------------------------------|
|-7-----------------------|-------------3-3-5-5-7-7-10-10--|
|-5-5-5-5-5-5-5-5-5-5-5-5-|-5-5-5-5-5-5--------------------|
|
|-------------------------|--------------------------------|
|---------------------1---|---------3----------------------|
|-2-------2---4-------0---|-0-------2---2------------------|
|-------------------------|-0-----------2------------------|
|---0-0-0-----------------|---0-0-0---------7---8---10-----|
|---------------5-5-5-----|-----------------5---8----7-----|


|--------------------------|------------------------|
|--------------------------|------------------------|
|--------------------------|------------------------|
|--------------------------|------------------------|
|-12-0-0-0-0-0-0-0-0-0-0-0-|-0-0-0-0---0---0--0--0--|
|--------------------------|---------------0--0--0--|
|
|--------------------------|------------------------|
|----------------------1---|------------------------|
|--2-------2---4-------0---|-0----------------------|
|--------------------------|-0----------------------|
|----0-0-0-----------------|---0-0-0-0-0-0-0--0--0--|
|----------------5-5-5-----|---------------0--0--0--|


|------------------------------|
|------------------------------|
|------------------------------|
|------------------------------|
|-2----------------------------|
|-0---0-(0)-0-0-0---0-(0)-0--0-|
|
|------------------------------|
|------------------------------|
|------------------------------|
|------------------------------|
|-7-----------7-9-----------10-|
|-7-0-0-(0)-0-----0-0-(0)-0-10-|


|----------------------------|
|----------------------------|
|----------------------------|
|----------------------------|
|------------------2-7-10-12-|
|--0---0-(0)-0--0--0-7--8-10-|
|
|----------------------------|
|----------------------------|
|----------------------------|
|----------------------------|
|-12-----------12-14-2--3--5-|
|-10-0-0-(0)-0-12-12-0--3--2-|


|--------------------------------|----------------------------|
|--------------------------------|----------------------------|
|--------------------------------|----------------------------|
|--------------------------------|----------------------------|
|-2-------------5-7---5--7-------|------------------2-7-10-12-|
|-0---0-(0)-0-0-----0-------0--0-|--0---0-(0)-0--0--0-7--8-10-|
|
|--------------------------------|----------------------------|
|--------------------------------|----------------------------|
|--------------------------------|----------------------------|
|--------------------------------|----------------------------|
|-7-----------7-9-------------10-|-12-----------12-14-2--3--5-|
|-7-0-0-(0)-0-------0-0-(0)-0-10-|-10-0-0-(0)-0-12-12-0--3--2-|


|--------------------------------|
|--------------------------------|
|--------------------------------|
|--------------------------------|
|-2-------------5-7---5--7-------|
|-0---0-(0)-0-0-----0-------0--0-|
|
|--------------------------------|
|--------------------------------|
|--------------------------------|
|--------------------------------|
|-7-----------7-9-------------10-|
|-7-0-0-(0)-0-------0-0-(0)-0-10-|


|----------------------------|---------------------------------|
|----------------------------|---------------------------------|
|----------------------------|---------------------------------|
|----------------------------|---------------------------------|
|------------------2-7-10-12-|-2-------------5-7---5--7--------|
|--0---0-(0)-0--0--0-7--8-10-|-0---0-(0)-0-0-----0-------0--0--|
|
|----------------------------|---------------------------------|
|----------------------------|---------------------------------|
|----------------------------|---------------------------------|
|----------------------------|---------------------------------|
|-12-----------12-14-2--3--5-|-7-----------7-9-------------10--|
|-10-0-0-(0)-0-12-12-0--3--2-|-7-0-0-(0)-0-------0-0-(0)-0-10--|


|------------------------------|-----------------------------------------|
|------------------------------|-----------------------------------------|
|------------------------------|-----------------------------------------|
|------------------------------|-----------------------------------------|
|------------------------------|-----------------------------------------|
|--0---0-(0)-0--0--0-0---0-0-0-|-7-7-7-7-7-7-7-7--7--7--7--7--7--7--7--7-|
|
|------------------------------|-----------------------------------------|
|------------------------------|-----------------------------------------|
|------------------------------|-----------------------------------------|
|------------------------------|-----------------------------------------|
|-12-----------12-14---2---3-3-|-9---9-9-9-9-9-9-10-10-10-10-12-12-12-12-|
|-10-0-0-(0)-0-12-12---0---3---|-----------------------------------------|


|----------------------------------------|
|----------------------------------------|
|----------------------------------------|
|----------------------------------------|
|----------------------------------------|
|--8-8--8--8--8--8--8--8-8-8-8-8-8-8-8-8-|
|
|----------------------------------------|
|----------------------------------------|
|----------------------------------------|
|----------------------------------------|
|-10---10-10-10-10-10-10-9-9-9-9-7-7-7-7-|
|----------------------------------------|


|-----------------------------------------|
|-----------------------------------------|
|-----------------------------------------|
|-----------------------------------------|
|-----------------------------------------|
|-7-7-7-7-7-7-7-7--8--8--8--8-10-10-10-10-|
|
|-----------------------------------------|
|-----------------------------------------|
|-----------------------------------------|
|-----------------------------------------|
|-9---9-9-9-9-9-9-10-10-10-10-12-12-12-12-|
|-----------------------------------------|


|------------------------8----------|---------------------------------------|
|-----------------------------------|-4---------4----5----------------------|
|-----------------------------------|-4-4-4-4-4-4----4-----4--4--4-----4--4-|
|-----------------------------------|----------------------------4----------|
|------------10-10-10-10------------|---------------------------------------|
|--8-8--8--8------------------------|---------------------------------------|
|
|-----------------------------------|---------------------------------------|
|-----------------------------------|---------------------------------------|
|-----------------------------------|---------------------------------------|
|-----------------------------------|---------------------------------------|
|-10---10-10-10-10-10-10-9-9-9-9-7--|-9-9-9-9-9-9-9-10-10-10-10-12-12-12-12-|
|-----------------------------------|---------------------------------------|


|--------------------------------------|------------------------|
|--5--------------5----7-------5-------|-1---------1-----0-0----|
|--5--5--5--5--5--5----5---5-5-5---5-5-|-2-2-2-2-2-2-4-------4--|
|--------------------------------------|-------------1-------1--|
|--------------------------------------|------------------------|
|--------------------------------------|------------------------|
|
|--------------------------------------|------------------------|
|--------------------------------------|------------------------|
|--------------------------------------|-5-5-5-5-5-5-4-4-4-4-2--|
|--------------------------------------|------------------------|
|-10-10-10-10-10-10-10-9-9-9-9-7-7-7-7-|------------------------|
|--------------------------------------|------------------------|


|-8--7--------------------|------------------------------------------------|
|---10-8-7---1------------|------------------------------------------------|
|--------9-8-4-2----------|------------------------------------------------|
|-------------------------|------------------------------------------------|
|----------------10-------|--2-2--2--2--2--2--2--2--2--2--2--2--2--2--2--2-|
|----------------14-12----|------------------------------------------------|
|
|-8--7--------------------|------------------------------------------------|
|---10-8-7---1------------|------------------------------------------------|
|--------9-8-4-2----------|------------------------------------------------|
|-------------------------|------------------------------------------------|
|----------------10-------|------------------------------------------------|
|----------------14-12----|-14---14-14-14-14-14-14-15-15-15-15-17-17-17-17-|


|------------------------------------------------|
|------------------------------------------------|
|------------------------------------------------|
|------------------------------------------------|
|--3-3--3--3--3--3--3--3--3--3--3--3--3--3--3--3-|
|------------------------------------------------|
|
|------------------------------------------------|
|------------------------------------------------|
|------------------------------------------------|
|------------------------------------------------|
|------------------------------------------------|
|-15---15-15-15-15-15-15-14-14-14-14-12-12-12-12-|


|------------------------------------------------|
|------------------------------------------------|
|------------------------------------------------|
|------------------------------------------------|
|--2-2--2--2--2--2--2--2--3--3--3--3--5--5--5--5-|
|------------------------------------------------|
|
|------------------------------------------------|
|------------------------------------------------|
|------------------------------------------------|
|------------------------------------------------|
|------------------------------------------------|
|-14---14-14-14-14-14-14-15-15-15-15-17-17-17-17-|


|-------------------------8--------------|
|----------------------------------------|
|-------------0--0--0--0-----------------|
|----------------------------------------|
|--3-3--3--3-----------------------------|
|----------------------------------------|
|
|----------------------------------------|
|----------------------------------------|
|----------------------------------------|
|----------------------------------------|
|----------------------------------------|
|-15---15-15-15-15-15-15-14-14-14-14-12--|


|----------------------------------------------|
|--4--------------4-----5----------------------|
|--4--4--4--4--4--4-----4-----4--4--4-----4--4-|
|-----------------------------------4----------|
|----------------------------------------------|
|----------------------------------------------|
|
|----------------------------------------------|
|----------------------------------------------|
|----------------------------------------------|
|----------------------------------------------|
|----------------------------------------------|
|-14-14-14-14-14-14-14-15-15-15-15-17-17-17-17-|


|----------------------------------------------|
|--5--------------5-----7-----------5----------|
|--5--5--5--5--5--5-----5-----5--5--5-----5--5-|
|----------------------------------------------|
|----------------------------------------------|
|----------------------------------------------|
|
|----------------------------------------------|
|----------------------------------------------|
|----------------------------------------------|
|----------------------------------------------|
|----------------------------------------------|
|-15-15-15-15-15-15-15-14-14-14-14-12-12-12-12-|


|-----------------------------------|-------------7-10-24----|
|--1--------------1--------0--0-----|-------5-7-8---13-------|
|--2--2--2--2--2--2--4-----------4--|-2-4-5-7----------------|
|--------------------1-----------1--|-----------7------------|
|-----------------------------------|------------------------|
|-----------------------------------|------------------------|
|
|-----------------------------------|------------------------|
|-----------------------------------|-5----------------------|
|-----------------------------------|-4----------------------|
|-----------------------------------|------------------------|
|-15-15-15-15-15-15-14-14-14-14-12--|-7----------------------|
|-----------------------------------|------------------------|


|--------------------------------|
|--------------------------------|
|--------------------------------|
|--------------------------------|
|-13--------12-13-------15-------|
|-15--15-15-15-15-15-15-15-15-15-|
|
|--------------------------------|
|--------------------------------|
|--------------------------------|
|--------------------------------|
|--5---------3--5--------3-------|
|--3---------1--3--------1--0--0-|


|--------------------------------|--------------------------------|
|--------------------------------|--------------------------------|
|--------------------------------|--------------------------------|
|--------------------------------|--------------------------------|
|-17-------15-------13-------15--|-13--------12-13-------15-------|
|-15-15-15-15-15-15-15-15-15-15--|-15--15-15-15-15-15-15-15-15-15-|
|
|--------------------------------|--------------------------------|
|--------------------------------|--------------------------------|
|--------------------------------|--------------------------------|
|--------------------------------|--------------------------------|
|--5-----------------5--------3--|--5---------3--5--------3-------|
|--3-----------------3--------1--|--3---------1--3--------1--0--0-|


|-------------------------|--------------------------------|
|-------------------------|--------------------------------|
|-------------------------|--------------------------------|
|-------------------------|--------------------------------|
|-12-------13-------10----|-13--------12-13-------15-------|
|-13-13-13-13-13-13-11----|-15--15-15-15-15-15-15-15-15-15-|
|
|-------------------------|--------------------------------|
|--------------------4----|--------------------------------|
|--------------------3----|--------------------------------|
|-------------------------|--------------------------------|
|--3-----------------6----|--5---------3--5--------3-------|
|--1----------------------|--3---------1--3--------1--0--0-|


|---------------------------------|
|---------------------------------|
|---------------------------------|
|---------------------------------|
|-17-------15-------13-------15---|
|-15-15-15-15-15-15-15-15-15-15---|
|
|---------------------------------|
|---------------------------------|
|---------------------------------|
|---------------------------------|
|--5-----------------5--------3---|
|--3-----------------3--------1---|


|--------------------------------|-------------------------|
|--------------------------------|-------------------------|
|--------------------------------|-------------------------|
|--------------------------------|-------------------------|
|-13--------12-13-------15-------|-12-------13-------10----|
|-15--15-15-15-15-15-15-15-15-15-|-13-13-13-13-13-13-11----|
|
|--------------------------------|-------------------------|
|--------------------------------|--------------------4----|
|--------------------------------|--------------------3----|
|--------------------------------|-------------------------|
|--5---------3--5--------3-------|--3-----------------6----|
|--3---------1--3--------1--0--0-|--1----------------------|


|----10-12-13-------------17-22-(22)----|
|-10----------15-15-17-18---------------|
|---------------------------------------|
|---------------------------------------|
|------------------------------------24-|
|---------------------------------------|
|
|---------------------------------------|
|---------------------------------------|
|--2------------------------------------|
|--0------------------------------------|
|--5-----5-----5--5-----5--5--5---5---5-|
|---------------------------------------|


|----10-12-13------------17-20-18-17-15-13-12----|
|-------------15---17-18----------------------13-|
|------------------------------------------------|
|------------------------------------------------|
|-24---------------------------------------------|
|------------------------------------------------|
|
|------------------------------------------------|
|------------------------------------------------|
|------------------------------------------------|
|------------------------------------------------|
|--5-----5--5--5-5--5-----8----------10----------|
|-------------------------6-----------8----------|


|-------------------------17-22-(22)----|
|----15-17-18-------17-18---------------|
|-14----------19-19---------------------|
|---------------------------------------|
|------------------------------------24-|
|---------------------------------------|
|
|---------------------------------------|
|---------------------------------------|
|--2------------------------------------|
|--0------------------------------------|
|--5-----5-----5--5-----5--5--5---5---5-|
|---------------------------------------|


|----10-12-13------------17-20-18-17-15-13-12----|
|-------------15---17-18----------------------13-|
|------------------------------------------------|
|------------------------------------------------|
|-24---------------------------------------------|
|------------------------------------------------|
|
|------------------------------------------------|
|------------------------------------------------|
|-------------------------5----------------------|
|------------------------------------------------|
|--5-----5--5--5-5--5-----8----------10----------|
|-------------------------------------8----------|


|-------------------------17-22-(22)----|
|----15-17-18-------17-18---------------|
|-14----------19-19---------------------|
|---------------------------------------|
|------------------------------------24-|
|---------------------------------------|
|
|---------------------------------------|
|---------------------------------------|
|--2------------------------------------|
|--0------------------------------------|
|--5-----5-----5--5-----5--5--5---5---5-|
|---------------------------------------|


|----10-12-13------------17-20-18-17-15-13-12----|
|-------------15---17-18----------------------13-|
|------------------------------------------------|
|------------------------------------------------|
|-24---------------------------------------------|
|------------------------------------------------|
|
|------------------------------------------------|
|------------------------------------------------|
|------------------------------------------------|
|------------------------------------------------|
|--5-----5--5--5-5--5-----8----------10----------|
|-------------------------6-----------8----------|


|-------------------------17-22-(22)----|
|----15-17-18-------17-18---------------|
|-14----------19-19---------------------|
|---------------------------------------|
|------------------------------------24-|
|---------------------------------------|
|
|---------------------------------------|
|---------------------------------------|
|--2------------------------------------|
|--0------------------------------------|
|--5-----5-----5--5-----5--5--5---5---5-|
|---------------------------------------|


|-------10-12-13--12-12--------8----8--------|
|-----------------15----13-10-10-8-10-10-8---|
|----------------------------------------9-7-|
|-----------------------12-------------------|
|-24-24--------------------------------------|
|--------------------------------------------|
|
|--------------------------------------------|
|--------------------------------------------|
|--------------------------------5-----------|
|--------------------------------------------|
|--5--------5-(5)--5--5-----5--5-8----10-----|
|--------------------------------------8-----|


|--------------------------------|-----------------------------|
|--------------------------------|-----------------------------|
|--------------------------------|-----------------------------|
|--------------------------------|-----------------------------|
|-2------------------------------|------------------2-7-10-12--|
|-0---0-(0)-0-0-0------0-----0-0-|--0---0-(0)-0--0--0-7--8-10--|
|
|--------------------------------|-----------------------------|
|--------------------------------|-----------------------------|
|--------------------------------|-----------------------------|
|--------------------------------|-----------------------------|
|-7-----------7-9-----------10---|-12-----------12-14-2--3--5--|
|-7-0-0-(0)-0-----0-0-(0)-0-10---|-10-0-0-(0)-0-12-12-0--3--2--|


|--------------------------------|
|--------------------------------|
|--------------------------------|
|--------------------------------|
|-2------------------------------|
|-0---0-(0)-0-0-0------0-----0-0-|
|
|--------------------------------|
|--------------------------------|
|--------------------------------|
|--------------------------------|
|-7-----------7-9-----------10---|
|-7-0-0-(0)-0-----0-0-(0)-0-10---|


|----------------------------|---------------------------------|
|----------------------------|---------------------------------|
|----------------------------|---------------------------------|
|----------------------------|---------------------------------|
|------------------2-7-10-12-|-2-------------------------------|
|--0---0-(0)-0--0--0-7--8-10-|-0---0-(0)-0-0-0------0-----0-0--|
|
|----------------------------|---------------------------------|
|----------------------------|---------------------------------|
|----------------------------|---------------------------------|
|----------------------------|---------------------------------|
|-12-----------12-14-2--3--5-|-7-----------7-9-----------10----|
|-10-0-0-(0)-0-12-12-0--3--2-|-7-0-0-(0)-0-----0-0-(0)-0-10----|


|----------------------------|
|----------------------------|
|----------------------------|
|----------------------------|
|------------------2-7-10-12-|
|--0---0-(0)-0--0--0-7--8-10-|
|
|----------------------------|
|----------------------------|
|----------------------------|
|----------------------------|
|-12-----------12-14-2--3--5-|
|-10-0-0-(0)-0-12-12-0--3--2-|


|--------------------------------|--------------------------|
|--------------------------------|--------------------------|
|--------------------------------|--------------------------|
|--------------------------------|--------------------------|
|-2------------------------------|------------------7-------|
|-0---0-(0)-0-0-0------0-----0-0-|--0---0-(0)-0--0----------|
|
|--------------------------------|--------------------------|
|--------------------------------|--------------------------|
|--------------------------------|--------------------------|
|--------------------------------|--------------------------|
|-7-----------7-9-----------10---|-12-----------12-14-2-3-5-|
|-7-0-0-(0)-0-----0-0-(0)-0-10---|-10-0-0-(0)-0-12-12-0-3-2-|


|------------------|-----------------------|-------------------|---------------|
|------------------|-----------------------|-------------------|---------------|
|------------------|-----------------------|-------------------|---------19----|
|------------------|-----------------------|-------------------|---------------|
|-7--7-9-10--14-14-|-12-14-12-10-9-7--10-9-|-10------------14--|-17------------|
|------------------|-----------------------|-----12-14-15------|-----19--------|
|
|------------------|-----------------------|-------------------|---------------|
|------------------|---------------5-------|-------------------|----------5----|
|------------------|--2------------4-------|-------------------|--2-------4----|
|------------------|--0--------------------|-------------------|---------------|
|-2-------5--------|--5------------7---7-5-|--2---------5------|--5---9---7----|
|-0--0-2--3--------|-----------------------|--0---0--2--3------|------7--------|


|---------------------------------------|-------------------------------------|
|---------------------------------------|-------------------------------------|
|---------------------------------------|-------------------------------------|
|---------------------------------------|-------------------------------------|
|-7-7-7-7---9---10-10-10-10-14-14-14-14-|-12-14-12-10---9---7-7-7-7-10---9----|
|---------------------------------------|-------------------------------------|
|
|---------------------------------------|-------------------------------------|
|---------------------------------------|-------------------------------------|
|---------------------------------------|--2----------------------------------|
|---------------------------------------|-------------------------------------|
|-2--------------5----------------------|--5--5--5--5-5-5-5-7-----------------|
|-0-0-0-0-0-2-2--3-----3--3--3--3--3--3-|-------------------5---5-5--5-5-5-5--|


|----------------------------------|---------------|
|----------------------------------|---------------|
|----------------------------------|---------------|
|----------------------------------|---------------|
|-10----------------------14-------|-10--12--14----|
|--------12---14---15--------------|--8--10--12----|
|
|----------------------------------|---------------|
|----------------------------------|--1-------5----|
|----------------------------------|--0---2---4----|
|----------------------------------|------0--------|
|--2----------------5--------------|--3---5---7----|
|--0-0-0--0-0--2-2--3-3-3--3-3-3-3-|---------------|


|-------------------------------------|
|-------------------------------------|
|-------------------------------------|
|-------------------------------------|
|-2-----------------------------------|
|-0-----------------------------------|
|
|-------------------------------------|
|-------------------------------------|
|-4-----------------------------------|
|-------------------------------------|
|-7--7-7-7-7-10-10-------10-10--------|
|------------------12-12-------10-10--|


|-----------------------------|-15--------------15-------15-(15)-15-------|
|-----------------------------|-------------------------------------------|
|-----------------------------|-------------------------------------------|
|-----------------------------|-------------------------------------------|
|-----------------------------|-------------------------------------------|
|-----------------------------|-------------------------------------------|
|
|-----------------------------|-------------------------------------------|
|-----------------------------|-------------------------------------------|
|-----------------------------|-------------------------------------------|
|-----------------------------|-------------------------------------------|
|-14-------------------10--9--|-14--------------10-10--------10--10-------|
|-12-12-12-12-12-12-12--------|-12--12-12-12-12-------12-12---------10-10-|


|-(15)----------------------------|
|---------------------------------|
|---------------------------------|
|---------------------------------|
|---------------------------------|
|---------------------------------|
|
|---------------------------------|
|---------------------------------|
|---------------------------------|
|---------------------------------|
|--14--------------------10--12---|
|--12--12-12-12-12-12-12--8--10---|


|-18--------------------------17-19-|-17-19---------------------------|
|------------------------19------19-|----22-19-19----19----14-14--12--|
|-----------------------------------|----------21-18-21-18-16---------|
|-----------------------------------|---------------------------------|
|-----------------------------------|---------------------------------|
|-----------------------------------|---------------------------------|
|
|-----------------------------------|---------------------------------|
|-----------------------------------|---------------------------------|
|-----------------------------------|---------------------------------|
|-----------------------------------|---------------------------------|
|--4-------------0-0------0-0-------|--4-----------------------7---2--|
|--2-2-2-2-2-2-2-----2-2-------0--0-|--2-----2--2--2--2--2--2--5---0--|


|-----------------------------------5-5-|-4-4-7-7-5-7-9-12-12-----|
|-------------------2-2-----5-5-3-3-----|-------------------------|
|-----------------------4-4-------------|-------------------------|
|---------------------------------------|-------------------------|
|-------12-12-11-11---------------------|-------------------------|
|-14-14---------------------------------|-------------------------|
|
|---------------------------------------|-------------------------|
|---------------------------------------|-------------------------|
|---------------------------------------|----------------------4--|
|---------------------------------------|-------------------------|
|--4--------------------0-0-----0-0-----|-4-----------------7--7--|
|--2-----2--2--2--2-2-2-----2-2-----0-0-|-2---2-2-2-2-2--2--5-----|


|-----------------------------------------|-------------2---------2-4---------|
|-----------------------------------------|---------2-3-5---3-3-3-5---5-3-2-0-|
|-----------------------------------------|---------4-------6-------------4-2-|
|-----------------------------------------|---------------2-----------4-------|
|---0-2-5-7--9----4-4--7-9-12-14-12-----7-|-7-11-12---------------------------|
|-2-4---9---12-10-7---10---16----16-14-10-|---14------------------------------|
|
|-----------------------------------------|-----------------------------------|
|-----------------------------------------|-----------------------------------|
|-----------------------------------------|-----------------------------------|
|-----------------------------------------|-----------------------------------|
|-4-----------------0--0-------0--0-------|-4-----------------7-------2-------|
|-2---2-2-2--2--2-2------2--2--------0--0-|-2-----2-2-2-2-2-2-5-------0-------|


|----------------------9-10--9----------------|--------------|
|----------------9-10-12----12-10--9----------|--------------|
|---------------11----------------11-9-6-4----|--------------|
|--------------------------------------0------|--------------|
|-9-12-14-17-19----------------------------12-|------8--4----|
|---16----21-------------------------------16-|-14---9--2----|
|
|---------------------------------------------|--------------|
|---------------------------------------------|--------------|
|---------------------------------------------|--------------|
|---------------------------------------------|--------------|
|-9-------------------------------------------|-12--11--4----|
|-7--7--7--7--7--7--7--7--9--9--9--9-9-9-9--9-|-10---9--2----|


  Gtrs I, II
|-------------------------------|------------------------|
|-------------------------------|------------------------|
|-0-----------------------------|------------------------|
|-------------------------------|------------------------|
|-3-3-3-3-3-3-3-6-6-----6-6-----|-----------------13--8--|
|-------------------8-8-----6-6-|-8-8-8-8-8-8-8-8-11--6--|


|--------------------------------|-----------------------|
|--------------------------------|-----------------------|
|--------------------------------|-----------------------|
|--------------------------------|-----------------------|
|-10-------------6-6-----6-6-----|-----------------6--8--|
|--8-8-8-8-8-8-8-----8-8-----6-6-|-8-8-8-8-8-8-8-8-4--6--|


|--------------------------------|------------------------|
|--------------------------------|------------------------|
|--------------------------------|------------------------|
|--------------------------------|------------------------|
|-10-------------6-6-----6-6-----|-----------------13--8--|
|--8-8-8-8-8-8-8-----8-8-----6-6-|-8-8-8-8-8-8-8-8-11--6--|


  Gtr I
|--------------------------------|
|--------------------------------|
|--------------------------------|
|--------------------------------|
|-10-------------6-6-----6-6-----|
|--8-8-8-8-8-8-8-----8-8-----6-6-|
|
| Gtr II
|--------------------------------|
|--------------------------------|
|--------------------------------|
|--------------------------------|
|-10-------------6-6-----6-6-----|
|--8-8-8-8-8-8-8-----8-8-----6-6-|


|--------------------------|---------------------------------|
|--------------------------|---------------------------------|
|--------------------------|---------------------------------|
|--------------------------|---------------------------------|
|--------------------------|-13--------12-13-------15--------|
|-8-10-(10)-11-(11)-12-13--|-15--15-15-15-15-15-15-15-15-15--|
|
|--------------------------|---------------------------------|
|--------------------------|---------------------------------|
|--------------------------|---------------------------------|
|--------------------------|---------------------------------|
|--------------------------|--5---------3--5--------3--------|
|-8-10-(10)-11-(11)-12-13--|--3---------1--3--------1--0--0--|


|--------------------------------|
|--------------------------------|
|--------------------------------|
|--------------------------------|
|-17-------15-------13-------15--|
|-15-15-15-15-15-15-15-15-15-15--|
|
|--------------------------------|
|--------------------------------|
|--------------------------------|
|--------------------------------|
|--5-----------------5--------3--|
|--3-----------------3--------1--|


|--------------------------------|-------------------------|
|--------------------------------|-------------------------|
|--------------------------------|-------------------------|
|--------------------------------|-------------------------|
|-13--------12-13-------15-------|-12-------13-------10----|
|-15--15-15-15-15-15-15-15-15-15-|-13-13-13-13-13-13-11----|
|
|--------------------------------|-------------------------|
|--------------------------------|--------------------4----|
|--------------------------------|--------------------3----|
|--------------------------------|-------------------------|
|--5---------3--5--------3-------|--3-----------------6----|
|--3---------1--3--------1--0--0-|--1----------------------|


|--------------------------------|
|--------------------------------|
|--------------------------------|
|--------------------------------|
|-13--------12-13-------15-------|
|-15--15-15-15-15-15-15-15-15-15-|
|
|--------------------------------|
|--------------------------------|
|--------------------------------|
|--------------------------------|
|--5---------3--5--------3-------|
|--3---------1--3--------1--0--0-|


|--------------------------------|--------------------------------|
|--------------------------------|--------------------------------|
|--------------------------------|--------------------------------|
|--------------------------------|--------------------------------|
|-17-------15-------13-------15--|-13--------12-13-------15-------|
|-15-15-15-15-15-15-15-15-15-15--|-15--15-15-15-15-15-15-15-15-15-|
|
|--------------------------------|--------------------------------|
|--------------------------------|--------------------------------|
|--------------------------------|--------------------------------|
|--------------------------------|--------------------------------|
|--5-----------------5--------3--|--5---------3--5--------3-------|
|--3-----------------3--------1--|--3---------1--3--------1--0--0-|


|-------------------------|-----------|-----------|-------|
|-------------------------|-----------|-----------|-------|
|-------------------------|-----------|-----------|-------|
|-------------------------|-----------|-----------|-------|
|-12-------13-------10----|-12--------|-10--------|-12----|
|-13-13-13-13-13-13-11----|-----------|-----------|-------|
|
|-------------------------|-----------|-----------|-------|
|--------------------4----|-----------|--4--------|-------|
|--------------------3----|-----------|--3--------|-------|
|-------------------------|-----------|-----------|-------|
|--3-----------------6----|--7--------|--6--------|--7----|
|--1----------------------|--5--------|-----------|--5----|


|-----------|---------------------------------|---------------------------|
|-----------|---------------------------------|---------------------------|
|-----------|---------------------------------|---------------------------|
|-----------|---------------------------------|---------------------------|
|-10--------|--7------------------------------|--------------------0-3--5-|
|-----------|--5------------------------------|--------------------0-1--3-|
|
|-----------|---------------------------------|---------------------------|
|--4--------|---------------------------------|---------------------------|
|--3--------|---------------------------------|---------------------------|
|-----------|---------------------------------|---------------------------|
|--6--------|-12-0-0-(0)-0-12-14-0-0-(0)-0-15-|-17-0-0-(0)-0-17-19-7-8-10-|
|-----------|-12---------------------------15-|-15-----------17-17-5-8--7-|


|---------------------------------|------------------------------|
|---------------------------------|------------------------------|
|---------------------------------|------------------------------|
|---------------------------------|------------------------------|
|--7------------------------------|--------------------0--0---0--|
|--5------------------------------|--------------------0--0---0--|
|
|---------------------------------|------------------------------|
|---------------------------------|------------------------------|
|---------------------------------|------------------------------|
|---------------------------------|------------------------------|
|-12-0-0-(0)-0-12-14-0-0-(0)-0-15-|-17-0-0-(0)-0-17-19-7--8--10--|
|-12---------------------------15-|-15-----------17-17-5--8---7--|


|------------------------------------|
|------------------------------------|
|------------------------------------|
|------------------------------------|
|--7---------------------------------|
|--5-5-5-(5)-5--5-5--5---5-(5)-5--5--|
|
|------------------------------------|
|------------------------------------|
|------------------------------------|
|------------------------------------|
|-12-0-0-(0)-0-12---14-0-0-(0)-0-15--|
|-12-----------------------------15--|


|---------------------------|---------5-------|-----------------|--------------|
|---------------------------|-------5---6-5-3-|-5-6---5---3-----|-----------5--|
|---------------------------|-2-4-5-----------|-----7---5---4-5-|-2----4-5-----|
|---------------------------|-----------------|-----------------|--------------|
|------------------7-7-3--5-|-----------------|-----------------|--------------|
|--5---5-(5)-5--5--5-8-1--3-|-----------------|-----------------|--------------|
|
|---------------------------|-----------------|-----------------|--------------|
|---------------------------|-----------------|-----------------|--------1-----|
|---------------------------|-----------------|-----------------|--------0-----|
|---------------------------|-----------------|-----------------|--------------|
|-17-0-0-(0)-0-17-19-7-8-10-|-7-------3-------|-2---------------|-7------3-----|
|-15-----------17-17-5-8--7-|-5-------1-------|-0---------------|-5--5-7-------|


|------------------|---------------|-3-----3----|
|-3-5-3-1-0----1-0-|-1----------5--|----5-------|
|-----------2------|----2-4--5-----|------------|
|------------------|---------------|------------|
|------------------|---------------|------------|
|------------------|---------------|------------|
|
|------------------|---------------|------------|
|------------------|---------------|------------|
|------------------|---------------|------------|
|------------------|---------------|------------|
|-5---------7------|-7------10-----|-2-----7----|
|-3---------5----3-|-5----7--8-----|-0--3--5----|


|--------------------------------|
|------------------------5-5-5-5-|
|-2-2-2-2---4----5-5-5-5---------|
|--------------------------------|
|--------------------------------|
|--------------------------------|
|
|--------------------------------|
|--------------------------------|
|--------------------------------|
|--------------------------------|
|-7-------------10---------------|
|-5-5-5-5-5-7-7--8---8-8-8-8-8-8-|


|----------------------------------------------|
|--3--5--3--1-----0----------------1-----0-----|
|-----------------------2-2--2--2--------------|
|----------------------------------------------|
|----------------------------------------------|
|----------------------------------------------|
|
|----------------------------------------------|
|----------------------------------------------|
|--7-------------------------------------------|
|----------------------------------------------|
|-10-10-10-10-10-10-10-12----------------------|
|----------------------10---10-10-10-10-10-10--|


|------------------------------|------------*|
|-1--------------------5-------|----0-------*|
|-------2---4----5-------------|-5--0--2----*|
|------------------------------|------------*|
|------------uuuuuuuu------------------|------------*|
|------------------------------|------------*|
|
|------------------------------|------------*|
|------------------------------|------------*|
|------------------------------|------------*|
|------------------------------|------------*|
|-7-------------10-------------|-3--5--7----*|
|-5-5-5-5-5-7-7--8-8-8-8-8-8-8-|-1--3--5----*|
comments
print report bad tab
7 comments total. Showing first comments.
0 reply
ibikinz wrote on July 15 2005, 12:00 am

ye r they goths?

0 reply
pHaKe wrote on May 25 2006, 08:47 pm

kinda ****ed up.. but oh well

0 reply
metallicax6 wrote on August 26 2007, 01:34 pm

it sucks a little bit.. but it gets the job done.

I want to post or [tab]
guest
You may want to rate the tab now too:
select rating
Please do not post tabs as comments. Select "correction" instead!