Oops, an error
Loading. Please wait.

Lake Bodom Tab

ver3
ver3
More versions @911Tabs.com
34,518 views 21 this week
5 commentsread comments
1 2 3 4 5
excellent!
x 5
Autoscroll
+/-
esc
set tempo
stop
Contributor
Tuning
D G C F A D
Hey! There's an official Ultimate Guitar app which is ideal
for learning songs when you're away from computer. Get the app
WARNING: You are trying to view
                                    content from Ultimate-Guitar.com
                                    in an unauthorized application,
                                    which is prohibited.

                                    Please use an official Ultimate
                                    Guitar Tabs application for iPhone,
                                    iPad or Android to access legitimate
                                    chords, guitar, bass, and drum tabs
                                    from Ultimate-Guitar.com database.

                                    Type "ultimate guitar tabs" in Apple
                                    App Store's or Android Market's
                                    search to find the application.
#----------------------------------PLEASE NOTE---------------------------------#
#This file is the author's own work and represents their interpretation of the #
#song. You may only use this file for private study, scholarship, or research. #
#------------------------------------------------------------------------------#

LAKE BODOM
As recorded by Children Of Bodom
(From the 2003 Album SOMETHING WILD)

Transcribed by Mathew Joosten
        

Words and Music by Alexi Laiho

Gtr I (D G C F A D) - 'Untitled'
Gtr II (D G C F A D) - 'Untitled'

 Intro
  Q=144
          A5
 4/4
  Gtr I
  W               S  S  S  S  E  S  S  S  S    Q      E
|------------||--------------------------12---17--------|
|------------||o----10-12-13-10-10-12-13----------------|
|------------||-----------------------------------------|
|------------||--14----------------------------------14-|
|------------||o----------------------------------------|
|------------||-----------------------------------------|
|
| Gtr II
|                                      |----3----|
| H.      Q       E     E     E  E     E    E    E E  E
|------------||-----------------------------------------|
|------------||o----------------------------------------|
|---------2--||---2-----------------------------------2-|
|---------2--||---2-----------------------------------2-|
|---------0--||o--0-----0-----0--0-----0----0----0-0--0-|
|------------||-----------------------------------------|


                           F5       G5
   S  S  S  S  E    S    S  E  S  S  S  S  S  S
|-----------------------12-15-13-12-------------|
|----10-12-13-10---13---------------15-13-12----|
|--------------------------------------------12-|
|-14--------------------------------------------|
|-----------------------------------------------|
|-----------------------------------------------|
|
|              |--3---|
|  E     E     E E    E     Q        Q
|-----------------------------------------------|
|-----------------------------------------------|
|--2--------------------------------------------|
|--2------------------------3--------5----------|
|--0-----0-----0-0----0-----3--------5----------|
|---------------------------1--------3----------|


  A5
   S  S  S  S  E  S  S  S  S    Q      E
|-------------------------12---17--------|
|----10-12-13-10-10-12-13----------------|
|----------------------------------------|
|-14----------------------------------14-|
|----------------------------------------|
|----------------------------------------|
|
|                       |----3----|
|  E     E     E  E     E    E    E E  E
|----------------------------------------|
|----------------------------------------|
|--2-----------------------------------2-|
|--2-----------------------------------2-|
|--0-----0-----0--0-----0----0----0-0--0-|
|----------------------------------------|


                           C5          G5
   S  S  S  S  E    S    S  S  S  S  S  S  S  S  S  4x
|--------------------------12-15-13-12--------------||
|----10-12-13-10---12---13-------------15-13-12----o||
|-----------------------------------------------14--||
|-14------------------------------------------------||
|--------------------------------------------------o||
|---------------------------------------------------||
|
|              |--3---|
|  E     E     E E    E     Q           Q           4x
|---------------------------------------------------||
|--------------------------------------------------o||
|--2------------------------5-----------------------||
|--2------------------------5-----------5-----------||
|--0-----0-----0-0----0-----3-----------5----------o||
|---------------------------------------3-----------||


  E5
   S  S  S  S  S  S  S  S  S  S  S  S  S  S  S  S
|-------------------------------------------------|
|----------------13-------------------------------|
|-------13-14-16----16-14-13-16-14-13----14-13----|
|-14-15-------------------------------15-------15-|
|-------------------------------------------------|
|-------------------------------------------------|
|
|  E     E     E     E     E     E     E     E
|-------------------------------------------------|
|-------------------------------------------------|
|-------------------------------------------------|
|--2-----2-----2-----2-----2-----2-----2-----2----|
|--2-----2-----2-----2-----2-----2-----2-----2----|
|--0-----0-----0-----0-----0-----0-----0-----0----|


   S  S  S    S  S  S  S  S  S  S  S  S  S  S  S  S
|---------------------------------------------------|
|---------------------------------------------------|
|----13---------------------------------------------|
|-14----15---14-12-15-14-15-12-15-10-15----15----15-|
|---------------------------------------14----11----|
|---------------------------------------------------|
|
|  E     H..
|---------------------------------------------------|
|---------------------------------------------------|
|---------------------------------------------------|
|--2------------------------------------------------|
|--2------------------------------------------------|
|--0------------------------------------------------|


  A5/E                   C5/G  G5      D5A5A5F5G5
   S H..                   S   E H         E E E
|----------------------------|-------------------|
|----------------------------|-------------------|
|----------------------------|-------------------|
|----------------------------|---------------3-5-|
|-12-------------------------|-------------0-3-5-|
|----------------------------|-------------0-1-3-|
|
|  E     S E S E E S E S E     E S E S E E E E E
|----------------------------|-------------------|
|----------------------------|-------------------|
|--2---------------------5---|-7-------7-9-------|
|--2-----------7-9-------5---|-5-------7-7-2-3-5-|
|--------0-0-0-----0-0-0-----|---0-0-0-----0-3-2-|
|----------------------------|-------------------|


   Verse
    A5/E                C5/GG5      D5A5  F5G5
    E H..                   H         E E E E
||------------------------|--------------------||
||o-----------------------|-------------------o||
||--2---------------------|--------------------||
||--2---------------------|---------------3-5--||
||o-0---------------------|-------------0-3-5-o||
||------------------------|-------------0-1-3--||
|
|   E S   E S E E S E S E   E S E S E E E E E
||------------------------|--------------------||
||o-----------------------|-------------------o||
||--2-------------------5-|-7-------7-9--------||
||--2---------7-9-------5-|-5-------7-7-2-3-5--||
||o---0---0-0-----0-0-0---|---0-0-0-----0-3-2-o||
||------------------------|--------------------||


  A5/E                C5/GG5      D5A5A5 F5G/B
  E H..                   H         E Q.
|-----------------------|----------------------|
|-----------------------|----------------------|
|-2---------------------|----------------------|
|-2---------------------|-------------x\-------|
|-0---------------------|-------------x\-------|
|-----------------------|----------------------|
|
| E S   E S E E S E S E   E S E S E E E  E E
|-----------------------|----------------------|
|-----------------------|----------------------|
|-2-------------------5-|-7-------7-9----------|
|-2---------7-9-------5-|-5-------7-7-2--3-5---|
|---0---0-0-----0-0-0---|---0-0-0-----0--3-2---|
|-----------------------|----------------------|


    A5                   C5/GG5       D5A5A5F5G/B
    E S E S S S E.   E S E   E.   E S E E E E E  4x
||-------------------------|---------------------||
||o------------------------|--------------------o||
||--2----------------------|---------------------||
||--2----------------------|------------2-2------||
||o-0-0-0-0-0-0-0----0-0-0-|-0----0-0-0-0-3-3-5-o||
||-------------------------|----------------1-3--||
|
|   E S E S E   E  S E S E   E  S E S E E E E E  4x
||-------------------------|---------------------||
||o------------------------|--------------------o||
||--2--------------------5-|-7--------7-9--------||
||--2-------7---9--------5-|-5--------7-7-2-3-5--||
||o---0-0-0--------0-0-0---|----0-0-0-----0-3-2-o||
||-------------------------|---------------------||


  A5
   S  S S    S  S S  S S S  S S S S E.
|-12p10p8------------------------------|
|-----------12p10p9--------------------|
|-------------------10p9p7-------------|
|--------------------------10p9p7S6-7--|
|--------------------------------------|
|--------------------------------------|
|
|  E    H..
|--------------------------------------|
|--------------------------------------|
|--2-----------------------------------|
|--2-----------------------------------|
|--0-----------------------------------|
|--------------------------------------|


    A5                  C5/G  G5      D5/AA5  A5  F5/CG/B
    E S S E S S E S S E S S   E S S E S S S S S S S S S S
||--------------------------|-----------------------------|
||o-------------------------|-----------------------------|
||--------------------------|-----------------------------|
||--2-----------------------|---------------------2-2-5-5-|
||o-0-0-0-0-0-0-0-0-0-0-0-0-|-0-0-0-0-0-0-3-3-5-5---------|
||--------------------------|-----------------------------|
|
|   E S S E E   E S S E E     E S S E E   E   E   E   E
||--------------------------|-----------------------------|
||o-------------------------|-----------------------------|
||----------------------5---|-7-------7---9---------------|
||--7-------7---9-------5---|-5-------7---7---2---3---5---|
||o---0-0-0-------0-0-0-----|---0-0-0---------0---3---2---|
||--------------------------|-----------------------------|


                            1.
                                          C5  G5
  E S S E S S E S S E S S   E S S S S S S Q   Q
|-------------------------|------------------------||
|-------------------------|-----------------------o||
|-------------------------|---------------5--------||
|-7-----------------------|---------------5---5----||
|---0-0-0-0-0-0-0-0-0-0-0-|-0-0-0-0-0-0-0-3---5---o||
|-------------------------|-------------------3----||
|
| E S S E E   E S S E E     E S S E   E   E E E E
|-------------------------|------------------------||
|-------------------------|-----------------------o||
|---------------------5---|-7---------7---9--------||
|-7-------7---9-------5---|-5---------7---7-2-3-5--||
|---0-0-0-------0-0-0-----|---0-0-0---------0-3-2-o||
|-------------------------|------------------------||


  2.
  G5            F#G5F#5 E5                  G5/DD5       A5E5E5C5D5
                |-3-|
  E S S S S S S Q Q Q   E.   E S E E.   E S E   E.   E S E E E E E
|---------------------|-----------------------|---------------------|
|---------------------|-----------------------|---------------------|
|---------------------|-----------------------|---------------------|
|---------------4-5-4-|-2---------------------|--------------2-5-7--|
|-0-0-0-0-0-0-0-4-5-4-|-2---------------------|------------2-2-3-5--|
|---------------2-3-2-|-0----0-0-0-0----0-0-0-|-0----0-0-0-0--------|
|
|               |-3-|
| E S S S S S S Q Q Q   E  S E S E E  S E S E   E  S E S E E E E E
|---------------------|-----------------------|---------------------|
|---------------------|-----------------------|---------------------|
|-7-------------------|-----------------------|---------------------|
|-5-------------4-5-4-|-2-------------------5-|-7--------7-9--------|
|---0-0-0-0-0-0-4-5-4-|-2--------7-9--------5-|-5--------7-7-2-3-5--|
|---------------2-3-2-|----0-0-0------0-0-0---|----0-0-0-----0-3-2--|


    E5                     G5/DD5       A5E5E5C5D5
    E.   E S E S S S S S S E   E.   E S E E E E E
||---------------------------|---------------------||
||o--------------------------|--------------------o||
||---------------------------|---------------------||
||--2------------------------|--------------2-5-7--||
||o-2----------5h7---5h7-----|------------2-2-3-5-o||
||--0----0-0-0-----0-----0-0-|-0----0-0-0-0--------||
|
|   E  S E S E E   S E   S E   E  S E S E E E E E
||---------------------------|---------------------||
||o--------------------------|--------------------o||
||---------------------------|---------------------||
||--2----------------------5-|-7--------7-9--------||
||o-2--------7-9-----------5-|-5--------7-7-2-3-5-o||
||-----0-0-0-------0-0---0---|----0-0-0-----0-3-2--||


  E5                     G5/DD5       A5E5  E5  C5/G
  E.   E S E S S S S S S E   E.   E S E S E   S E E
|--------------------------|------------------------|
|--------------------------|------------------------|
|--------------------------|------------------------|
|-2------------------------|------------------------|
|-2----------5h7---5h7-----|------------------------|
|-0----0-0-0-----0-----0-0-|-0----0-0-0-0-0---0-0-0-|
|
| E  S E S E E   S E   S E   E  S E S E E   E   E E
|--------------------------|------------------------|
|--------------------------|------------------------|
|--------------------------|------------------------|
|-2----------------------5-|-7--------7-9-----------|
|-2--------7-9-----------5-|-5--------7-7---2---3-3-|
|----0-0-0-------0-0---0---|----0-0-0-------0---3---|


    N.C.
    S S S S S S S S S S S S S S S S
||----------------------------------|
||o---------------------------------|
||----------------------------------|
||----------------------------------|
||o-2-2-2-2-2-2-2-2-2-2-2-2-2-2-2-2-|
||----------------------------------|
|
|   E   S S S S S S S S S S S S S S
||----------------------------------|
||o---------------------------------|
||----------------------------------|
||--4---4-4-4-4-4-4-5-5-5-5-7-7-7-7-|
||o---------------------------------|
||----------------------------------|


  S S S S S S S S S S S S S S S S   S S S S S S S S S S S S S S S S
|---------------------------------|---------------------------------|
|---------------------------------|---------------------------------|
|---------------------------------|---------------------------------|
|---------------------------------|---------------------------------|
|-3-3-3-3-3-3-3-3-3-3-3-3-3-3-3-3-|-2-2-2-2-2-2-2-2-3-3-3-3-5-5-5-5-|
|---------------------------------|---------------------------------|
|
| E   S S S S S S S S S S S S S S   E   S S S S S S S S S S S S S S
|---------------------------------|---------------------------------|
|---------------------------------|---------------------------------|
|---------------------------------|---------------------------------|
|-5---5-5-5-5-5-5-4-4-4-4-2-2-2-2-|-4---4-4-4-4-4-4-5-5-5-5-7-7-7-7-|
|---------------------------------|---------------------------------|
|---------------------------------|---------------------------------|


                                 B             E5/B    B5
                   ~~~
  S S S S S S S S  H             E S S S S E   E   S S  E   S S
|------------------------------|--------------------------------|
|------------------------------|--------------------------------|
|-----------------[5]----------|-8---------8---9-------11-------|
|---------5-5-5-5--------------|-9-9-9-9-9-9---9---9-9--9---9-9-|
|-3-3-3-3----------------------|--------------------------------|
|------------------------------|--------------------------------|
|
|                           ~
| E   S S S S S S  S  S S S Q    E S S S S S S S S S S  S S S S
|------------------------------|--------------------------------|
|------------------------------|--------------------------------|
|------------------------------|--------------------------------|
|-5---5-5-5-5-5-5--4--4-4-4-2--|-4-4-4-4-4-4-4-5-5-5-5--7-7-7-7-|
|------------------------------|--------------------------------|
|------------------------------|--------------------------------|


  C              C    C          C
   E  S  S  S  S  E    E    S  S  E    S  S
|-------------------------------------------|
|-------------------------------------------|
|--9--------------9---11----------9---------|
|-10-10-10-10-10-10---10---10-10-10---10-10-|
|-------------------------------------------|
|-------------------------------------------|
|
|  E  S  S  S  S  S S  S S  S  S  S S  S  S
|-------------------------------------------|
|-------------------------------------------|
|-------------------------------------------|
|--5--5--5--5--5--5-5--4-4--4--4--2-2--2--2-|
|-------------------------------------------|
|-------------------------------------------|


  1.
  Am        AmB       B  N.C.
  E S S S S E E   S S E. S   S S S S S S S S S S S S S E.
|------------------------8p|=7p5----------------------------||
|--------------------------|-----8p7p5---------------------o||
|-5---------5-8-------8----|-----------8p5p4----------------||
|-7-7-7-7-7-7-9---9-9-9----|-----------------7p5p4----------||
|--------------------------|-----------------------7p6-7---o||
|--------------------------|--------------------------------||
|
| E S S S S E S S S S E. S   S S S S S S S S S S S S S E.
|------------------------8p|=7p5----------------------------||
|--------------------------|-----8p7p5---------------------o||
|-5-5-5-5-5-5-4-4-4-4------|-----------8p5p4----------------||
|---------------------7----|-----------------7p5p4----------||
|--------------------------|-----------------------7p6-7---o||
|--------------------------|--------------------------------||


  2.
  Am          B               E5
  E S S S S E E   S S Q        W
|---------------------------|---------------------------------------|
|---------------------------|---------------------------------------|
|-5---------5-8-------8-----|--9------------------------------------|
|-7-7-7-7-7-7-9---9-9-9-----|--9------------------------------------|
|---------------------------|--7------------------------------------|
|---------------------------|---------------------------------------|
|
| E S S S S E S S S S S S E    E  S  S  S  S  S  S  S  S  S  S  Q
|---------------------------|----------------------------------12---|
|---------------------------|-------------------------12h13h15------|
|-5-5-5-5-5-5-4-4-4-4-------|----------------11h12h14---------------|
|---------------------7-7-7-|-------10h12h14------------------------|
|---------------------------|-12h14---------------------------------|
|---------------------------|---------------------------------------|


   Chorus
    $
    G5         F5 G5 F5               G5           G5       F5
     Q    S  S  E  E  S  S  E  S  S    Q   S  S  E  S  S  E  S  S  E
||----------------------------------|--------------------------------|
||o---------------------------------|--------------------------------|
||----------------------------------|--------------------------------|
||---8----------7--8-------10-------|-12--------10--------8-------10-|
||o-10---10-10-10-10-10-10-10-10-10-|-10--10-10-10-10-10-10-10-10-10-|
||----------------------------------|--------------------------------|
|
|    Q.         E  E  Q        S  S    H            Q        Q
||----------------------------------|--------------------------------|
||o---------------------------------|--------------------------------|
||----------------------------------|--------------------------------|
||---5-------------5----------------|--5-----------------------------|
||o--5----------3--5--3-------------|--5------------5--------3-------|
||---3----------1--3--1--------x--x-|--3------------3--------1-------|


                                           To Coda
  G5         F5 G5 F5               F5          Eb5
   Q    S  S  E  E  S  S  E  S  S   E S S E S S H
|---------------------------------|-------------------||
|---------------------------------|------------------o||
|---------------------------------|-------------------||
|--8----------7--8-------10-------|-7-----8-----5-----||
|-10---10-10-10-10-10-10-10-10-10-|-8-8-8-8-8-8-6----o||
|---------------------------------|-------------------||
|
|  Q.         E  E  Q        S  S   H           H
|---------------------------------|-------------------||
|---------------------------------|------------------o||
|---------------------------------|-------------8-----||
|--5-------------5----------------|-3-----------8-----||
|--5----------3--5--3-------------|-3-----------6----o||
|--3----------1--3--1--------x--x-|-1-----------------||


    D5
     S  S  S  S  E  S  S  S  S    E    +E   E
||--------------------------17---22---(22)----|
||o----15-17-18-15-15-17-18-------------------|
||--------------------------------------------|
||--19-------------------------------------19-|
||o-------------------------------------------|
||--------------------------------------------|
|
|                         |----3----|
|    E     E     E  E     E    E    E   E   E
||--------------------------------------------|
||o-------------------------------------------|
||---7--------------------------------------7-|
||---7--------------------------------------7-|
||o--5-----5-----5--5-----5----5----5---5---5-|
||--------------------------------------------|


  1.
                           Bb5         C5
   S  S  S  S  E    S    S  S  S  S  S  S  S  S  S
|--------------------------17-20-18-17--------------||
|----15-17-18-15---17---18-------------20-18-17----o||
|-----------------------------------------------17--||
|-19------------------------------------------------||
|--------------------------------------------------o||
|---------------------------------------------------||
|
|              |--3---|
|  E     E     E E    E     Q           Q
|---------------------------------------------------||
|--------------------------------------------------o||
|--7------------------------------------------------||
|--7------------------------3-----------5-----------||
|--5-----5-----5-5----5-----1-----------3----------o||
|---------------------------------------------------||


  2.
                           F5          C5
   S  S  S  S  E    S    S  S  S  S  S  S  S  S  S
|--------------------------17-20-18-17-------------|
|----15-17-18-15---17---18-------------20-18-17----|
|-----------------------------------------------17-|
|-19-----------------------------------------------|
|--------------------------------------------------|
|--------------------------------------------------|
|
|              |--3---|
|  E     E     E E    E     Q           Q
|--------------------------------------------------|
|--------------------------------------------------|
|--------------------------------------------------|
|--------------------------10-----------5----------|
|--5-----5-----5-5----5-----8-----------3----------|
|--------------------------------------------------|


    D5
     S  S  S  S  E  S  S  S  S    E    +E   E
||--------------------------17---22---(22)----|
||o----15-17-18-15-15-17-18-------------------|
||--------------------------------------------|
||--19-------------------------------------19-|
||o-------------------------------------------|
||--------------------------------------------|
|
|                         |----3----|
|    E     E     E  E     E    E    E   E   E
||--------------------------------------------|
||o-------------------------------------------|
||---7--------------------------------------7-|
||---7--------------------------------------7-|
||o--5-----5-----5--5-----5----5----5---5---5-|
||--------------------------------------------|


  1.
                           Bb5         C5
   S  S  S  S  E    S    S  S  S  S  S  S  S  S  S
|--------------------------17-20-18-17--------------||
|----15-17-18-15---17---18-------------20-18-17----o||
|-----------------------------------------------17--||
|-19------------------------------------------------||
|--------------------------------------------------o||
|---------------------------------------------------||
|
|              |--3---|
|  E     E     E E    E     Q           Q
|---------------------------------------------------||
|--------------------------------------------------o||
|--7------------------------------------------------||
|--7------------------------3-----------5-----------||
|--5-----5-----5-5----5-----1-----------3----------o||
|---------------------------------------------------||


  2.
                                       F5          C5
   S  S  S  T  T  T  T  T    T  S    S  S  S  S  S  S  S  T  T  S
|------------------------------------------------------------------|
|-------15-17h18p17-15h17p==15-------------------------------------|
|------------------------------17---14-17-14----14-17-14-----------|
|-19-19--------------------------------------17----------17p14-----|
|--------------------------------------------------------------17--|
|------------------------------------------------------------------|
|
|                 |-------3-------|
|  E     E        E       E       E     Q           Q
|------------------------------------------------------------------|
|------------------------------------------------------------------|
|------------------------------------------------------------------|
|--------------------------------------10-----------5--------------|
|--5-----5--------5-------5-------5-----8-----------3--------------|
|------------------------------------------------------------------|


   Verse
                            1.,2.,3.               4.
    E5                  G5/DD5       A5E5E5C5D5    G5       A5E5
    E.   E S E E.   E S E   E.   E S E E E E E  3x E.   E S E   E  +E   Q
||------------------------|---------------------||---------------------------|
||o-----------------------|--------------------o||---------------------------|
||------------------------|---------------------||---------------------------|
||--2---------------------|--------------2-5-7--||---------------------------|
||o-2---------------------|------------2-2-3-5-o||---------------------------|
||--0----0-0-0-0----0-0-0-|-0----0-0-0-0--------||-0----0-0-0-/12-(12)\------|
|
|   E  S E S E E  S E S E   E  S E S E E E E E  3x E  S E S E   E   E   E E
||------------------------|---------------------||---------------------------|
||o-----------------------|--------------------o||---------------------------|
||------------------------|---------------------||-7-------------------------|
||--2-------------------5-|-7--------7-9--------||-5--------7---9------------|
||o-2--------7-9--------5-|-5--------7-7-2-3-5-o||----------7---7---2---3-5--|
||-----0-0-0------0-0-0---|----0-0-0-----0-3-2--||----0-0-0---------0---3-2--|


  E5     G5        D5         E5        E5      G5       D5  B5 E5
                                                                 ~~~~~
  Q  E E  Q  E E   E S S  E E Q   E E    Q  E E  Q  Q     Q  Q   H
|----------------|--------------------|----------------|-----------------|
|----------------|--------------------|----------------|--------15b17----|
|----------------|--------------------|----------------|-----------------|
|------------9-9-|-7-9p7--------------|-------------9--|-12--9-----------|
|-7--7-9-10------|-------10-9-7--10-9-|-10--7-9-10-----|-----------------|
|----------------|--------------------|----------------|-----------------|
|
| Q  E E  H        H          Q   E E    Q  E E  H        Q  Q   H
|----------------|--------------------|----------------|-----------------|
|----------------|--------------------|----------------|-----------------|
|----------------|-7----------9-------|--9-------------|---------9-------|
|-2-------5------|-7----------9-------|--9-------5-----|--7--4---9-------|
|-2-------5------|-5----------7---7-5-|--7-------5-----|--5--2---7-------|
|-0--0-2--3------|--------------------|-----0-2--3-----|-----------------|


  E5            G5                    D5             A5
  E S S E   E    S  S  S  S S S S S   E S S  E   E   S S S S  E   E
|-----------------------------------|----------------------------------|
|-----------------------------------|----------------------------------|
|-----------------------------------|----------------------------------|
|---------------------------9-9-9-9-|-7-9p7----------------------------|
|-7-7-7-7---9---10-10-10-10---------|-------10---9---7-7-7-7-10---9----|
|-----------------------------------|----------------------------------|
|
| E S S S S S S  E     S  S S S S S   E S S  S S S S E   S S  S S S S
|-----------------------------------|----------------------------------|
|-----------------------------------|----------------------------------|
|-----------------------------------|----------------------------------|
|-2---------------------------------|-7--------------2-----------------|
|-2--------------5------------------|-5-5-5--5-5-5-5-0---0-0--0-0-0-0--|
|-0-0-0-0-0-2-2--3-----3--3-3-3-3-3-|----------------------------------|


  E5             G5               C5 D5 E5
   Q     E   E    Q     Q         Q  Q  H
|-------------------------------|------------|
|-------------------------------|------------|
|-------------------------------|------------|
|-----------------------9-------|-5--7--9----|
|-10-----7---9---10-------------|-3--5--7----|
|-------------------------------|------------|
|
|  E S S S S S S  E S S S S S S   Q  Q  H
|-------------------------------|------------|
|-------------------------------|------------|
|-------------------------------|-5--7--9----|
|--2----------------------------|-5--7--9----|
|--2--------------5-------------|-3--5--7----|
|--0-0-0-0-0-2-2--3-3-3-3-3-3-3-|------------|


  E5                            E5
  Q  S  S S S S S S S S S S S   E S S S S S S Q  Q
|-----------------------------|---------------------|
|-----------------------------|---------------------|
|-4---------------------------|-4-------------------|
|-2--2--2-2-2-5-5-2-2-5-5-----|-2-2-2-2-2-2-2-5--4--|
|-------------------------5-5-|---------------------|
|-----------------------------|---------------------|
|
| Q  H.                         W
|-----------------------------|---------------------|
|-----------------------------|---------------------|
|-----------------------------|---------------------|
|-2---------------------------|---------------------|
|-2---------------------------|---------------------|
|-0---------------------------|---------------------|


  E5
   Q     S     S   S     S   S     S   S     S   S     S S S
|------------------------------------------------------------|
|------------------------------------------------------------|
|--4---------------------------------------------------------|
|--2-----2-----2---2-----2---5-----5---2-----2---5-----5-----|
|--------------------------------------------------------5-5-|
|------------------------------------------------------------|
|
|        \0.5/     \0.5/     \0.5/     \0.5/     \0.5/
|  Q    +E        +E        +E        +E        +Q
|------------------------------------------------------------|
|------------------------------------------------------------|
|-[5]--([5])-----([5])-----([5])-----([5])-----([5])---------|
|------------------------------------------------------------|
|------------------------------------------------------------|
|------------------------------------------------------------|


  E5
   E   S S S  S S S Q  Q
|-------------------------|
|-------------------------|
|--4----------------------|
|--2---2-2-2--2-2-2-5--4--|
|-------------------------|
|-------------------------|
|
| +Q       H.
|-------------------------|
|-------------------------|
|-(5)\--------------------|
|-------------------------|
|-------------------------|
|-------------------------|


 Guitar Solo
  F#5
   E    S S S S S S S S S S   S  S  S  S
|----------------------------------------|
|----------------------------------------|
|----------------------------------------|
|----------------------------------------|
|--4-------------------------------------|
|--2----2-2-2-2-2-2-5-5-2-2---5--5--0--0-|
|
|  ~~~~~                            T
|  H.                         S  S  S  S
|-18b21---------------------/14h17-19p14h|
|----------------------------------------|
|----------------------------------------|
|----------------------------------------|
|----------------------------------------|
|----------------------------------------|


  F#5                     A5          E5
   E     S  S  S  S  S  S  Q           Q
|-----------------------------------------------|
|-----------------------------------------------|
|-----------------------------------------------|
|-----------------------------------------------|
|--4-----------------------7-----------2--------|
|--2-----2--2--2--2--2--2--5-----------0--------|
|
|     T                                      ~~
|  S  S  S  S  S  S  S  S  S  S  S  S  S  E  S
|-17-19p17p14-----------------------------------|
|-------------17h19p14h19p17p14-----------------|
|-------------------------------16h18p14-16-16--|
|-----------------------------------------------|
|-----------------------------------------------|
|-----------------------------------------------|


  F#5
   E     S  S  S  S  S  S  S  S  S  S  S  S  S  S
|-------------------------------------------------|
|-------------------------------------------------|
|-------------------------------------------------|
|-------------------------------------------------|
|--4----------------------------------------------|
|--2-----2--2--2--2--2--2--5--5--2--2--5--5--0--0-|
|
|  S  S  S  S  S  S  S  S  S  S  S  S  S  S  S  S
|-------------------------------------------------|
|-------------------------------------------------|
|-------------------------------------------14-14-|
|-------------------------------14-14-12-12-------|
|-------12-12-11-11-16-16-14-14-------------------|
|-14-14-------------------------------------------|


                          D5     E5
   E     S  S  S  S  S  S  Q     Q
|-----------------------------------|
|-----------------------------------|
|-----------------------------------|
|--------------------------7-----9--|
|--4-----------------------5-----7--|
|--2-----2--2--2--2--2--2-----------|
|
|                          ~~~~~
|  S  S  S  S  S  S  S  S  H
|-----------------------------------|
|-------------------14-17-17b19-----|
|-13-13-16-16-14-16-----------------|
|-----------------------------------|
|-----------------------------------|
|-----------------------------------|


  F#5
  E     S   S   S   S   S   S   S   S   S   S   S   S   S   S
|---------------------------------------------------------------|
|---------------------------------------------------------------|
|---------------------------------------------------------------|
|---------------------------------------------------------------|
|-4-------------------------------------------------------------|
|-2-----2---2---2---2---2---2---5---5---2---2---5---5---0---0---|
|
| |-3-| |--3--| |--3--| |--3--| |--3--| |--3--| |--3--| |--3--|
| S S S S S   S S S   S S S   S S S   S S S   S S S   S S S   S
|---------------------------------------------------------------|
|---------------------------------------------------------------|
|---------------------------------------------------------------|
|---------------2h4p==2-----------------4h6h==7S9p7p==6---------|
|-------2h4h==5---------5p4p==2S4h5h==7-----------------9p7p==5-|
|-2h4h5---------------------------------------------------------|


                                       A5              E5
  E       S   S     S   S    S    S    Q                Q
|----------------------------------------------------------------------|
|----------------------------------------------------------------------|
|----------------------------------------------------------------------|
|----------------------------------------------------------------------|
|-4------------------------------------7----------------2--------------|
|-2-------2---2-----2---2----2----2----5----------------0--------------|
|
| |-3--|  |--3---|  |--3---| |---3---| |--3--| |--3--|  |-3--|  |-3--|
| S S  S  S S    S  S S    S S  S    S S  S  S S  S  S  S S  S  S S  S
|----------------------------------------------------------------------|
|----------------------------------------------------------------------|
|---------------------9h==11p9-----------------9h11h13p11p9------------|
|-----------9h==11h12----------12p==11p9h11h12--------------12p11p9----|
|-7h9h11S12---------------------------------------------------------12-|
|----------------------------------------------------------------------|


  B5
  S    S    S    S    S    S     S    S     S    S     S    S     S    S     S    S
|--------------------------------------------------------------------------------------|
|--------------------------------------------------------------------------------------|
|--------------------------------------------------------------------------------------|
|-4------------------------------------------------------------------------------------|
|-2----2----2----2----2----2-----2----2-----4----4-----4----4-----4----4-----4----4----|
|--------------------------------------------------------------------------------------|
|
| |---3---| |---3---| |---3---|  |---3---|  |---3---|  |---3---|  |---3---|  |---3---|
| S  S    S S  S    S S  S    S  S  S    S  S  S    S  S  S    S  S  S    S  S  S    S
|--------------------------------------------------------------------------------------|
|-------------------------------10h12h==14S15p14p==12----------------------------------|
|---------------------9h11h==13-----------------------14p13p==11-----------------------|
|-----------9h11h==12--------------------------------------------14p12p==11------------|
|-9h11h==12-----------------------------------------------------------------14p12p==11-|
|--------------------------------------------------------------------------------------|


  D5 C#5F#5
  Q  Q  H
|------------|
|------------|
|------------|
|-7--6-------|
|-5--4--4----|
|-------2----|
|
| Q  Q  H
|------------|
|------------|
|------------|
|----3--4----|
|-9--4--4----|
|-------2----|


    C5                                              Eb5Bb5
    Gtrs I, II
    E S S S S S S S S S S S S S S   S S S S S S S S Q  Q
||--------------------------------|-----------------------|
||o-------------------------------|-----------------------|
||--------------------------------|-----------------------|
||--5-----------------------------|-----------------8--3--|
||o-3-3-3-3-3-3-3-6-6-3-3-6-6-----|-3-3-3-3-3-3-3-3-6--1--|
||----------------------------6-6-|-----------------------|


                                  1.                        2.
                                                            D.S. al Coda
  C5                                              G#5Bb5
                                                                        ~
  E S S S S S S S S S S S S S S   S S S S S S S S Q  Q      E. E. E. E. Q
|-------------------------------|------------------------||----------------|
|-------------------------------|-----------------------o||----------------|
|-------------------------------|------------------------||----------------|
|-5-----------------------------|------------------------||----------------|
|-3-3-3-3-3-3-3-6-6-3-3-6-6-----|-3-3-3-3-3-3-3-3-6--8--o||-3--5--6--7--8--|
|---------------------------6-6-|-----------------4--6---||----------------|


   Guitar Break
    &
    A5         Eb5              A5                  C5/GG5      D5A5A5F5G5
    Gtr I
    W          W                E H..                   H         E E E E   3x
||-----------|-----------||-||------------------------|---------------------||
||o----------|----------o||-||o-----------------------|--------------------o||
||--2--------|-8---------||-||--2---------------------|---------------------||
||--2--------|-8---------||-||--2---------------------|---------------3-5---||
||o-0--------|-6--------o||-||o-0---------------------|-------------0-3-5--o||
||-----------|-----------||-||------------------------|-------------0-1-3---||
|
|   Gtr II
|   W          W                E S   E S E E S E S E   E S E S E E E E E   3x
||-----------|-----------||-||------------------------|---------------------||
||o----------|----------o||-||o-----------------------|--------------------o||
||--2--------|-0---------||-||--2-------------------5-|-7-------7-9---------||
||-----------|-----------||-||--2---------7-9-------5-|-5-------7-7-2-3-5---||
||o----------|----------o||-||o---0---0-0-----0-0-0---|---0-0-0-----0-3-2--o||
||-----------|-----------||-||------------------------|---------------------||


 Outro
  A5       F5            E5
  E E  E E   E  E E  E   E  E  E E  E  E E  E
|----------------------|----------------------|
|----------------------|----------------------|
|--------9-/14-10-9----|-9-10----9------------|
|-7-9-10------------12-|------12---10-12-9-10-|
|----------------------|----------------------|
|----------------------|----------------------|
|
| H          H           W
|----------------------|----------------------|
|----------------------|----------------------|
|-2--------------------|----------------------|
|-2----------3---------|-2--------------------|
|-0----------3---------|-2--------------------|
|------------1---------|-0--------------------|


  A5      C5       G5         A5
  Q.    E  Q  Q    E S S  E E Q    E E
|----------------|----------------------|
|----------------|----------------------|
|-------------9--|-7-9p7----------------|
|-7-----9-10-----|-------10-9-7---10-9--|
|----------------|----------------------|
|----------------|----------------------|
|
| Q   E E  H       H          Q.     E
|----------------|----------------------|
|----------------|----------------------|
|-2--------5-----|------------2---------|
|-2--------5-----|-5----------2---------|
|-0---0-2--3-----|-5----------0---------|
|----------------|-3-----------------3--|


  A5       C5       E5     A5         A5            C5
                            ~~~~~
   Q   E E  Q  Q     Q  Q   H         E S S E   E    S  S  S  S S S S S
|-----------------|-----------------|-----------------------------------|
|-----------------|-----------------|-----------------------------------|
|--------------9--|-12S=9--12b14----|---------------------------9-9-9-9-|
|-10---7-9-10-----|-----------------|-7-7-7-7---9---10-10-10-10---------|
|-----------------|-----------------|-----------------------------------|
|-----------------|-----------------|-----------------------------------|
|
|  Q.    E  H        Q  Q   H         E S S S S S S  E     S  S S S S S
|-----------------|-----------------|-----------------------------------|
|-----------------|-----------------|-----------------------------------|
|--2--------------|---------2-------|-2---------------------------------|
|--2--------5-----|--2------2-------|-2--------------5------------------|
|--0-----2--3-----|--2------0-------|-0-0-0-0-0-2-2--3-----3--3-3-3-3-3-|
|-----------------|--0--3-----------|-----------------------------------|


  G5             D5
  E S S  E   E   S S S S  E   E
|---------------------------------|
|---------------------------------|
|-7-9p7---------------------------|
|-------10---9---7-7-7-7-10---9---|
|---------------------------------|
|---------------------------------|
|
| E S S  S S S S E   S S  S S S S
|---------------------------------|
|---------------------------------|
|-7--------------2----------------|
|-5-5-5--5-5-5-5-0---0-0--0-0-0-0-|
|---------------------------------|
|---------------------------------|


  A5             C5               F5  G5  A5
   Q     E   E    Q     Q          Q   Q  Q   Q
|-------------------------------|----------------*|
|-------------------------------|----------------*|
|-----------------------9-------|----------------*|
|-10-----7---9---10-------------|-10---9--7\-----*|
|-------------------------------|-----10---------*|
|-------------------------------|----------------*|
|
|  E S S S S S S  E S S S S S S    Q   Q  Q   Q
|-------------------------------|----------------*|
|-------------------------------|----------------*|
|--2----------------------------|----------------*|
|--2--------------5-------------|--3---5--7\-----*|
|--0-0-0-0-0-2-2--3-3-3-3-3-3-3-|--3---5--7\-----*|
|-------------------------------|--1---3--5\-----*|



Duration Legend
---------------
W - whole; H - half; Q - quarter; E - 8th; S - 16th; T - 32nd; X - 64th; a - acciaccatura
+ - note tied to previous; . - note dotted; .. - note double dotted
Uncapitalized letters represent notes that are staccato (1/2 duration)
Irregular groupings are notated above the duration line
Duration letters will always appear directly above the note/fret number it represents the
duration for.  Duration letters with no fret number below them represent rests.  Multi-
bar rests are notated in the form Wxn, where n is the number of bars to rest for.  Low
melody durations appear below the staff

Tablature Legend
----------------
 h   - hammer-on
 p   - pull-off
 b   - bend
 pb  - pre-bend
 r   - bend release (if no number after the r, then release immediately)
 /\  - slide into or out of (from/to "nowhere")
 s   - legato slide
 S   - shift slide
 - natural harmonic
[n]  - artificial harmonic
n(n) - tapped harmonic
 ~   - vibrato
 tr  - trill
 T   - tap
 TP  - trem. picking
 PM  - palm muting
\n/  - tremolo bar dip; n = amount to dip
 \n  - tremolo bar down
 n/  - tremolo bar up
/n\  - tremolo bar inverted dip
 =   - hold bend; also acts as connecting device for hammers/pulls
 <> - volume swell (louder/softer)
 x   - on rhythm slash represents muted slash
 o   - on rhythm slash represents single note slash

Misc Legend
-----------
 |  - bar
||  - double bar
||o - repeat start
o|| - repeat end
*|  - double bar (ending)
 :  - bar (freetime)
 $  - Segno
 &  - Coda
Tempo markers -  = BPM(8/16=s8/s16), where s8 = swing 8ths, s16 = swing 16ths

comments
print report bad tab
5 comments total. Showing first comments.
0 reply
vo1comania wrote on September 10 2008, 12:05 am

your amazing.
:]]
5*****

0 reply
The Duggan wrote on November 29 2008, 10:31 pm

Noewbies.. Don't try this at home.. Great tab man

+3 reply
stratdud39 wrote on December 15 2008, 08:58 pm

perfect except its down a whole and a half step-Db Gb Cb Fb Ab db
other than that, amazing job, i give you 5 stars

I want to post or [tab]
guest
You may want to rate the tab now too:
select rating
Please do not post tabs as comments. Select "correction" instead!