Oops, an error
Loading. Please wait.

Lil Bloodred Ridin Hood Bass Tab

509 views 1 this week
no commentswrite comment
1 2 3 4 5
excellent!
x 1
Autoscroll
+/-
esc
set tempo
stop
Contributor
WARNING: You are trying to view
                                    content from Ultimate-Guitar.com
                                    in an unauthorized application,
                                    which is prohibited.

                                    Please use an official Ultimate
                                    Guitar Tabs application for iPhone,
                                    iPad or Android to access legitimate
                                    chords, guitar, bass, and drum tabs
                                    from Ultimate-Guitar.com database.

                                    Type "ultimate guitar tabs" in Apple
                                    App Store's or Android Market's
                                    search to find the application.
Children of Bodom
Lil Bloodred Riding Hood
Hatecrew Deathroll
Tabbed By Kevin Cruz
Originally from Taborama.com

5-string Bass
Tunning: A D G C F

F|----------------------|----------------------|----------------------|
C|----------------------|----------------------|----------------------|
G|----------------------|----------------------|----------------------|
D|0--0--0--1--1--1------|0--0--0--3--3--3------|0--0--0--1--1--1------|
A|------------------3--3|------------------3--3|------------------3--3|

F|----------------------|----------------------|----------------------|
C|----------------------|----------------------|----------------------|
G|7---------------------|----------------------|----------------------|
D|---0--7--0--6--0--5--0|--0--0--1--1--1-------|0--0--0--3--3--3------|
A|----------------------|------------------3--3|------------------3--3|

F|----------------------|----------|----------------------|
C|----------------------|----------|----------------------|
G|----------------------|7--2--3--5|----------------------|
D|0--0--0--1--1--1------|----------|0--0--0--0--0--0--0--0|
A|------------------3--3|----------|----------------------|

F|----------------------|----------------------|-----------------|
C|----------------------|----------------------|-------7---10---9|
G|---------------5-----5|----------------------|--10-------------|
D|0--0--0--0--0-----0---|0--0--0--0--0--0--0--0|0----0---0----0--|
A|----------------------|----------------------|-----------------|

F|----------------------|----------------------|----------------------|
C|----------------------|----------------------|----------------------|
G|----------------------|---------------5-----5|----------------------|
D|0--0--0--0--0--0--0--0|0--0--0--0--0-----0---|0--0--0--0--0--0--0--0|
A|----------------------|----------------------|----------------------|

F|----------------------|----------------------|----------------------|
c|----------------------|----------------------|----------------------|
G|---2--5--3--2---------|----------------------|---------------5-----5|
D|3--------------5--3--2|0--0--0--0--0--0--0--0|0--0--0--0--0-----0---|
A|----------------------|----------------------|----------------------|

F|----------------------|------------------------|----------------------|
C|----------------------|----------7-----10-----9|----------------------|
G|----------------------|---10-------------------|----------------------|
D|0--0--0--0--0--0--0--0|0------0-----0------0---|0--0--0--0--0--0--0--0|
A|----------------------|------------------------|----------------------|

F|----------------------|----------------------|
C|----------------------|----------------------|
G|----------------------|---------------5-----5|
D|0--0--0--0--0--0--0--0|0--0--0--0--0-----0---|
A|----------------------|----------------------|

F|----------------------------------|----------------------|
C|----------------------------------|----------------------|
G|----------------------------------|------------------7---|
D|0--0--0--0--0--0--1--1--1--1--1--1|3--3--3--3--3--3-----5|
A|----------------------------------|----------------------|

F|----------------|----|------------|---------------|
C|----------------|----|------------|---------------|
G|----------------|----|------------|---------------|
D|0--0----0--3----|----|0-0-0-0-3---|6-7-----6-7-5--|
A|---------------5|3--1|-----------5|----7-8-------8|

F|----------------|----|------------|---------------|
C|----------------|----|------------|---------------|
G|----------------|----|------------|---------------|
D|0--0----0--3----|----|0-0-0-0-3---|6-7-----6-7-5--|
A|---------------5|3--1|-----------5|----7-8-------8|

F|--------------|-----|--------------|-----|
C|--------------|-----|--------------|-----|
G|-------------0|-----|-------------0|-----|
D|2--2-----2-2--|0----|2--2-----2-2--|0----|
A|--------------|----3|--------------|----3|

F|--------------|-----|--------------|-|
C|--------------|-----|--------------|-|
G|-------------0|-----|-------------0|4|
D|2--2-----2-2--|0----|2--2-----2-2--|-|
A|--------------|----3|--------------|-|

F|--------------|-----|--------------|-----|
C|--------------|-----|--------------|-----|
G|-------------0|-----|-------------0|-----|
D|2--2-----2-2--|0----|2--2-----2-2--|0----|
A|--------------|----3|--------------|----3|

F|--------------|-----|--------------|-|
C|--------------|-----|--------------|-|
G|-------------0|-----|-------------0|4|
D|2--2-----2-2--|0----|2--2-----2-2--|-|
A|--------------|----3|--------------|-|

F|---------------|---------------|
C|---------------|---------------|
G|---------------|----4---3---2--|
D|2-2-2-3-3-3-0-0|2-2---2---2---2|
A|---------------|---------------|

F|---------------|---------------|---------------|----------|
C|---------------|---------------|---------------|----------|
G|---------------|---------------|---------------|----------|
D|2-2-2-3-3-3-0-0|2-2-2-5-5-5-0-0|2-2-2-3-3-3-0-0|2---------|
A|---------------|---------------|---------------|---2--3--5|

F|---------------|---------------|---------------|
C|---------------|---------------|---------------|
D|---------------|---------------|---------------|
G|2-2-2-3-3-3-0-0|2-2-2-5-5-5-0-0|2-2-2-3-3-3-0-0|
A|---------------|---------------|---------------|

F|---------------|---------------|---------------|
C|---------------|---------------|---------------|
G|----4---3---2--|---------------|---------------|
D|2-2---2---2---2|2-2-2-3-3-3-0-0|2-2-2-5-5-5-0-0|
A|---------------|---------------|---------------|

F|---------------|----------|-|------|----------------------|
C|---------------|----------|-|------|----------------------|
G|---------------|----------|-|5----5|----------------------|
D|2-2-2-3-3-3-0-0|2---------|0|------|0--0--0--0--0--0--0--0|
A|---------------|---2--3--5|-|------|----------------------|

F|------------------------|
C|----------7-----10-----9|
G|---10-------------------|
D|0------0-----0------0---|
A|------------------------|

F|----------------------|----------------------|----------------------|
C|----------------------|----------------------|----------------------|
G|----------------------|---------------5-----5|----------------------|
D|0--0--0--0--0--0--0--0|0--0--0--0--0-----0---|0--0--0--0--0--0--0--0|
A|----------------------|----------------------|----------------------|


F|----------------------|----------------------|----------------------|
c|----------------------|----------------------|----------------------|
G|---2--5--3--2---------|----------------------|---------------5-----5|
D|3--------------5--3--2|0--0--0--0--0--0--0--0|0--0--0--0--0-----0---|
A|----------------------|----------------------|----------------------|

F|----------------------|------------------------|
C|----------------------|----------7-----10-----9|
G|----------------------|---10-------------------|
D|0--0--0--0--0--0--0--0|0------0-----0------0---|
A|----------------------|------------------------|

F|----------------------|----------------------|-----------------------|
C|----------------------|----------------------|-----------------------|
G|----------------------|---------------5-----5|-----------------------|
D|0--0--0--0--0--0--0--0|0--0--0--0--0-----0---|0-0-0-0-0-0-1-1-1-1-1-1|
A|----------------------|----------------------|-----------------------|

F|------------------|--|----|--|----|--|
C|------------------|--|----|--|----|--|
G|-------------7----|--|----|--|----|--|
D|3-3-3-3-3-3------5|--|----|--|----|--|
A|------------------|4~|4--6|7~|7--9|11|

F|-----------------------|-----------------------|-----------------------|
C|-----------------------|-----------------------|-----------------------|
G|4-4-4-4-4-4-4-4-4-4-4-4|4-4-4-4-4-4-4-4-4-4-4-4|-----------------------|
D|-----------------------|-----------------------|-----------------------|
A|-----------------------|-----------------------|2-2-2-2-2-2-3-3-3-3-3-3|

F|-----------------------|-----------------------|-----------------------|
C|-----------------------|-----------------------|-----------------------|
G|-----------------------|-----------------------|-----------------------|
D|-----------------------|-----------------------|-----------------------|
A|5-5-5-5-5-5-5-5-5-5-5-5|5-5-5-5-5-5-5-5-5-5-5-5|5-5-5-5-5-5-6-6-6-6-6-6|

F|-----------------------|-----------------------|-----------------|
C|-----------------------|-----------------------|-----------------|
G|-----------------------|-----------------------|-----------------|
D|-----------------------|5-5-5-5-5-5-5-5-5-5-5-5|5-5-5-5-5-5-5---3|
A|8-8-8-8-8-8-8-8-8-8-8-8|-----------------------|-----------------|

F|-----------------|-----------------|-----------------------|
C|-----------------|-----------------|-----------------------|
G|-----------------|-----------------|-----------------------|
D|8-8-8-8-8-8-8----|8-8-8-8-8-8-8---7|5-5-5-5-5-5-5-5-5-5-5-5|
A|----------------8|-----------------|-----------------------|

F|-----------------|-----------------|-----------------|
C|-----------------|-----------------|-----------------|
G|-----------------|-----------------|-----------------|
D|5-5-5-5-5-5-5---3|8-8-8-8-8-8-8----|8-8-8-8-8-8-8---7|
A|-----------------|----------------8|-----------------|

F|-----------------------|-----------------|
C|-----------------------|-----------------|
G|-----------------------|-----------------|
D|2-2-2-2-2-2-2-2-2-2-2-2|2-2-2-2-2-2-2---0|
A|-----------------------|-----------------|

F|-----------------|-----------------|
C|-----------------|-----------------|
G|-----------------|-----------------|
D|5-5-5-5-5-5-5----|5-5-5-5-5-5-5---4|
A|----------------5|-----------------|

F|-----------------------|-----------------|
C|-----------------------|-----------------|
G|-----------------------|-----------------|
D|2-2-2-2-2-2-2-2-2-2-2-2|2-2-2-2-2-2-2---0|
A|-----------------------|-----------------|

F|--------------------------------|-|
C|12-11-9----11-9-------11--------|-|
G|--------12------12-11----12-11-9|-|
D|--------------------------------|0|
A|--------------------------------|-|

F|----------------------------------|
C|----------------------------------|
G|7-----------------7---------------|
D|---0--0--0--0--0-----0--0--0--0--0|
A|----------------------------------|

F|--------------------------|
C|--------------------------|
G|7------------------7-----6|
D|---0--0--0--0--0----------|
A|--------------------------|

F|----------------------------------|
C|----------------------------------|
G|6-----------------6---------------|
D|----------------------------------|
A|---4--4--4--4--4-----4--4--4--4--4|

F|------------------------|
C|------------------------|
G|6-----------------6----6|
D|------------------------|
A|---4--4--4--4--4--------|

F|----------------------------------|
C|----------------------------------|
G|7-----------------7---------------|
D|---0--0--0--0--0-----0--0--0--0--0|
A|----------------------------------|

F|--------------------------|
C|--------------------------|
G|7------------------7-----6|
D|---0--0--0--0--0----------|
A|--------------------------|

F|----------------------------------|
C|----------------------------------|
G|6-----------------6---------------|
D|----------------------------------|
A|---4--4--4--4--4-----4--4--4--4--4|

F|------------------------|------|------|
C|------------------------|------|-----5|
G|6-----------------6----6|3----2|5-----|
D|------------------------|------|------|
A|---4--4--4--4--4--------|------|------|

F|----------------------------------|
C|----------------------------------|
G|7-----------------7---------------|
D|---0--0--0--0--0-----0--0--0--0--0|
A|----------------------------------|

F|----------------------------------|
C|----------------------------------|
G|7-----------------7---------------|
D|---0--0--0--0--0-----0--0--0--0--0|
A|----------------------------------|

F|------|------|
C|------|-----5|
G|3----2|5-----|
D|------|------|
A|------|------|

F|----------------------------------|
C|----------------------------------|
G|7-----------------3---------------|
D|---0--0--0--0--0-----1--1--1--1--1|
A|----------------------------------|

F|------------------|
C|7-----------------|
G|------------------|
D|---5-5-5-5-5-5----|
A|-----------------3|

F|----------------|----|------------|---------------|
C|----------------|----|------------|---------------|
G|----------------|----|------------|---------------|
D|0--0----0--3----|----|0-0-0-0-3---|6-7-----6-7-5--|
A|---------------5|3--1|-----------5|----7-8-------8|

F|----------------|----|------------|---------------|
C|----------------|----|------------|---------------|
G|----------------|----|------------|---------------|
D|0--0----0--3----|----|0-0-0-0-3---|6-7-----6-7-5--|
A|---------------5|3--1|-----------5|----7-8-------8|

F|--------------|-----|--------------|-----|
C|--------------|-----|--------------|-----|
G|-------------0|-----|-------------0|-----|
D|2--2-----2-2--|0----|2--2-----2-2--|0----|
A|--------------|----3|--------------|----3|

F|--------------|-----|--------------|-|
C|--------------|-----|--------------|-|
G|-------------0|-----|-------------0|4|
D|2--2-----2-2--|0----|2--2-----2-2--|-|
A|--------------|----3|--------------|-|

F|--------------|-----|--------------|-----|
C|--------------|-----|--------------|-----|
G|-------------0|-----|-------------0|-----|
D|2--2-----2-2--|0----|2--2-----2-2--|0----|
A|--------------|----3|--------------|----3|

F|--------------|-----|--------------|-|
C|--------------|-----|--------------|-|
G|-------------0|-----|-------------0|4|
D|2--2-----2-2--|0----|2--2-----2-2--|-|
A|--------------|----3|--------------|-|

F|---------------|---------------|
C|---------------|---------------|
G|---------------|---------------|  7X
D|2-2-2-2-2-2-2-2|0-0-0-0--------|
A|---------------|--------3-3-3-3|

F|---------------|-----|--|
C|---------------|-----|--|
G|---------------|-----|--|
D|2-2-2-2-2-2-2-2|0----|2~|
A|---------------|----3|--|
comments
We did not receive enough feedback on this tab! Please rate:
print report bad tab
1 2 3 4 5
I want to post or [tab]
guest
You may want to rate the tab now too:
select rating
Please do not post tabs as comments. Select "correction" instead!